  0
SECTION
  2
HEADER
  9
$ACADVER
  1
AC1009
  9
$INSBASE
 10
3627.8591128526418288
 20
99.84018782315907
 30
0.0
  9
$EXTMIN
 10
3620.709461433575143
 20
99.8351237926665931
 30
0.0
  9
$EXTMAX
 10
3634.9998278515040511
 20
116.4327075012453037
 30
0.0
  9
$LIMMIN
 10
0.0
 20
0.0
  9
$LIMMAX
 10
11.6929133858000007
 20
8.2677165353999982
  9
$ORTHOMODE
 70
     0
  9
$REGENMODE
 70
     1
  9
$FILLMODE
 70
     1
  9
$QTEXTMODE
 70
     0
  9
$MIRRTEXT
 70
     0
  9
$DRAGMODE
 70
     2
  9
$LTSCALE
 40
0.6431102362
  9
$OSMODE
 70
  2039
  9
$ATTMODE
 70
     1
  9
$TEXTSIZE
 40
0.2
  9
$TRACEWID
 40
0.05
  9
$TEXTSTYLE
  7
STANDARD
  9
$CLAYER
  8
0
  9
$CELTYPE
  6
BYLAYER
  9
$CECOLOR
 62
   256
  9
$DIMSCALE
 40
1.0
  9
$DIMASZ
 40
0.1875
  9
$DIMEXO
 40
0.0625
  9
$DIMDLI
 40
0.4443307087
  9
$DIMRND
 40
0.0
  9
$DIMDLE
 40
0.0
  9
$DIMEXE
 40
0.125
  9
$DIMTP
 40
0.01
  9
$DIMTM
 40
0.01
  9
$DIMTXT
 40
2.0
  9
$DIMCEN
 40
0.1052362205
  9
$DIMTSZ
 40
0.0
  9
$DIMTOL
 70
     1
  9
$DIMLIM
 70
     0
  9
$DIMTIH
 70
     1
  9
$DIMTOH
 70
     1
  9
$DIMSE1
 70
     0
  9
$DIMSE2
 70
     0
  9
$DIMTAD
 70
     0
  9
$DIMZIN
 70
     0
  9
$DIMBLK
  1

  9
$DIMASO
 70
     1
  9
$DIMSHO
 70
     1
  9
$DIMPOST
  1
\X
  9
$DIMAPOST
  1

  9
$DIMALT
 70
     1
  9
$DIMALTD
 70
     2
  9
$DIMALTF
 40
25.3999999999999986
  9
$DIMLFAC
 40
1.0
  9
$DIMTOFL
 70
     0
  9
$DIMTVP
 40
0.0
  9
$DIMTIX
 70
     0
  9
$DIMSOXD
 70
     0
  9
$DIMSAH
 70
     0
  9
$DIMBLK1
  1

  9
$DIMBLK2
  1

  9
$DIMSTYLE
  2
STANDARD
  9
$DIMCLRD
 70
     0
  9
$DIMCLRE
 70
     0
  9
$DIMCLRT
 70
     0
  9
$DIMTFAC
 40
1.0
  9
$DIMGAP
 40
0.09
  9
$LUNITS
 70
     2
  9
$LUPREC
 70
     4
  9
$SKETCHINC
 40
0.1
  9
$FILLETRAD
 40
0.0
  9
$AUNITS
 70
     0
  9
$AUPREC
 70
     0
  9
$MENU
  1
.
  9
$ELEVATION
 40
0.0
  9
$PELEVATION
 40
0.0
  9
$THICKNESS
 40
0.0
  9
$LIMCHECK
 70
     0
  9
$BLIPMODE
 70
     0
  9
$CHAMFERA
 40
0.0
  9
$CHAMFERB
 40
0.0
  9
$SKPOLY
 70
     0
  9
$TDCREATE
 40
2458060.468368056230247
  9
$TDUPDATE
 40
2459978.7335995379835367
  9
$TDINDWG
 40
0.412784838
  9
$TDUSRTIMER
 40
0.412784838
  9
$USRTIMER
 70
     1
  9
$ANGBASE
 50
0.0
  9
$ANGDIR
 70
     0
  9
$PDMODE
 70
     0
  9
$PDSIZE
 40
0.3125
  9
$PLINEWID
 40
0.0
  9
$COORDS
 70
     1
  9
$SPLFRAME
 70
     0
  9
$SPLINETYPE
 70
     6
  9
$SPLINESEGS
 70
     8
  9
$ATTDIA
 70
     1
  9
$ATTREQ
 70
     1
  9
$HANDLING
 70
     1
  9
$HANDSEED
  5
1751A
  9
$SURFTAB1
 70
     6
  9
$SURFTAB2
 70
     6
  9
$SURFTYPE
 70
     6
  9
$SURFU
 70
     6
  9
$SURFV
 70
     6
  9
$UCSNAME
  2

  9
$UCSORG
 10
0.0
 20
0.0
 30
0.0
  9
$UCSXDIR
 10
1.0
 20
0.0
 30
0.0
  9
$UCSYDIR
 10
0.0
 20
1.0
 30
0.0
  9
$PUCSNAME
  2

  9
$PUCSORG
 10
0.0
 20
0.0
 30
0.0
  9
$PUCSXDIR
 10
1.0
 20
0.0
 30
0.0
  9
$PUCSYDIR
 10
0.0
 20
1.0
 30
0.0
  9
$USERI1
 70
     0
  9
$USERI2
 70
     0
  9
$USERI3
 70
     0
  9
$USERI4
 70
     0
  9
$USERI5
 70
     0
  9
$USERR1
 40
0.0
  9
$USERR2
 40
0.0
  9
$USERR3
 40
0.0
  9
$USERR4
 40
0.0
  9
$USERR5
 40
0.0
  9
$WORLDVIEW
 70
     1
  9
$SHADEDGE
 70
     3
  9
$SHADEDIF
 70
    70
  9
$TILEMODE
 70
     1
  9
$MAXACTVP
 70
    64
  9
$PLIMCHECK
 70
     0
  9
$PEXTMIN
 10
1.0000000000000000E+20
 20
1.0000000000000000E+20
 30
1.0000000000000000E+20
  9
$PEXTMAX
 10
-1.0000000000000000E+20
 20
-1.0000000000000000E+20
 30
-1.0000000000000000E+20
  9
$PLIMMIN
 10
0.0
 20
0.0
  9
$PLIMMAX
 10
12.0
 20
9.0
  9
$UNITMODE
 70
     0
  9
$VISRETAIN
 70
     1
  9
$PLINEGEN
 70
     0
  9
$PSLTSCALE
 70
     1
  0
ENDSEC
  0
SECTION
  2
TABLES
  0
TABLE
  2
VPORT
 70
     1
  0
VPORT
  2
*ACTIVE
 70
     0
 10
0.0
 20
0.0
 11
1.0
 21
1.0
 12
-646.785557609120815
 22
14.7806227401830004
 13
0.0
 23
0.0
 14
1.0
 24
1.0
 15
0.0
 25
0.0
 16
0.0
 26
0.0
 36
122.0237731519760018
 17
4265.00634765625
 27
104.3040122985839986
 37
0.0
 40
74.7625528298633526
 41
2.4628205128205121
 42
50.0
 43
0.0
 44
0.0
 50
0.0
 51
0.0
 71
     0
 72
   100
 73
     1
 74
     1
 75
     0
 76
     0
 77
     0
 78
     0
  0
ENDTAB
  0
TABLE
  2
LTYPE
 70
     2
  0
LTYPE
  2
CONTINUOUS
 70
     0
  3
Solid line
 72
    65
 73
     0
 40
0.0
  0
LTYPE
  2
PHANTOM2
 70
     0
  3
___ _ _ ___ _ _ ___ _ _ ___ _ _
 72
    65
 73
     6
 40
1.25
 49
0.625
 49
-0.125
 49
0.125
 49
-0.125
 49
0.125
 49
-0.125
  0
ENDTAB
  0
TABLE
  2
LAYER
 70
     2
  0
LAYER
  2
0
 70
     0
 62
   255
  6
CONTINUOUS
  0
LAYER
  2
DEFPOINTS
 70
     0
 62
     7
  6
CONTINUOUS
  0
ENDTAB
  0
TABLE
  2
STYLE
 70
     1
  0
STYLE
  2
STANDARD
 70
     0
 40
0.0
 41
0.8
 50
0.0
 71
     0
 42
0.2
  3
txt
  4

  0
ENDTAB
  0
TABLE
  2
VIEW
 70
     0
  0
ENDTAB
  0
TABLE
  2
UCS
 70
     0
  0
ENDTAB
  0
TABLE
  2
APPID
 70
     9
  0
APPID
  2
ACAD
 70
     0
  0
APPID
  2
ACAD_MLEADERVER
 70
     0
  0
APPID
  2
ACAD_EXEMPT_FROM_CAD_STANDARDS
 70
     0
  0
APPID
  2
ACAD_NAV_VCDISPLAY
 70
     0
  0
APPID
  2
ACAECLAYERSTANDARD
 70
     0
  0
APPID
  2
ACCMTRANSPARENCY
 70
     0
  0
APPID
  2
ACAD_DSTYLE_DIMJAG
 70
     0
  0
APPID
  2
ACAD_DSTYLE_DIMTALN
 70
     0
  0
APPID
  2
ACDBATTR
 70
     0
  0
ENDTAB
  0
TABLE
  2
DIMSTYLE
 70
     1
  0
DIMSTYLE
  2
STANDARD
 70
     0
  3

  4

  5

  6

  7

 40
1.0
 41
0.1875
 42
0.0625
 43
0.38
 44
0.125
 45
0.0
 46
0.0
 47
0.01
 48
0.01
140
0.15625
141
0.09
142
0.0
143
25.3999999999999986
144
1.0
145
0.0
146
1.0
147
0.09
 71
     1
 72
     0
 73
     1
 74
     1
 75
     0
 76
     0
 77
     0
 78
     4
170
     0
171
     2
172
     0
173
     0
174
     0
175
     0
176
     0
177
     0
178
     0
  0
ENDTAB
  0
ENDSEC
  0
SECTION
  2
BLOCKS
  0
BLOCK
  8
0
  2
$MODEL_SPACE
 70
     0
 10
0.0
 20
0.0
 30
0.0
  3
$MODEL_SPACE
  1

  0
ENDBLK
  5
21
  8
0
  0
BLOCK
 67
     1
  8
0
  2
$PAPER_SPACE
 70
     0
 10
0.0
 20
0.0
 30
0.0
  3
$PAPER_SPACE
  1

  0
ENDBLK
  5
1D
 67
     1
  8
0
  0
BLOCK
  8
0
  2
_FILLED
 70
     0
 10
0.0
 20
0.0
 30
0.0
  3
_FILLED
  1

  0
SOLID
  5
10F92
  8
0
  6
BYBLOCK
 62
     0
 10
0.0
 20
0.0
 30
0.0
 11
-1.0
 21
0.1666666667
 31
0.0
 12
-1.0
 22
-0.1666666667
 32
0.0
 13
-1.0
 23
-0.1666666667
 33
0.0
  0
ENDBLK
  5
10F93
  8
0
  6
BYBLOCK
 62
     0
  0
ENDSEC
  0
SECTION
  2
ENTITIES
  0
LINE
  5
17134
  8
0
 10
3620.852292863069124
 20
116.4327075012453037
 30
0.0
 11
3634.8569964220109796
 21
116.4327075012453037
 31
0.0
  0
LINE
  5
17135
  8
0
 10
3620.8461039980620626
 20
115.7710878012453009
 30
0.0
 11
3622.0694053728848303
 21
115.7710878012453009
 31
0.0
  0
ARC
  5
17136
  8
0
 10
3620.8527970895770522
 20
116.3533922720564959
 30
0.0
 40
0.0793168319188478
 50
90.3642385195530551
 51
142.1368808164178006
  0
ARC
  5
17137
  8
0
 10
3620.8525551731818268
 20
116.3535803488668989
 30
0.0
 40
0.0790104066769812
 50
142.13688081641709
 51
178.7224948559791926
  0
ARC
  5
17138
  8
0
 10
3649.6241093115831973
 20
115.7119641446102065
 30
0.0
 40
28.8577177941289094
 50
178.7224948559791926
 51
179.354092470164602
  0
ARC
  5
17139
  8
0
 10
3620.8428098098770533
 20
116.0364356113138058
 30
0.0
 40
0.0745893550649374
 50
179.354092470164602
 51
264.0284316390873869
  0
ARC
  5
1713A
  8
0
 10
3622.1677572386888642
 20
783.8197070674370934
 30
0.0
 40
667.8587857678841146
 50
269.885666614663478
 51
269.905264588208297
  0
ARC
  5
1713B
  8
0
 10
3619.8779124443390174
 20
102.9874558515575984
 30
0.0
 40
13.0284338432938291
 50
83.0306365342279378
 51
84.778904562369874
  0
ARC
  5
1713C
  8
0
 10
3642.9962636654258858
 20
128.4834461526357927
 30
0.0
 40
24.9341829517455409
 50
210.2569930274520118
 51
210.6033801193833028
  0
ARC
  5
1713D
  8
0
 10
3621.5890765240142173
 20
115.8162249471914009
 30
0.0
 40
0.0601527107938383
 50
206.2200832660840035
 51
228.6229520897782947
  0
ARC
  5
1713E
  8
0
 10
3622.5404906877638496
 20
-224.5199242605715142
 30
0.0
 40
340.4783480813380265
 50
89.7661009197267248
 51
90.2372206168790711
  0
ARC
  5
1713F
  8
0
 10
3626.1022356944481544
 20
647.9581663026204978
 30
0.0
 40
532.0070125639199432
 50
269.7661009197266822
 51
270.1887302533835964
  0
LINE
  5
17140
  8
0
 10
3624.1144554232678274
 20
115.9548673027171048
 30
0.0
 11
3624.114467621474887
 21
115.7710878012453009
 31
0.0
  0
LINE
  5
17141
  8
0
 10
3624.0976442243090787
 20
115.9549303817993007
 30
0.0
 11
3624.095763094755057
 21
115.7710878012453009
 31
0.0
  0
LINE
  5
17142
  8
0
 10
3624.1144554232678274
 20
115.8411720681452977
 30
0.0
 11
3624.0964802169000905
 21
115.8411720681452977
 31
0.0
  0
ARC
  5
17143
  8
0
 10
3622.0697286308782168
 20
115.7982518136469992
 30
0.0
 40
0.0271659357558344
 50
269.3181992333322228
 51
325.1366938041779804
  0
ARC
  5
17144
  8
0
 10
3623.2357302649870689
 20
115.0798898281506979
 30
0.0
 40
1.342404832729853
 50
144.5442530372910142
 51
148.4284507049191859
  0
ARC
  5
17145
  8
0
 10
3622.7441046337889929
 20
115.4357198789487029
 30
0.0
 40
0.6523556679156006
 50
126.7573026354397001
 51
136.0386436871866067
  0
ARC
  5
17146
  8
0
 10
3622.2062216103990977
 20
115.9650010037920964
 30
0.0
 40
0.1025114979128289
 50
280.2817416700713125
 51
311.7886432610603151
  0
ARC
  5
17147
  8
0
 10
3622.1535840707952048
 20
116.3029738826894999
 30
0.0
 40
0.4445342879048738
 50
268.5397601692367857
 51
279.1819833590399753
  0
ARC
  5
17148
  8
0
 10
3620.865884767766147
 20
115.6773913433467982
 30
0.0
 40
0.0957617098469305
 50
101.9209764341805027
 51
174.8121675068780974
  0
ARC
  5
17149
  8
0
 10
3610.0422529393317745
 20
115.9782655100197957
 30
0.0
 40
10.7334450009393407
 50
358.5143999437083266
 51
0.1370949121299866
  0
LINE
  5
1714A
  8
0
 10
3623.580094391341845
 20
115.9568366737635046
 30
0.0
 11
3623.5820334147529138
 21
115.7732661855122984
 31
0.0
  0
LINE
  5
1714B
  8
0
 10
3623.5600822110818626
 20
115.9568971903494941
 30
0.0
 11
3623.562262472069051
 21
115.7753992422452995
 31
0.0
  0
ARC
  5
1714C
  8
0
 10
3623.6142031790291185
 20
116.1641355916722063
 30
0.0
 40
0.3921910075528266
 50
262.3895442922957955
 51
265.2949841534634174
  0
ARC
  5
1714D
  8
0
 10
3623.6541145346609483
 20
116.9641449975256933
 30
0.0
 40
1.193058268798969
 50
266.5362457681438855
 51
269.9231738210503977
  0
LINE
  5
1714E
  8
0
 10
3623.6525147993679639
 20
115.7710878012453009
 30
0.0
 11
3633.6405055545610594
 21
115.7710878012453009
 31
0.0
  0
ARC
  5
1714F
  8
0
 10
3533.1479322973809758
 20
501.8089848990038035
 30
0.0
 40
396.0920872490896727
 50
282.9823090013700266
 51
283.057554251618626
  0
LINE
  5
17150
  8
0
 10
3623.5613932342680528
 20
115.8411720681452977
 30
0.0
 11
3623.5813161366249915
 21
115.8411720681452977
 31
0.0
  0
ARC
  5
17151
  8
0
 10
3627.4423015374618444
 20
-626.5927485758111288
 30
0.0
 40
741.7728746356964393
 50
89.9681523843294144
 51
90.3388382296328842
  0
ARC
  5
17152
  8
0
 10
3626.1428736673701678
 20
-406.8688264214296169
 30
0.0
 40
522.0451101640794604
 50
90.3388382296328842
 51
90.5419455424710833
  0
ARC
  5
17153
  8
0
 10
3621.1560426144110352
 20
120.3351618208716047
 30
0.0
 40
5.1824628084834474
 50
268.905080536516607
 51
270.5419455424711259
  0
ARC
  5
17154
  8
0
 10
3687.1859837082151898
 20
114.2454560577873934
 30
0.0
 40
66.4310902906523921
 50
178.7574125936870075
 51
179.6328955890712962
  0
ARC
  5
17155
  8
0
 10
3574.36825126115491
 20
117.8809625872715969
 30
0.0
 40
46.4989286086512408
 50
355.4793437809810257
 51
356.0416597378105052
  0
ARC
  5
17156
  8
0
 10
3623.3592119703412209
 20
113.9532357252799954
 30
0.0
 40
2.6497505367652039
 50
174.3091576812504968
 51
204.0267288224050901
  0
ARC
  5
17157
  8
0
 10
3621.2541598080119911
 20
114.9683768864287003
 30
0.0
 40
0.500893976072592
 50
139.9587562930267097
 51
171.643557679665804
  0
ARC
  5
17158
  8
0
 10
3623.5512037429971315
 20
120.5637809549850061
 30
0.0
 40
5.909120789939962
 50
244.2301560698527965
 51
246.3067546115235871
  0
ARC
  5
17159
  8
0
 10
3620.3386234414520004
 20
113.9093034930332067
 30
0.0
 40
1.4802460628756999
 50
64.2301560698531944
 51
68.934127650159553
  0
ARC
  5
1715A
  8
0
 10
3621.0491351900359405
 20
115.7539083376843934
 30
0.0
 40
0.4964668595753938
 50
241.3637110800825099
 51
248.9341276501596099
  0
ARC
  5
1715B
  8
0
 10
3620.8542805509450773
 20
115.3970576031093032
 30
0.0
 40
0.0898825790847173
 50
179.8530081827778133
 51
241.3637110800825099
  0
ARC
  5
1715C
  8
0
 10
3557.7710062072360415
 20
67.3058234800901829
 30
0.0
 40
79.6312864791240855
 50
36.9331991157333235
 51
36.9838874588834372
  0
ARC
  5
1715D
  8
0
 10
3621.4671907358620047
 20
115.4190347546501982
 30
0.0
 40
0.2250156406292253
 50
238.2722688792858889
 51
247.4373259111353889
  0
ARC
  5
1715E
  8
0
 10
3621.3595785218890342
 20
115.2460028752843044
 30
0.0
 40
0.0212574954607167
 50
182.9187997122554918
 51
239.7162994378801102
  0
ARC
  5
1715F
  8
0
 10
3621.3896612451608235
 20
115.2181660647023023
 30
0.0
 40
0.0578686723741524
 50
113.4663950974634048
 51
152.462503969737611
  0
ARC
  5
17160
  8
0
 10
3621.469884065666065
 20
115.028089515915994
 30
0.0
 40
0.2641786983283824
 50
94.2598303038746081
 51
113.0103506260969937
  0
ARC
  5
17161
  8
0
 10
3621.4268121070008419
 20
112.9522483568788971
 30
0.0
 40
2.3394075739180571
 50
83.4263186069976115
 51
89.4256905002198437
  0
ARC
  5
17162
  8
0
 10
3620.8035741514718211
 20
107.0941673948129989
 30
0.0
 40
8.2304842415644117
 50
81.7156661041481129
 51
83.7848165780953877
  0
ARC
  5
17163
  8
0
 10
3621.9268164867498854
 20
114.8340186274388941
 30
0.0
 40
0.4095700796978686
 50
66.0251888607307649
 51
81.2008794888480168
  0
ARC
  5
17164
  8
0
 10
3622.007418452211823
 20
115.096265948216498
 30
0.0
 40
0.1410894247248605
 50
27.256893154448921
 51
52.5353690854003688
  0
ARC
  5
17165
  8
0
 10
3621.4486945342050603
 20
114.8597385471341994
 30
0.0
 40
0.4318027030117195
 50
89.7921482023752731
 51
101.2334731308455957
  0
ARC
  5
17166
  8
0
 10
3621.3761227592440264
 20
115.2251322981328059
 30
0.0
 40
0.0592718240367266
 50
101.2334731308455957
 51
129.3089559598188032
  0
LINE
  5
17167
  8
0
 10
3621.3385739505688434
 20
115.2709933501453037
 30
0.0
 11
3621.3383486037128023
 21
115.2449204301376966
 31
0.0
  0
ARC
  5
17168
  8
0
 10
3623.6815886605650121
 20
114.1857677439064958
 30
0.0
 40
1.6567488007807769
 50
136.9097919613373904
 51
143.8769407622775134
  0
ARC
  5
17169
  8
0
 10
3624.1357452932070373
 20
121.3745204722567053
 30
0.0
 40
6.2813731187803166
 50
254.6379503357348142
 51
261.1563635138375048
  0
LINE
  5
1716A
  8
0
 10
3634.8969909217248642
 20
115.3175739931918002
 30
0.0
 11
3620.8122379139490477
 21
115.3175739931918002
 31
0.0
  0
ARC
  5
1716B
  8
0
 10
3621.0458831141099836
 20
114.8330863213545001
 30
0.0
 40
0.3207520791297453
 50
88.0116468313958222
 51
141.0749737349212012
  0
ARC
  5
1716C
  8
0
 10
3620.9341837528531869
 20
114.9232473609810938
 30
0.0
 40
0.1772050217571139
 50
141.0625057550313954
 51
177.2691234372148017
  0
ARC
  5
1716D
  8
0
 10
3611.3205155943219324
 20
105.3404521556722955
 30
0.0
 40
11.7037224428911806
 50
10.1593954487017903
 51
23.2611480244229512
  0
ARC
  5
1716E
  8
0
 10
3481.0547902817461363
 20
57.1996078582906833
 30
0.0
 40
150.5565773281153952
 50
21.1190850875942111
 51
21.7028433079902285
  0
ARC
  5
1716F
  8
0
 10
5265.3946144376213852
 20
746.4019872239856568
 30
0.0
 40
1762.2603317857578986
 50
201.1190850875941862
 51
201.1708086819720052
  0
ARC
  5
17170
  8
0
 10
3620.5263851994909601
 20
113.1298439375233045
 30
0.0
 40
2.260719356678301
 50
68.9226969289725133
 51
75.4011263684476205
  0
ARC
  5
17171
  8
0
 10
3634.8564921955030513
 20
116.3533922720564959
 30
0.0
 40
0.0793168319188478
 50
37.8631191835822065
 51
89.6357614804469165
  0
ARC
  5
17172
  8
0
 10
3634.856734111897822
 20
116.3535803488668989
 30
0.0
 40
0.0790104066769812
 50
1.2775051440207981
 51
37.8631191835828602
  0
ARC
  5
17173
  8
0
 10
3606.0851799734959968
 20
115.7119641446102065
 30
0.0
 40
28.8577177941289094
 50
0.6459075298354305
 51
1.2775051440207981
  0
ARC
  5
17174
  8
0
 10
3628.2669877476168949
 20
-626.5927485758111288
 30
0.0
 40
741.7728746356964393
 50
89.6611617703671158
 51
90.0318476156705714
  0
ARC
  5
17175
  8
0
 10
3629.5664156177090263
 20
-406.8688264214296169
 30
0.0
 40
522.0451101640794604
 50
89.4580544575289167
 51
89.6611617703671158
  0
ARC
  5
17176
  8
0
 10
3634.5532466706681589
 20
120.3351618208716047
 30
0.0
 40
5.1824628084834474
 50
269.4580544575288741
 51
271.0949194634835067
  0
ARC
  5
17177
  8
0
 10
3568.5233055768640043
 20
114.2454560577873934
 30
0.0
 40
66.4310902906523921
 50
0.3671044109286292
 51
1.2425874063129381
  0
ARC
  5
17178
  8
0
 10
3681.3410380239238293
 20
117.8809625872715969
 30
0.0
 40
46.4989286086512408
 50
183.9583402621894948
 51
184.5206562190190027
  0
ARC
  5
17179
  8
0
 10
3632.3500773147388827
 20
113.9532357252799954
 30
0.0
 40
2.6497505367652039
 50
335.9732711775940857
 51
5.6908423187495281
  0
ARC
  5
1717A
  8
0
 10
3634.4551294770681125
 20
114.9683768864287003
 30
0.0
 40
0.500893976072592
 50
8.3564423203341889
 51
40.0412437069733116
  0
ARC
  5
1717B
  8
0
 10
3632.1580855420829721
 20
120.5637809549850061
 30
0.0
 40
5.909120789939962
 50
293.6932453884763845
 51
295.7698439301468056
  0
ARC
  5
1717C
  8
0
 10
3635.3706658436271937
 20
113.9093034930332067
 30
0.0
 40
1.4802460628756999
 50
111.0658723498404044
 51
115.7698439301468056
  0
ARC
  5
1717D
  8
0
 10
3634.6601540950427989
 20
115.7539083376843934
 30
0.0
 40
0.4964668595753938
 50
291.0658723498403901
 51
298.6362889199174901
  0
ARC
  5
1717E
  8
0
 10
3634.8550087341350263
 20
115.3970576031093032
 30
0.0
 40
0.0898825790847173
 50
298.6362889199174901
 51
0.1469918172221474
  0
ARC
  5
1717F
  8
0
 10
3697.9382830778431526
 20
67.3058234800901829
 30
0.0
 40
79.6312864791240855
 50
143.0161125411165131
 51
143.066800884266712
  0
ARC
  5
17180
  8
0
 10
3634.2420985492171894
 20
115.4190347546501982
 30
0.0
 40
0.2250156406292253
 50
292.5626740888645827
 51
301.7277311207139974
  0
ARC
  5
17181
  8
0
 10
3634.3497107631910694
 20
115.2460028752843044
 30
0.0
 40
0.0212574954607167
 50
300.2837005621199182
 51
357.0812002877444797
  0
ARC
  5
17182
  8
0
 10
3634.3196280399179159
 20
115.2181660647023023
 30
0.0
 40
0.0578686723741524
 50
27.5374960302623393
 51
66.5336049025365242
  0
ARC
  5
17183
  8
0
 10
3634.2394052194131291
 20
115.028089515915994
 30
0.0
 40
0.2641786983283824
 50
66.9896493739030205
 51
85.7401696961253919
  0
ARC
  5
17184
  8
0
 10
3634.2824771780778974
 20
112.9522483568788971
 30
0.0
 40
2.3394075739180571
 50
90.5743094997801421
 51
96.5736813930024027
  0
ARC
  5
17185
  8
0
 10
3634.9057151336069182
 20
107.0941673948129989
 30
0.0
 40
8.2304842415644117
 50
96.2151834219046265
 51
98.2843338958518444
  0
ARC
  5
17186
  8
0
 10
3633.782472798328854
 20
114.8340186274388941
 30
0.0
 40
0.4095700796978686
 50
98.7991205111520117
 51
113.9748111392692067
  0
ARC
  5
17187
  8
0
 10
3633.7018708328669163
 20
115.096265948216498
 30
0.0
 40
0.1410894247248605
 50
127.4646309145995957
 51
152.7431068455510967
  0
ARC
  5
17188
  8
0
 10
3634.2605947508750432
 20
114.8597385471341994
 30
0.0
 40
0.4318027030117195
 50
78.7665268691544043
 51
90.2078517976247127
  0
ARC
  5
17189
  8
0
 10
3634.3331665258360772
 20
115.2251322981328059
 30
0.0
 40
0.0592718240367266
 50
50.6910440401811684
 51
78.7665268691544043
  0
LINE
  5
1718A
  8
0
 10
3634.3707153345108054
 20
115.2709933501453037
 30
0.0
 11
3634.3709406813668465
 21
115.2449204301376966
 31
0.0
  0
ARC
  5
1718B
  8
0
 10
3632.027700624514182
 20
114.1857677439064958
 30
0.0
 40
1.6567488007807769
 50
36.1230592377225435
 51
43.090208038662567
  0
ARC
  5
1718C
  8
0
 10
3631.5735439918730663
 20
121.3745204722567053
 30
0.0
 40
6.2813731187803166
 50
278.8436364861626089
 51
285.3620496642652142
  0
ARC
  5
1718D
  8
0
 10
3634.6634061709692105
 20
114.8330863213545001
 30
0.0
 40
0.3207520791297464
 50
38.9250262650787704
 51
91.988353168604192
  0
ARC
  5
1718E
  8
0
 10
3634.7751055322260072
 20
114.9232473609810938
 30
0.0
 40
0.1772050217571139
 50
2.7308765627851841
 51
38.9374942449686117
  0
ARC
  5
1718F
  8
0
 10
3644.3207836486221822
 20
105.3649527556641061
 30
0.0
 40
11.6315839822121792
 50
156.7174650299052985
 51
169.9608231317627087
  0
ARC
  5
17190
  8
0
 10
3774.6544990033330578
 20
57.1996078582906833
 30
0.0
 40
150.5565773281153952
 50
158.2971566920097075
 51
158.8809149124058138
  0
ARC
  5
17191
  8
0
 10
1990.3146748474568994
 20
746.4019872239856568
 30
0.0
 40
1762.2603317857578986
 50
338.829191318027199
 51
338.8809149124057853
  0
ARC
  5
17192
  8
0
 10
3635.1829040855877793
 20
113.1298439375233045
 30
0.0
 40
2.260719356678301
 50
104.5988736315523937
 51
111.0773030710275009
  0
LINE
  5
17193
  8
0
 10
3634.8631852870171315
 20
115.7710878012453009
 30
0.0
 11
3633.6405055545610594
 21
115.7710878012453009
 31
0.0
  0
ARC
  5
17194
  8
0
 10
3634.8664794752030502
 20
116.0364356113138058
 30
0.0
 40
0.0745893550649374
 50
275.9715683609126131
 51
0.6459075298354305
  0
ARC
  5
17195
  8
0
 10
3633.5415320463898752
 20
783.8197070674370934
 30
0.0
 40
667.8587857678841146
 50
270.094735411791703
 51
270.114333385336522
  0
ARC
  5
17196
  8
0
 10
3635.8313768407401767
 20
102.9874558515575984
 30
0.0
 40
13.0284338432938291
 50
95.221095437630126
 51
96.9693634657720622
  0
ARC
  5
17197
  8
0
 10
3612.7130256196542177
 20
128.4834461526357927
 30
0.0
 40
24.9341829517455409
 50
329.3966198806166972
 51
329.7430069725480166
  0
ARC
  5
17198
  8
0
 10
3634.1202127610649768
 20
115.8162249471914009
 30
0.0
 40
0.0601527107938383
 50
311.3770479102216768
 51
333.7799167339160249
  0
ARC
  5
17199
  8
0
 10
3633.1687985973148898
 20
-224.5199242605715142
 30
0.0
 40
340.4783480813380265
 50
89.7627793831209431
 51
90.2338990802732752
  0
ARC
  5
1719A
  8
0
 10
3629.6070535906310397
 20
647.9581663026204978
 30
0.0
 40
532.0070125639199432
 50
269.8112697466164036
 51
270.2338990802733178
  0
LINE
  5
1719B
  8
0
 10
3631.5948338618109119
 20
115.9548673027171048
 30
0.0
 11
3631.5948216636038524
 21
115.7710878012453009
 31
0.0
  0
LINE
  5
1719C
  8
0
 10
3631.6116450607701154
 20
115.9549303817993007
 30
0.0
 11
3631.6135261903241371
 21
115.7710878012453009
 31
0.0
  0
LINE
  5
1719D
  8
0
 10
3631.5948338618109119
 20
115.8411720681452977
 30
0.0
 11
3631.6128090681800131
 21
115.8411720681452977
 31
0.0
  0
ARC
  5
1719E
  8
0
 10
3633.647514097309795
 20
115.814100372454206
 30
0.0
 40
0.0435798227792577
 50
226.0538977083081136
 51
260.7454573658624781
  0
ARC
  5
1719F
  8
0
 10
3632.4735590200921251
 20
115.0798898281506979
 30
0.0
 40
1.342404832729853
 50
31.5715492950807608
 51
35.455746962708929
  0
ARC
  5
171A0
  8
0
 10
3632.9651846512902011
 20
115.4357198789487029
 30
0.0
 40
0.6523556679156006
 50
43.9613563128134075
 51
53.2426973645602573
  0
ARC
  5
171A1
  8
0
 10
3633.5030676746810059
 20
115.9650010037920964
 30
0.0
 40
0.1025114979128289
 50
228.2113567389397133
 51
259.7182583299286875
  0
ARC
  5
171A2
  8
0
 10
3633.5557052142839893
 20
116.3029738826894999
 30
0.0
 40
0.4445342879048738
 50
260.8180166409600247
 51
271.4602398307632143
  0
ARC
  5
171A3
  8
0
 10
3634.8434045173130471
 20
115.6773913433467982
 30
0.0
 40
0.0957617098469257
 50
5.1878324931194779
 51
78.0790235658461427
  0
ARC
  5
171A4
  8
0
 10
3645.6670363457469648
 20
115.9782655100197957
 30
0.0
 40
10.7334450009393407
 50
179.8629050878707858
 51
181.4856000562917018
  0
LINE
  5
171A5
  8
0
 10
3632.1291948937368943
 20
115.9568366737635046
 30
0.0
 11
3632.1272558703258255
 21
115.7732661855122984
 31
0.0
  0
LINE
  5
171A6
  8
0
 10
3632.1492070739968767
 20
115.9568971903494941
 30
0.0
 11
3632.1470268130110526
 21
115.7753992422452995
 31
0.0
  0
ARC
  5
171A7
  8
0
 10
3632.0950861060500756
 20
116.1641355916722063
 30
0.0
 40
0.3921910075528266
 50
274.7050158465365826
 51
277.6104557077040909
  0
ARC
  5
171A8
  8
0
 10
3632.0551747504177911
 20
116.9641449975256933
 30
0.0
 40
1.193058268798969
 50
270.0768261789494886
 51
273.4637542318560008
  0
ARC
  5
171A9
  8
0
 10
3722.5613569876982183
 20
501.8089848990038035
 30
0.0
 40
396.0920872490896727
 50
256.942445748381374
 51
257.0176909986299734
  0
LINE
  5
171AA
  8
0
 10
3632.1478960508111413
 20
115.8411720681452977
 30
0.0
 11
3632.1279731484542026
 21
115.8411720681452977
 31
0.0
  0
ARC
  5
171AB
  8
0
 10
3634.7659037415978673
 20
101.1646571445017031
 30
0.0
 40
1.85839852994958
 50
168.2466952907732889
 51
202.0839082044238921
  0
ARC
  5
171AC
  8
0
 10
3631.6981477542349239
 20
100.8873425920837974
 30
0.0
 40
1.4101302254935419
 50
342.6131999521206808
 51
27.7174035430808594
  0
ARC
  5
171AD
  8
0
 10
3620.9213167355310361
 20
101.1646571445017031
 30
0.0
 40
1.858398529949606
 50
337.9160917955762216
 51
11.7533047092267093
  0
ARC
  5
171AE
  8
0
 10
3623.989072722894889
 20
100.8873425920837974
 30
0.0
 40
1.4101302254935559
 50
152.2825964569190944
 51
197.3868000478792908
  0
ARC
  5
17231
  8
0
 10
3615.589152348216885
 20
106.6552232115596013
 30
0.0
 40
7.2902233343851117
 50
354.9504930708754955
 51
5.9018597557137724
  0
LINE
  5
17232
  8
0
 10
3622.8510824609029441
 20
106.0135634078451972
 30
0.0
 11
3622.3916536708029525
 21
99.9700690674452659
 31
0.0
  0
ARC
  5
17233
  8
0
 10
3622.5123311797219685
 20
99.9611866813634151
 30
0.0
 40
0.1210039583715326
 50
175.7903741292637108
 51
269.4739444907644952
  0
LINE
  5
17234
  8
0
 10
3622.5112202095051543
 20
99.84018782315907
 30
0.0
 11
3633.2070054957798675
 21
99.84018782315907
 31
0.0
  0
ARC
  5
17235
  8
0
 10
3633.1967853656519765
 20
99.9608291484883011
 30
0.0
 40
0.1210734505868873
 50
274.8422504841835234
 51
4.371855039478981
  0
LINE
  5
17236
  8
0
 10
3633.3175065310019818
 20
99.9700584861452768
 30
0.0
 11
3632.8554862585829142
 21
106.0133551748896963
 31
0.0
  0
ARC
  5
17237
  8
0
 10
3640.7582340888598083
 20
106.635369950666302
 30
0.0
 40
7.9271890131509197
 50
174.5186555508236097
 51
184.5003965383519926
  0
ATTDEF
  5
17241
  8
DEFPOINTS
 10
3627.8605205766571089
 20
99.8384571259999518
 30
0.0
 40
0.001
  1
K-78463A
  3

  2
MODELNUMBER
 70
     0
1001
ACDBATTR
1070
     0
1070
     1
  0
ATTDEF
  5
17242
  8
DEFPOINTS
 10
3627.8605205766571089
 20
99.8367904593332867
 30
0.0
 40
0.001
  1
MODERNLIFE
  3

  2
TRADENAME
 70
     0
1001
ACDBATTR
1070
     0
1070
     1
  0
ATTDEF
  5
17243
  8
DEFPOINTS
 10
3627.8605205766571089
 20
99.8351237926666357
 30
0.0
 40
0.001
  1
TOILET
  3

  2
PRODUCT
 70
     0
1001
ACDBATTR
1070
     0
1070
     1
  0
ENDSEC
  0
EOF
