  0
SECTION
  2
HEADER
  9
$ACADVER
  1
AC1009
  9
$INSBASE
 10
3627.8591128526418288
 20
146.3697418131451968
 30
0.0
  9
$EXTMIN
 10
3620.709461433575143
 20
124.3065729889173952
 30
0.0
  9
$EXTMAX
 10
3634.9998278515040511
 20
146.3697418131451968
 30
0.0
  9
$LIMMIN
 10
0.0
 20
0.0
  9
$LIMMAX
 10
11.6929133858000007
 20
8.2677165353999982
  9
$ORTHOMODE
 70
     0
  9
$REGENMODE
 70
     1
  9
$FILLMODE
 70
     1
  9
$QTEXTMODE
 70
     0
  9
$MIRRTEXT
 70
     0
  9
$DRAGMODE
 70
     2
  9
$LTSCALE
 40
0.6431102362
  9
$OSMODE
 70
  2039
  9
$ATTMODE
 70
     1
  9
$TEXTSIZE
 40
0.2
  9
$TRACEWID
 40
0.05
  9
$TEXTSTYLE
  7
STANDARD
  9
$CLAYER
  8
0
  9
$CELTYPE
  6
BYLAYER
  9
$CECOLOR
 62
   256
  9
$DIMSCALE
 40
1.0
  9
$DIMASZ
 40
0.1875
  9
$DIMEXO
 40
0.0625
  9
$DIMDLI
 40
0.4443307087
  9
$DIMRND
 40
0.0
  9
$DIMDLE
 40
0.0
  9
$DIMEXE
 40
0.125
  9
$DIMTP
 40
0.01
  9
$DIMTM
 40
0.01
  9
$DIMTXT
 40
2.0
  9
$DIMCEN
 40
0.1052362205
  9
$DIMTSZ
 40
0.0
  9
$DIMTOL
 70
     1
  9
$DIMLIM
 70
     0
  9
$DIMTIH
 70
     1
  9
$DIMTOH
 70
     1
  9
$DIMSE1
 70
     0
  9
$DIMSE2
 70
     0
  9
$DIMTAD
 70
     0
  9
$DIMZIN
 70
     0
  9
$DIMBLK
  1

  9
$DIMASO
 70
     1
  9
$DIMSHO
 70
     1
  9
$DIMPOST
  1
\X
  9
$DIMAPOST
  1

  9
$DIMALT
 70
     1
  9
$DIMALTD
 70
     2
  9
$DIMALTF
 40
25.3999999999999986
  9
$DIMLFAC
 40
1.0
  9
$DIMTOFL
 70
     0
  9
$DIMTVP
 40
0.0
  9
$DIMTIX
 70
     0
  9
$DIMSOXD
 70
     0
  9
$DIMSAH
 70
     0
  9
$DIMBLK1
  1

  9
$DIMBLK2
  1

  9
$DIMSTYLE
  2
STANDARD
  9
$DIMCLRD
 70
     0
  9
$DIMCLRE
 70
     0
  9
$DIMCLRT
 70
     0
  9
$DIMTFAC
 40
1.0
  9
$DIMGAP
 40
0.09
  9
$LUNITS
 70
     2
  9
$LUPREC
 70
     4
  9
$SKETCHINC
 40
0.1
  9
$FILLETRAD
 40
0.0
  9
$AUNITS
 70
     0
  9
$AUPREC
 70
     0
  9
$MENU
  1
.
  9
$ELEVATION
 40
0.0
  9
$PELEVATION
 40
0.0
  9
$THICKNESS
 40
0.0
  9
$LIMCHECK
 70
     0
  9
$BLIPMODE
 70
     0
  9
$CHAMFERA
 40
0.0
  9
$CHAMFERB
 40
0.0
  9
$SKPOLY
 70
     0
  9
$TDCREATE
 40
2458060.468368056230247
  9
$TDUPDATE
 40
2459978.733680556062609
  9
$TDINDWG
 40
0.4125880787
  9
$TDUSRTIMER
 40
0.4125880787
  9
$USRTIMER
 70
     1
  9
$ANGBASE
 50
0.0
  9
$ANGDIR
 70
     0
  9
$PDMODE
 70
     0
  9
$PDSIZE
 40
0.3125
  9
$PLINEWID
 40
0.0
  9
$COORDS
 70
     1
  9
$SPLFRAME
 70
     0
  9
$SPLINETYPE
 70
     6
  9
$SPLINESEGS
 70
     8
  9
$ATTDIA
 70
     1
  9
$ATTREQ
 70
     1
  9
$HANDLING
 70
     1
  9
$HANDSEED
  5
1755B
  9
$SURFTAB1
 70
     6
  9
$SURFTAB2
 70
     6
  9
$SURFTYPE
 70
     6
  9
$SURFU
 70
     6
  9
$SURFV
 70
     6
  9
$UCSNAME
  2

  9
$UCSORG
 10
0.0
 20
0.0
 30
0.0
  9
$UCSXDIR
 10
1.0
 20
0.0
 30
0.0
  9
$UCSYDIR
 10
0.0
 20
1.0
 30
0.0
  9
$PUCSNAME
  2

  9
$PUCSORG
 10
0.0
 20
0.0
 30
0.0
  9
$PUCSXDIR
 10
1.0
 20
0.0
 30
0.0
  9
$PUCSYDIR
 10
0.0
 20
1.0
 30
0.0
  9
$USERI1
 70
     0
  9
$USERI2
 70
     0
  9
$USERI3
 70
     0
  9
$USERI4
 70
     0
  9
$USERI5
 70
     0
  9
$USERR1
 40
0.0
  9
$USERR2
 40
0.0
  9
$USERR3
 40
0.0
  9
$USERR4
 40
0.0
  9
$USERR5
 40
0.0
  9
$WORLDVIEW
 70
     1
  9
$SHADEDGE
 70
     3
  9
$SHADEDIF
 70
    70
  9
$TILEMODE
 70
     1
  9
$MAXACTVP
 70
    64
  9
$PLIMCHECK
 70
     0
  9
$PEXTMIN
 10
1.0000000000000000E+20
 20
1.0000000000000000E+20
 30
1.0000000000000000E+20
  9
$PEXTMAX
 10
-1.0000000000000000E+20
 20
-1.0000000000000000E+20
 30
-1.0000000000000000E+20
  9
$PLIMMIN
 10
0.0
 20
0.0
  9
$PLIMMAX
 10
12.0
 20
9.0
  9
$UNITMODE
 70
     0
  9
$VISRETAIN
 70
     1
  9
$PLINEGEN
 70
     0
  9
$PSLTSCALE
 70
     1
  0
ENDSEC
  0
SECTION
  2
TABLES
  0
TABLE
  2
VPORT
 70
     1
  0
VPORT
  2
*ACTIVE
 70
     0
 10
0.0
 20
0.0
 11
1.0
 21
1.0
 12
-647.4421305224514072
 22
47.7860919855120088
 13
0.0
 23
0.0
 14
1.0
 24
1.0
 15
0.0
 25
0.0
 16
0.0
 26
0.0
 36
122.0237731519760018
 17
4265.00634765625
 27
104.3040122985839986
 37
0.0
 40
58.9603836795119918
 41
2.4628205128205121
 42
50.0
 43
0.0
 44
0.0
 50
0.0
 51
0.0
 71
     0
 72
   100
 73
     1
 74
     1
 75
     0
 76
     0
 77
     0
 78
     0
  0
ENDTAB
  0
TABLE
  2
LTYPE
 70
     2
  0
LTYPE
  2
CONTINUOUS
 70
     0
  3
Solid line
 72
    65
 73
     0
 40
0.0
  0
LTYPE
  2
PHANTOM2
 70
     0
  3
___ _ _ ___ _ _ ___ _ _ ___ _ _
 72
    65
 73
     6
 40
1.25
 49
0.625
 49
-0.125
 49
0.125
 49
-0.125
 49
0.125
 49
-0.125
  0
ENDTAB
  0
TABLE
  2
LAYER
 70
     2
  0
LAYER
  2
0
 70
     0
 62
   255
  6
CONTINUOUS
  0
LAYER
  2
DEFPOINTS
 70
     0
 62
     7
  6
CONTINUOUS
  0
ENDTAB
  0
TABLE
  2
STYLE
 70
     1
  0
STYLE
  2
STANDARD
 70
     0
 40
0.0
 41
0.8
 50
0.0
 71
     0
 42
0.2
  3
txt
  4

  0
ENDTAB
  0
TABLE
  2
VIEW
 70
     0
  0
ENDTAB
  0
TABLE
  2
UCS
 70
     0
  0
ENDTAB
  0
TABLE
  2
APPID
 70
     9
  0
APPID
  2
ACAD
 70
     0
  0
APPID
  2
ACAD_MLEADERVER
 70
     0
  0
APPID
  2
ACAD_EXEMPT_FROM_CAD_STANDARDS
 70
     0
  0
APPID
  2
ACAD_NAV_VCDISPLAY
 70
     0
  0
APPID
  2
ACAECLAYERSTANDARD
 70
     0
  0
APPID
  2
ACCMTRANSPARENCY
 70
     0
  0
APPID
  2
ACAD_DSTYLE_DIMJAG
 70
     0
  0
APPID
  2
ACAD_DSTYLE_DIMTALN
 70
     0
  0
APPID
  2
ACDBATTR
 70
     0
  0
ENDTAB
  0
TABLE
  2
DIMSTYLE
 70
     1
  0
DIMSTYLE
  2
STANDARD
 70
     0
  3

  4

  5

  6

  7

 40
1.0
 41
0.1875
 42
0.0625
 43
0.38
 44
0.125
 45
0.0
 46
0.0
 47
0.01
 48
0.01
140
0.15625
141
0.09
142
0.0
143
25.3999999999999986
144
1.0
145
0.0
146
1.0
147
0.09
 71
     1
 72
     0
 73
     1
 74
     1
 75
     0
 76
     0
 77
     0
 78
     4
170
     0
171
     2
172
     0
173
     0
174
     0
175
     0
176
     0
177
     0
178
     0
  0
ENDTAB
  0
ENDSEC
  0
SECTION
  2
BLOCKS
  0
BLOCK
  8
0
  2
$MODEL_SPACE
 70
     0
 10
0.0
 20
0.0
 30
0.0
  3
$MODEL_SPACE
  1

  0
ENDBLK
  5
21
  8
0
  0
BLOCK
 67
     1
  8
0
  2
$PAPER_SPACE
 70
     0
 10
0.0
 20
0.0
 30
0.0
  3
$PAPER_SPACE
  1

  0
ENDBLK
  5
1D
 67
     1
  8
0
  0
BLOCK
  8
0
  2
_FILLED
 70
     0
 10
0.0
 20
0.0
 30
0.0
  3
_FILLED
  1

  0
SOLID
  5
10F92
  8
0
  6
BYBLOCK
 62
     0
 10
0.0
 20
0.0
 30
0.0
 11
-1.0
 21
0.1666666667
 31
0.0
 12
-1.0
 22
-0.1666666667
 32
0.0
 13
-1.0
 23
-0.1666666667
 33
0.0
  0
ENDBLK
  5
10F93
  8
0
  6
BYBLOCK
 62
     0
  0
ENDSEC
  0
SECTION
  2
ENTITIES
  0
ARC
  5
171AF
  8
0
 10
3629.2811200951341561
 20
158.6778650731455969
 30
0.0
 40
34.400879173122398
 50
264.7866920881592137
 51
267.6235148251382725
  0
ARC
  5
171B0
  8
0
 10
3627.0106155685311933
 20
131.1755099433148928
 30
0.0
 40
6.8101407239146274
 50
238.2366996429807102
 51
262.7851071130392029
  0
ARC
  5
171B1
  8
0
 10
3626.4095018522998544
 20
129.6997836640665867
 30
0.0
 40
5.2457368424561004
 50
206.3310736864364117
 51
235.3327975049537031
  0
ARC
  5
171B2
  8
0
 10
3635.2750338956138876
 20
133.2516053272800889
 30
0.0
 40
14.78585740773776
 50
195.947416577224601
 51
203.4271715484094898
  0
ARC
  5
171B3
  8
0
 10
3641.8121514478179961
 20
133.3219873401299935
 30
0.0
 40
21.1614329147795992
 50
184.2701516960073036
 51
191.2623679466047975
  0
ARC
  5
171B4
  8
0
 10
3627.530399562977891
 20
138.065290905767398
 30
0.0
 40
6.9120470906138687
 50
164.1408050012423132
 51
170.686926433895394
  0
ARC
  5
171B5
  8
0
 10
3623.0510164237889512
 20
139.2576187906813914
 30
0.0
 40
2.278640610086704
 50
148.3395747496680883
 51
162.2003533473476864
  0
ARC
  5
171B6
  8
0
 10
3623.2398841764370445
 20
139.1411518257772002
 30
0.0
 40
2.5005315335253071
 50
127.1216313425625941
 51
148.3395747496680883
  0
ARC
  5
171B7
  8
0
 10
3623.0918790396772238
 20
139.3366962035821075
 30
0.0
 40
2.2552905822173241
 50
101.8255916932664036
 51
127.1216313425625941
  0
ARC
  5
171B8
  8
0
 10
3623.1292590121220201
 20
139.1582660536977016
 30
0.0
 40
2.43759412125257
 50
90.0217652946874551
 51
101.8260699569568999
  0
LINE
  5
171B9
  8
0
 10
3623.1283330285068587
 20
141.5958599990707967
 30
0.0
 11
3632.5810010332679667
 21
141.5958599990707967
 31
0.0
  0
LINE
  5
171BA
  8
0
 10
3624.1144778116240559
 20
141.5958599990707967
 30
0.0
 11
3624.1144778117309215
 21
141.6266529888708021
 31
0.0
  0
ARC
  5
171BB
  8
0
 10
3624.1538478896709421
 20
141.6266529890307879
 30
0.0
 40
0.0393700779399198
 50
89.9999988938565991
 51
180.0000002329636004
  0
LINE
  5
171BC
  8
0
 10
3624.1538478904308249
 20
141.6660230669708085
 30
0.0
 11
3631.5555922467401615
 21
141.6660229240723936
 31
0.0
  0
LINE
  5
171BD
  8
0
 10
3625.1615180294538732
 20
141.7008634938451905
 30
0.0
 11
3630.547816032350056
 21
141.7008634938451905
 31
0.0
  0
ARC
  5
171BE
  8
0
 10
3625.1918925922668677
 20
140.5339233448420089
 30
0.0
 40
1.1673353954292269
 50
91.4910288047899201
 51
104.1133365356694043
  0
LINE
  5
171BF
  8
0
 10
3623.5805403377230505
 20
141.5958599990707967
 30
0.0
 11
3623.5829817486310276
 21
141.6660230676708068
 31
0.0
  0
LINE
  5
171C0
  8
0
 10
3623.5829817486310276
 20
141.6660230676708068
 30
0.0
 11
3624.0947927723309476
 21
141.6660230676708068
 31
0.0
  0
LINE
  5
171C1
  8
0
 10
3624.0947927723309476
 20
141.6660230676708068
 30
0.0
 11
3624.1004559220018564
 21
141.5958599990707967
 31
0.0
  0
ARC
  5
171C2
  8
0
 10
3623.485375522096092
 20
141.569495143412297
 30
0.0
 40
0.076860567536365
 50
20.0610900825860483
 51
90.598721850180354
  0
LINE
  5
171C3
  8
0
 10
3623.4845723693301807
 20
141.6463515145707959
 30
0.0
 11
3623.013686309780951
 21
141.6439024880208137
 31
0.0
  0
ARC
  5
171C4
  8
0
 10
3623.2368814937249226
 20
138.6930977146772932
 30
0.0
 40
2.9592338367426891
 50
94.3255445473530045
 51
105.6548734913282033
  0
ARC
  5
171C5
  8
0
 10
3623.1612401681641131
 20
139.2367750403394098
 30
0.0
 40
2.4164426438149942
 50
107.4067026642113944
 51
138.3478666302021907
  0
ARC
  5
171C6
  8
0
 10
3623.167591639361035
 20
139.1816080276871901
 30
0.0
 40
2.4581312378293649
 50
137.4854314296773907
 51
179.9474970104473925
  0
LINE
  5
171C7
  8
0
 10
3620.709461433575143
 20
139.1838605360173062
 30
0.0
 11
3620.709461433575143
 21
131.7463232993331133
 31
0.0
  0
ARC
  5
171C8
  8
0
 10
3627.7612684012419777
 20
138.5806971816749922
 30
0.0
 40
14.27442975303331
 50
270.3748931178679982
 51
277.2148999688454865
  0
ARC
  5
171C9
  8
0
 10
3628.6987184932741002
 20
131.1755099433148928
 30
0.0
 40
6.8101407239146274
 50
277.2148928869607971
 51
301.7633003570193182
  0
ARC
  5
171CA
  8
0
 10
3629.2998322095040749
 20
129.6997836640665867
 30
0.0
 40
5.2457368424561004
 50
304.667202495045899
 51
333.6689263135635883
  0
ARC
  5
171CB
  8
0
 10
3620.4343001661900416
 20
133.2516053272800889
 30
0.0
 40
14.78585740773776
 50
336.5728284515903965
 51
344.052583422775399
  0
ARC
  5
171CC
  8
0
 10
3613.9090129660339699
 20
133.3200045794120001
 30
0.0
 40
21.1494431440744002
 50
348.7366407620839936
 51
355.7328094596009009
  0
ARC
  5
171CD
  8
0
 10
3628.1920432938609338
 20
138.0686134610544116
 30
0.0
 40
6.8985293085919004
 50
9.303521147438321
 51
15.8624026646445593
  0
ARC
  5
171CE
  8
0
 10
3632.6583176380158875
 20
139.2576187906813914
 30
0.0
 40
2.278640610086704
 50
17.7996466526522887
 51
31.6604252503319294
  0
ARC
  5
171CF
  8
0
 10
3632.4694498853677942
 20
139.1411518257772002
 30
0.0
 40
2.5005315335253071
 50
31.6604252503319294
 51
52.8783686574374201
  0
ARC
  5
171D0
  8
0
 10
3632.6174550221280697
 20
139.3366962035821075
 30
0.0
 40
2.2552905822173241
 50
52.8783686574374201
 51
78.1744083067336106
  0
ARC
  5
171D1
  8
0
 10
3632.5800750496819091
 20
139.1582660536977016
 30
0.0
 40
2.43759412125257
 50
78.1739300430430859
 51
89.9782347053125449
  0
LINE
  5
171D2
  8
0
 10
3631.5948562501798733
 20
141.5958599990707967
 30
0.0
 11
3631.5948562500730077
 21
141.6266529888708021
 31
0.0
  0
ARC
  5
171D3
  8
0
 10
3631.5554861721338966
 20
141.6266529890307879
 30
0.0
 40
0.0393700779399167
 50
359.9999997670461767
 51
89.8456280773789757
  0
ARC
  5
171D4
  8
0
 10
3630.517441469537971
 20
140.5339233448420089
 30
0.0
 40
1.1673353954292269
 50
75.8866634643306242
 51
88.5089711952100942
  0
LINE
  5
171D5
  8
0
 10
3632.1287937240808787
 20
141.5958599990707967
 30
0.0
 11
3632.1263523131738111
 21
141.6660230676708068
 31
0.0
  0
LINE
  5
171D6
  8
0
 10
3632.1263523131738111
 20
141.6660230676708068
 30
0.0
 11
3631.6145412894738911
 21
141.6660230676708068
 31
0.0
  0
LINE
  5
171D7
  8
0
 10
3631.6145412894738911
 20
141.6660230676708068
 30
0.0
 11
3631.6088781398029823
 21
141.5958599990707967
 31
0.0
  0
ARC
  5
171D8
  8
0
 10
3632.2239585397092014
 20
141.569495143412297
 30
0.0
 40
0.076860567536365
 50
89.401278149819646
 51
159.9389099174138948
  0
LINE
  5
171D9
  8
0
 10
3632.2247616924728391
 20
141.6463515145707959
 30
0.0
 11
3632.6956477520238877
 21
141.6439024880208137
 31
0.0
  0
ARC
  5
171DA
  8
0
 10
3632.4724525680790066
 20
138.6930977146772932
 30
0.0
 40
2.9592338367426891
 50
74.3451265086717541
 51
85.6744554526469955
  0
ARC
  5
171DB
  8
0
 10
3632.5480938936389066
 20
139.2367750403394098
 30
0.0
 40
2.4164426438149942
 50
41.6521333697977809
 51
72.5932973357886056
  0
ARC
  5
171DC
  8
0
 10
3632.5420273074391844
 20
139.1817853466102974
 30
0.0
 40
2.4578014201352851
 50
0.0483764098553136
 51
42.5160096162602485
  0
LINE
  5
171DD
  8
0
 10
3634.9998278515040511
 20
139.1838605360173062
 30
0.0
 11
3634.9998278515040511
 21
131.7463232993331133
 31
0.0
  0
LINE
  5
17238
  8
0
 10
3634.8308778657010407
 20
146.3697418131451968
 30
0.0
 11
3620.8745895949928126
 21
146.3697418131451968
 31
0.0
  0
ARC
  5
17239
  8
0
 10
3620.8973860423138831
 20
146.2423298485688008
 30
0.0
 40
0.1294352607587004
 50
100.1439808114786985
 51
176.268441280113592
  0
LINE
  5
1723A
  8
0
 10
3620.7682251943688243
 20
146.250753748245188
 30
0.0
 11
3620.7682251943688243
 21
139.7158830926449014
 31
0.0
  0
ARC
  5
1723B
  8
0
 10
3634.8073626903510558
 20
146.2374541852962011
 30
0.0
 40
0.13436137820691
 50
5.6812384112913934
 51
79.9205041776863681
  0
LINE
  5
1723C
  8
0
 10
3634.941064090709915
 20
146.2507551437452094
 30
0.0
 11
3634.941064090709915
 21
139.716023433354195
 31
0.0
  0
ATTDEF
  5
17244
  8
DEFPOINTS
 10
3627.859501133431877
 20
146.3674115551417003
 30
0.0
 40
0.001
  1
K-78463A
  3

  2
MODELNUMBER
 70
     0
1001
ACDBATTR
1070
     0
1070
     1
  0
ATTDEF
  5
17245
  8
DEFPOINTS
 10
3627.859501133431877
 20
146.3657448884750067
 30
0.0
 40
0.001
  1
MODERNLIFE
  3

  2
TRADENAME
 70
     0
1001
ACDBATTR
1070
     0
1070
     1
  0
ATTDEF
  5
17246
  8
DEFPOINTS
 10
3627.859501133431877
 20
146.3640782218083132
 30
0.0
 40
0.001
  1
TOILET
  3

  2
PRODUCT
 70
     0
1001
ACDBATTR
1070
     0
1070
     1
  0
ENDSEC
  0
EOF
