  0
SECTION
  2
HEADER
  9
$ACADVER
  1
AC1009
  9
$INSBASE
 10
3661.4002832765559106
 20
99.84018782315907
 30
0.0
  9
$EXTMIN
 10
3639.2867155588141941
 20
99.8326785890386077
 30
-0.0000000349181948
  9
$EXTMAX
 10
3661.6348749305780075
 20
116.4387002266733049
 30
0.0000000814935746
  9
$LIMMIN
 10
0.0
 20
0.0
  9
$LIMMAX
 10
11.6929133858000007
 20
8.2677165353999982
  9
$ORTHOMODE
 70
     0
  9
$REGENMODE
 70
     1
  9
$FILLMODE
 70
     1
  9
$QTEXTMODE
 70
     0
  9
$MIRRTEXT
 70
     0
  9
$DRAGMODE
 70
     2
  9
$LTSCALE
 40
0.6431102362
  9
$OSMODE
 70
  4095
  9
$ATTMODE
 70
     1
  9
$TEXTSIZE
 40
0.2
  9
$TRACEWID
 40
0.05
  9
$TEXTSTYLE
  7
STANDARD
  9
$CLAYER
  8
0
  9
$CELTYPE
  6
BYLAYER
  9
$CECOLOR
 62
   256
  9
$DIMSCALE
 40
1.0
  9
$DIMASZ
 40
0.1875
  9
$DIMEXO
 40
0.0625
  9
$DIMDLI
 40
0.4443307087
  9
$DIMRND
 40
0.0
  9
$DIMDLE
 40
0.0
  9
$DIMEXE
 40
0.125
  9
$DIMTP
 40
0.01
  9
$DIMTM
 40
0.01
  9
$DIMTXT
 40
2.0
  9
$DIMCEN
 40
0.1052362205
  9
$DIMTSZ
 40
0.0
  9
$DIMTOL
 70
     1
  9
$DIMLIM
 70
     0
  9
$DIMTIH
 70
     1
  9
$DIMTOH
 70
     1
  9
$DIMSE1
 70
     0
  9
$DIMSE2
 70
     0
  9
$DIMTAD
 70
     0
  9
$DIMZIN
 70
     0
  9
$DIMBLK
  1

  9
$DIMASO
 70
     1
  9
$DIMSHO
 70
     1
  9
$DIMPOST
  1
\X
  9
$DIMAPOST
  1

  9
$DIMALT
 70
     1
  9
$DIMALTD
 70
     2
  9
$DIMALTF
 40
25.3999999999999986
  9
$DIMLFAC
 40
1.0
  9
$DIMTOFL
 70
     0
  9
$DIMTVP
 40
0.0
  9
$DIMTIX
 70
     0
  9
$DIMSOXD
 70
     0
  9
$DIMSAH
 70
     0
  9
$DIMBLK1
  1

  9
$DIMBLK2
  1

  9
$DIMSTYLE
  2
STANDARD
  9
$DIMCLRD
 70
     0
  9
$DIMCLRE
 70
     0
  9
$DIMCLRT
 70
     0
  9
$DIMTFAC
 40
1.0
  9
$DIMGAP
 40
0.09
  9
$LUNITS
 70
     2
  9
$LUPREC
 70
     4
  9
$SKETCHINC
 40
0.1
  9
$FILLETRAD
 40
0.0
  9
$AUNITS
 70
     0
  9
$AUPREC
 70
     0
  9
$MENU
  1
.
  9
$ELEVATION
 40
0.0
  9
$PELEVATION
 40
0.0
  9
$THICKNESS
 40
0.0
  9
$LIMCHECK
 70
     0
  9
$BLIPMODE
 70
     0
  9
$CHAMFERA
 40
0.0
  9
$CHAMFERB
 40
0.0
  9
$SKPOLY
 70
     0
  9
$TDCREATE
 40
2458060.468368056230247
  9
$TDUPDATE
 40
2459426.4818402780219913
  9
$TDINDWG
 40
0.4114653935
  9
$TDUSRTIMER
 40
0.4114653935
  9
$USRTIMER
 70
     1
  9
$ANGBASE
 50
0.0
  9
$ANGDIR
 70
     0
  9
$PDMODE
 70
     0
  9
$PDSIZE
 40
0.3125
  9
$PLINEWID
 40
0.0
  9
$COORDS
 70
     1
  9
$SPLFRAME
 70
     0
  9
$SPLINETYPE
 70
     6
  9
$SPLINESEGS
 70
     8
  9
$ATTDIA
 70
     1
  9
$ATTREQ
 70
     1
  9
$HANDLING
 70
     1
  9
$HANDSEED
  5
175DC
  9
$SURFTAB1
 70
     6
  9
$SURFTAB2
 70
     6
  9
$SURFTYPE
 70
     6
  9
$SURFU
 70
     6
  9
$SURFV
 70
     6
  9
$UCSNAME
  2

  9
$UCSORG
 10
0.0
 20
0.0
 30
0.0
  9
$UCSXDIR
 10
1.0
 20
0.0
 30
0.0
  9
$UCSYDIR
 10
0.0
 20
1.0
 30
0.0
  9
$PUCSNAME
  2

  9
$PUCSORG
 10
0.0
 20
0.0
 30
0.0
  9
$PUCSXDIR
 10
1.0
 20
0.0
 30
0.0
  9
$PUCSYDIR
 10
0.0
 20
1.0
 30
0.0
  9
$USERI1
 70
     0
  9
$USERI2
 70
     0
  9
$USERI3
 70
     0
  9
$USERI4
 70
     0
  9
$USERI5
 70
     0
  9
$USERR1
 40
0.0
  9
$USERR2
 40
0.0
  9
$USERR3
 40
0.0
  9
$USERR4
 40
0.0
  9
$USERR5
 40
0.0
  9
$WORLDVIEW
 70
     1
  9
$SHADEDGE
 70
     3
  9
$SHADEDIF
 70
    70
  9
$TILEMODE
 70
     1
  9
$MAXACTVP
 70
    64
  9
$PLIMCHECK
 70
     0
  9
$PEXTMIN
 10
1.0000000000000000E+20
 20
1.0000000000000000E+20
 30
1.0000000000000000E+20
  9
$PEXTMAX
 10
-1.0000000000000000E+20
 20
-1.0000000000000000E+20
 30
-1.0000000000000000E+20
  9
$PLIMMIN
 10
0.0
 20
0.0
  9
$PLIMMAX
 10
12.0
 20
9.0
  9
$UNITMODE
 70
     0
  9
$VISRETAIN
 70
     1
  9
$PLINEGEN
 70
     0
  9
$PSLTSCALE
 70
     1
  0
ENDSEC
  0
SECTION
  2
TABLES
  0
TABLE
  2
VPORT
 70
     1
  0
VPORT
  2
*ACTIVE
 70
     0
 10
0.0
 20
0.0
 11
1.0
 21
1.0
 12
-614.5455524115541266
 22
3.8316771092719639
 13
0.0
 23
0.0
 14
1.0
 24
1.0
 15
0.0
 25
0.0
 16
0.0
 26
0.0
 36
122.0237731519760018
 17
4265.00634765625
 27
104.3040122985839986
 37
0.0
 40
16.7369495349090691
 41
2.5092105263157891
 42
50.0
 43
0.0
 44
0.0
 50
0.0
 51
0.0
 71
     0
 72
   100
 73
     1
 74
     1
 75
     0
 76
     0
 77
     0
 78
     0
  0
ENDTAB
  0
TABLE
  2
LTYPE
 70
     2
  0
LTYPE
  2
CONTINUOUS
 70
     0
  3
Solid line
 72
    65
 73
     0
 40
0.0
  0
LTYPE
  2
PHANTOM2
 70
     0
  3
___ _ _ ___ _ _ ___ _ _ ___ _ _
 72
    65
 73
     6
 40
1.25
 49
0.625
 49
-0.125
 49
0.125
 49
-0.125
 49
0.125
 49
-0.125
  0
ENDTAB
  0
TABLE
  2
LAYER
 70
     2
  0
LAYER
  2
0
 70
     0
 62
   255
  6
CONTINUOUS
  0
LAYER
  2
DEFPOINTS
 70
     0
 62
     7
  6
CONTINUOUS
  0
ENDTAB
  0
TABLE
  2
STYLE
 70
     1
  0
STYLE
  2
STANDARD
 70
     0
 40
0.0
 41
0.8
 50
0.0
 71
     0
 42
0.2
  3
txt
  4

  0
ENDTAB
  0
TABLE
  2
VIEW
 70
     0
  0
ENDTAB
  0
TABLE
  2
UCS
 70
     0
  0
ENDTAB
  0
TABLE
  2
APPID
 70
     9
  0
APPID
  2
ACAD
 70
     0
  0
APPID
  2
ACAD_MLEADERVER
 70
     0
  0
APPID
  2
ACAD_EXEMPT_FROM_CAD_STANDARDS
 70
     0
  0
APPID
  2
ACAD_NAV_VCDISPLAY
 70
     0
  0
APPID
  2
ACAECLAYERSTANDARD
 70
     0
  0
APPID
  2
ACCMTRANSPARENCY
 70
     0
  0
APPID
  2
ACAD_DSTYLE_DIMJAG
 70
     0
  0
APPID
  2
ACAD_DSTYLE_DIMTALN
 70
     0
  0
APPID
  2
ACDBATTR
 70
     0
  0
ENDTAB
  0
TABLE
  2
DIMSTYLE
 70
     1
  0
DIMSTYLE
  2
STANDARD
 70
     0
  3

  4

  5

  6

  7

 40
1.0
 41
0.1875
 42
0.0625
 43
0.38
 44
0.125
 45
0.0
 46
0.0
 47
0.01
 48
0.01
140
0.15625
141
0.09
142
0.0
143
25.3999999999999986
144
1.0
145
0.0
146
1.0
147
0.09
 71
     1
 72
     0
 73
     1
 74
     1
 75
     0
 76
     0
 77
     0
 78
     4
170
     0
171
     2
172
     0
173
     0
174
     0
175
     0
176
     0
177
     0
178
     0
  0
ENDTAB
  0
ENDSEC
  0
SECTION
  2
BLOCKS
  0
BLOCK
  8
0
  2
$MODEL_SPACE
 70
     0
 10
0.0
 20
0.0
 30
0.0
  3
$MODEL_SPACE
  1

  0
ENDBLK
  5
21
  8
0
  0
BLOCK
 67
     1
  8
0
  2
$PAPER_SPACE
 70
     0
 10
0.0
 20
0.0
 30
0.0
  3
$PAPER_SPACE
  1

  0
ENDBLK
  5
1D
 67
     1
  8
0
  0
BLOCK
  8
0
  2
_FILLED
 70
     0
 10
0.0
 20
0.0
 30
0.0
  3
_FILLED
  1

  0
SOLID
  5
10F92
  8
0
  6
BYBLOCK
 62
     0
 10
0.0
 20
0.0
 30
0.0
 11
-1.0
 21
0.1666666667
 31
0.0
 12
-1.0
 22
-0.1666666667
 32
0.0
 13
-1.0
 23
-0.1666666667
 33
0.0
  0
ENDBLK
  5
10F93
  8
0
  6
BYBLOCK
 62
     0
  0
ENDSEC
  0
SECTION
  2
ENTITIES
  0
ATTDEF
  5
16671
  8
DEFPOINTS
 10
3661.4007129877468287
 20
99.8443562721641626
 30
0.0
 40
0.001
  1
K-78463K
  3

  2
MODELNUMBER
 70
     0
1001
ACDBATTR
1070
     0
1070
     1
  0
ATTDEF
  5
16672
  8
DEFPOINTS
 10
3661.4007129877468287
 20
99.8426896054974975
 30
0.0
 40
0.001
  1
MODERNLIFE
  3

  2
TRADENAME
 70
     0
1001
ACDBATTR
1070
     0
1070
     1
  0
ATTDEF
  5
16673
  8
DEFPOINTS
 10
3661.4007129877468287
 20
99.8410229388308323
 30
0.0
 40
0.001
  1
TOILET
  3

  2
PRODUCT
 70
     0
1001
ACDBATTR
1070
     0
1070
     1
  0
LINE
  5
171DE
  8
0
 10
3639.4124886723061536
 20
116.4327075012453037
 30
0.0
 11
3656.5411809945048844
 21
116.4327075012453037
 31
0.0
  0
ARC
  5
171DF
  8
0
 10
3656.5411809945039749
 20
116.3539673437359028
 30
0.0
 40
0.0787401575092943
 50
1.000000014506208
 51
89.9999999983324841
  0
LINE
  5
171E0
  8
0
 10
3656.619909159504914
 20
116.3553415489876954
 30
0.0
 11
3656.6254002836080872
 21
116.0407552643844014
 31
0.0
  0
ARC
  5
171E1
  8
0
 10
3657.7130095771949527
 20
116.059739555495895
 30
0.0
 40
1.0877749669879571
 50
181.0000000145053889
 51
189.8213078580602087
  0
ARC
  5
171E2
  8
0
 10
3574.8537937729538498
 20
94.8176017006463496
 30
0.0
 40
84.4544607032296284
 50
14.3242309236308891
 51
14.43755956776495
  0
ARC
  5
171E3
  8
0
 10
3656.1710871859659164
 20
115.6247244730952985
 30
0.0
 40
0.5190332805744803
 50
359.3211202985878003
 51
9.7226354176050265
  0
ARC
  5
171E4
  8
0
 10
3709.9897653954039924
 20
117.0076996273243992
 30
0.0
 40
53.317780348004348
 50
181.4929353581262887
 51
181.9348060586843019
  0
ARC
  5
171E5
  8
0
 10
3647.9347260937797728
 20
1001.8543345422559696
 30
0.0
 40
886.7145431247625993
 50
269.4594061991356853
 51
269.7650456453121137
  0
ARC
  5
171E6
  8
0
 10
3645.9908243522681914
 20
556.122192918364135
 30
0.0
 40
440.9781930889583919
 50
269.7801257901510894
 51
270.6188091013275994
  0
ARC
  5
171E7
  8
0
 10
3657.9920242524349305
 20
-555.0304482112480855
 30
0.0
 40
670.2392566877972513
 50
90.1102458585622088
 51
90.6188091013275709
  0
ARC
  5
171E8
  8
0
 10
3639.4125104815648228
 20
116.3539449811877944
 30
0.0
 40
0.07876252307697
 50
90.0158651402823153
 51
178.5154228287717046
  0
ARC
  5
171E9
  8
0
 10
3852.0052509363031277
 20
110.8442725223715968
 30
0.0
 40
212.7428868709787082
 50
178.5154228287717046
 51
178.5471051353081009
  0
ARC
  5
171EA
  8
0
 10
3639.4095042009789722
 20
116.236388544169003
 30
0.0
 40
0.0787703747001747
 50
178.5471051353096925
 51
250.9882030773669044
  0
ARC
  5
171EB
  8
0
 10
3639.2426396316818682
 20
115.7521025885661032
 30
0.0
 40
0.4334567929518626
 50
32.7486683755459609
 51
70.9882030773668902
  0
ARC
  5
171EC
  8
0
 10
3639.6666849926991745
 20
116.0248437974786953
 30
0.0
 40
0.0707279303780129
 50
212.7486683755460035
 51
266.9706095281695184
  0
ARC
  5
171ED
  8
0
 10
3633.0619155890180991
 20
6563.8625121265649796
 30
0.0
 40
6447.9116763159099719
 50
270.0586564044170927
 51
270.1065747716368151
  0
LINE
  5
171EE
  8
0
 10
3645.0555445084060011
 20
115.9619903724951939
 30
0.0
 11
3652.3164380608059219
 21
115.9618379549452953
 31
0.0
  0
ARC
  5
171EF
  8
0
 10
3652.2947295216690691
 20
158.9570503074338035
 30
0.0
 40
42.9952178328736281
 50
270.0289289783253253
 51
273.2707205292990125
  0
ARC
  5
171F0
  8
0
 10
3652.5022872639478919
 20
155.3250486975427123
 30
0.0
 40
39.357290413225023
 50
273.2707205292990125
 51
275.1114977387925933
  0
ARC
  5
171F1
  8
0
 10
3653.3655504383132211
 20
145.6742475699435886
 30
0.0
 40
29.6679568080340914
 50
275.1114977387925933
 51
276.1210669104062845
  0
ARC
  5
171F2
  8
0
 10
3656.5851807303729402
 20
115.6518853600893948
 30
0.0
 40
0.5265501738200581
 50
85.8789331185894298
 51
96.1210669104063982
  0
LINE
  5
171F3
  8
0
 10
3639.4120646375417891
 20
115.7710878012452014
 30
0.0
 11
3655.3866026557298028
 21
115.7710878012452014
 31
0.0
  0
ARC
  5
171F4
  8
0
 10
3639.4272310138740067
 20
115.678055784839799
 30
0.0
 40
0.0942601455945855
 50
99.2590893440240762
 51
174.8648308761501937
  0
LINE
  5
171F5
  8
0
 10
3639.3333491990060793
 20
115.686492602045206
 30
0.0
 11
3639.3306440949181706
 21
115.5720142184050019
 31
0.0
  0
ARC
  5
171F6
  8
0
 10
3639.4092820993892019
 20
115.5701560161789985
 30
0.0
 40
0.0786599559030485
 50
178.6463627044848863
 51
253.333744110169107
  0
ARC
  5
171F7
  8
0
 10
3639.2740901711899824
 20
115.1185717446125949
 30
0.0
 40
0.3927265222402597
 50
35.6211688902973691
 51
73.3337441101690928
  0
ARC
  5
171F8
  8
0
 10
3639.651745023015792
 20
115.3895714538037964
 30
0.0
 40
0.0721010234563442
 50
215.888785593990292
 51
266.9287094923896007
  0
ARC
  5
171F9
  8
0
 10
3653.6595107986508992
 20
136.4335994494049942
 30
0.0
 40
21.1224095158619711
 50
271.4087220362675907
 51
273.9126134342353112
  0
ARC
  5
171FA
  8
0
 10
3653.4741919400271399
 20
138.3317205602189972
 30
0.0
 40
23.02881842127778
 50
274.0503712835657097
 51
274.9389061438503177
  0
ARC
  5
171FB
  8
0
 10
3654.8630913657038946
 20
113.1915159564996003
 30
0.0
 40
2.2757076991154621
 50
62.2567126247486016
 51
74.8765507882986014
  0
ARC
  5
171FC
  8
0
 10
3655.160135529325089
 20
117.3954032231934974
 30
0.0
 40
1.640026813598306
 50
277.9371905051795011
 51
286.7439023022546962
  0
ARC
  5
171FD
  8
0
 10
3655.4931294772309229
 20
116.203590436240404
 30
0.0
 40
0.4035539022346764
 50
290.2214968096416783
 51
316.3340402403707117
  0
ARC
  5
171FE
  8
0
 10
3656.1922267760692193
 20
115.5934341307360995
 30
0.0
 40
0.5250698238833827
 50
110.0641797588341007
 51
140.8475942137496872
  0
ARC
  5
171FF
  8
0
 10
3656.1788316512861456
 20
115.6209076145318022
 30
0.0
 40
0.4946783087389828
 50
52.9218064891880502
 51
109.6985473728662015
  0
ARC
  5
17200
  8
0
 10
3656.1779095289639372
 20
115.6230869738587046
 30
0.0
 40
0.4934997944743827
 50
8.9174606648978525
 51
52.6838422400618214
  0
ARC
  5
17201
  8
0
 10
3656.1738562593827737
 20
115.6277246216613008
 30
0.0
 40
0.4968125002155256
 50
329.2924061383865251
 51
8.3166093906321237
  0
ARC
  5
17202
  8
0
 10
3656.0960248289989067
 20
115.709022001572194
 30
0.0
 40
0.6059964724488778
 50
304.0629816806638814
 51
326.4403137731700895
  0
ARC
  5
17203
  8
0
 10
3641.2763561520159783
 20
101.8329705582610956
 30
0.0
 40
14.1387548633246602
 50
84.9518051558160039
 51
87.3781273239678029
  0
ARC
  5
17204
  8
0
 10
3642.8392832186132182
 20
115.9358112640318978
 30
0.0
 40
0.2014462405434031
 50
233.504013444836886
 51
238.8468033375388018
  0
ARC
  5
17205
  8
0
 10
3637.4460581451871803
 20
108.6462180396713961
 30
0.0
 40
8.8663564739666612
 50
53.5040134448368292
 51
55.0876313528436512
  0
ARC
  5
17206
  8
0
 10
3645.4466474579548958
 20
102.1436638432500956
 30
0.0
 40
13.8338408144117402
 50
92.757559572090301
 51
95.1290606753782555
  0
ARC
  5
17207
  8
0
 10
3644.3526002991698078
 20
114.3323970048514013
 30
0.0
 40
1.5961059230862571
 50
95.1290606753782555
 51
100.0720289937512035
  0
ARC
  5
17208
  8
0
 10
3643.8489139118619278
 20
115.8418637997552025
 30
0.0
 40
0.0890397585489406
 50
298.2318607985782251
 51
306.8106604941410183
  0
ARC
  5
17209
  8
0
 10
3640.5170685345988204
 20
120.293906235587599
 30
0.0
 40
5.6497839055528329
 50
306.8106604941410183
 51
309.0113646956431808
  0
ARC
  5
1720A
  8
0
 10
3640.8529308341358046
 20
-177.1227189484692985
 30
0.0
 40
293.0443209962766105
 50
89.370311465777533
 51
89.6739543643092105
  0
ARC
  5
1720B
  8
0
 10
3641.2297747236430041
 20
111.0648759589591066
 30
0.0
 40
4.2936149921336249
 50
72.3394570232139671
 51
82.0836817405219961
  0
ARC
  5
1720C
  8
0
 10
3644.8663953484651756
 20
113.5310990258271033
 30
0.0
 40
1.804095676013979
 50
98.0144486184626231
 51
116.319522130574498
  0
ARC
  5
1720D
  8
0
 10
3643.1988836828882086
 20
109.0607167576203977
 30
0.0
 40
6.226469875934967
 50
94.1030563849725468
 51
97.4055374518625712
  0
ARC
  5
1720E
  8
0
 10
3643.3804566746880482
 20
106.5295362575827056
 30
0.0
 40
8.764154544116268
 50
91.6352552434722156
 51
94.1030563849725468
  0
ARC
  5
1720F
  8
0
 10
3643.3862670281168903
 20
106.3260094176846025
 30
0.0
 40
8.967764305095125
 50
86.8229060939534634
 51
91.6352552434722156
  0
ARC
  5
17210
  8
0
 10
3643.3077878468170638
 20
104.9121650560314976
 30
0.0
 40
10.3837850891501606
 50
85.3622437416235442
 51
86.8229060939534634
  0
ARC
  5
17211
  8
0
 10
3644.1370791176482271
 20
115.1350120711028069
 30
0.0
 40
0.1273566120715252
 50
64.6636955640880444
 51
85.3622437416235442
  0
ARC
  5
17212
  8
0
 10
3644.1716754689750815
 20
115.2080813504513941
 30
0.0
 40
0.0465109126832476
 50
37.2265830276228371
 51
64.6636955640880444
  0
ARC
  5
17213
  8
0
 10
3644.1986147491470547
 20
115.2285490838694955
 30
0.0
 40
0.0126781929061351
 50
335.0484920362318917
 51
37.2265830276241303
  0
ARC
  5
17214
  8
0
 10
3644.1736527728230612
 20
115.2401633344739054
 30
0.0
 40
0.0402098306906977
 50
297.4518099290900182
 51
335.0484920362325738
  0
ARC
  5
17215
  8
0
 10
3642.4294689696112073
 20
115.249875332673696
 30
0.0
 40
0.0608536109680004
 50
214.2413329834494959
 51
244.1608519094947951
  0
ARC
  5
17216
  8
0
 10
3642.3875776170821155
 20
115.2213617995406025
 30
0.0
 40
0.0101790908572857
 50
120.0960132459887006
 51
214.2413329834153046
  0
ARC
  5
17217
  8
0
 10
3642.4002154994068405
 20
115.203208036910496
 30
0.0
 40
0.0322747252683088
 50
96.8876395682321885
 51
123.3480841626684992
  0
ARC
  5
17218
  8
0
 10
3639.5869195456948546
 20
114.9403479136011015
 30
0.0
 40
0.23961513093125
 50
94.3912897557019051
 51
179.600144203823902
  0
ARC
  5
17219
  8
0
 10
3624.2251176344029773
 20
114.2173077243207047
 30
0.0
 40
15.1395481294092704
 50
359.9931950697081788
 51
2.7437302483074588
  0
ARC
  5
1721A
  8
0
 10
3641.3248996488619014
 20
114.2152768098946041
 30
0.0
 40
1.9602340056543199
 50
179.9931950697080936
 51
231.8622398439503058
  0
ARC
  5
1721B
  8
0
 10
2301.5384478396199484
 20
-1115.7233345120860122
 30
0.0
 40
1816.7950404284611068
 50
42.3742946314759124
 51
42.5422710249393035
  0
ARC
  5
1721C
  8
0
 10
3641.1435711497319971
 20
105.8983155847127051
 30
0.0
 40
3.8318881624034979
 50
1.7234967079046639
 51
47.9531515190214321
  0
ARC
  5
1721D
  8
0
 10
3647.5787359960618232
 20
107.8238509319869962
 30
0.0
 40
7.6057149288166661
 50
74.6627016961521548
 51
80.1554651402828853
  0
ARC
  5
1721E
  8
0
 10
3649.5760398663887827
 20
115.2058407440863022
 30
0.0
 40
0.0417039566246707
 50
209.0498421825971036
 51
255.3044736045692105
  0
ARC
  5
1721F
  8
0
 10
3649.5586689630490582
 20
115.1895930717360983
 30
0.0
 40
0.0195017543884309
 50
117.432891136976906
 51
191.8435168440786924
  0
ARC
  5
17220
  8
0
 10
3650.2795562920518933
 20
111.6489499554365068
 30
0.0
 40
3.6320428068194661
 50
93.9443272533243174
 51
101.5927267666418032
  0
ARC
  5
17221
  8
0
 10
3650.499728213160779
 20
109.0127372177633021
 30
0.0
 40
6.2772732217897644
 50
83.1718213298259883
 51
94.2940301437868982
  0
ARC
  5
17222
  8
0
 10
3650.9800484934330598
 20
112.4799838881485954
 30
0.0
 40
2.778265911832507
 50
79.6555218090638562
 51
84.5059209418506754
  0
ARC
  5
17223
  8
0
 10
3651.4610304654611355
 20
115.1418062741896051
 30
0.0
 40
0.0734984279830576
 50
58.467245097602877
 51
75.9044034948818904
  0
ARC
  5
17224
  8
0
 10
3651.4825411258261738
 20
115.1768634795484019
 30
0.0
 40
0.0323679507558057
 50
33.6421333833230634
 51
58.467245097602877
  0
ARC
  5
17225
  8
0
 10
3651.5007291824999811
 20
115.1889668838319949
 30
0.0
 40
0.0105208044713187
 50
315.2531115093589733
 51
33.6421333833625695
  0
ARC
  5
17226
  8
0
 10
3651.4936754871760058
 20
115.1959585316338064
 30
0.0
 40
0.0204524587495893
 50
294.772888351829522
 51
315.2531115093601102
  0
ARC
  5
17227
  8
0
 10
3652.2947350188192104
 20
113.2196155037231051
 30
0.0
 40
2.1120874737098938
 50
96.6310079977956633
 51
112.0376775706128001
  0
LINE
  5
17228
  8
0
 10
3654.1787917325677881
 20
115.3175739931918002
 30
0.0
 11
3639.6478819609051243
 21
115.3175739931918002
 31
0.0
  0
ARC
  5
17229
  8
0
 10
3658.3789923306580931
 20
-159.4723229204500967
 30
0.0
 40
274.6850075198897798
 50
89.3965846691863391
 51
90.3497216384346871
  0
ARC
  5
1722A
  8
0
 10
3661.2704380119880625
 20
115.0674521913119008
 30
0.0
 40
0.130006515455412
 50
3.3635790529724479
 51
89.3965846691863391
  0
LINE
  5
1722B
  8
0
 10
3661.4002205685019362
 20
115.0750799095451953
 30
0.0
 11
3661.4003211157018995
 21
99.9608638069452837
 31
0.0
  0
ARC
  5
1722C
  8
0
 10
3661.2794154416278616
 20
99.9610743461117863
 30
0.0
 40
0.1209058573859209
 50
271.0329938135465113
 51
359.9002280615588916
  0
LINE
  5
1722D
  8
0
 10
3644.9737258046020543
 20
106.0135640508452042
 30
0.0
 11
3644.5398521866109149
 21
99.9696172545729809
 31
0.0
  0
ARC
  5
1722E
  8
0
 10
3644.6603350208920347
 20
99.9609623447608442
 30
0.0
 40
0.1207932979114505
 50
175.8912034324852982
 51
268.9813083619417853
  0
LINE
  5
1722F
  8
0
 10
3644.6581874868029445
 20
99.8401881384183554
 30
0.0
 11
3661.2815951525540186
 21
99.8401881384183554
 31
0.0
  0
CIRCLE
  5
17230
  8
0
 10
3652.7429273983930216
 20
101.0045878822949987
 30
0.0
 40
0.5386217352570662
  0
ENDSEC
  0
EOF
