  0
SECTION
  2
HEADER
  9
$ACADVER
  1
AC1009
  9
$INSBASE
 10
3582.2532860464812074
 20
99.8346719156002251
 30
0.0
  9
$EXTMIN
 10
3574.1797970506399906
 20
99.8229383299067763
 30
-0.0000000349181948
  9
$EXTMAX
 10
3590.2042836392538447
 20
130.7589848431144048
 30
0.0000000814935746
  9
$LIMMIN
 10
0.0
 20
0.0
  9
$LIMMAX
 10
11.6929133858000007
 20
8.2677165353999982
  9
$ORTHOMODE
 70
     0
  9
$REGENMODE
 70
     1
  9
$FILLMODE
 70
     1
  9
$QTEXTMODE
 70
     0
  9
$MIRRTEXT
 70
     0
  9
$DRAGMODE
 70
     2
  9
$LTSCALE
 40
0.6431102362
  9
$OSMODE
 70
  4095
  9
$ATTMODE
 70
     1
  9
$TEXTSIZE
 40
0.2
  9
$TRACEWID
 40
0.05
  9
$TEXTSTYLE
  7
STANDARD
  9
$CLAYER
  8
0
  9
$CELTYPE
  6
BYLAYER
  9
$CECOLOR
 62
   256
  9
$DIMSCALE
 40
1.0
  9
$DIMASZ
 40
0.1875
  9
$DIMEXO
 40
0.0625
  9
$DIMDLI
 40
0.4443307087
  9
$DIMRND
 40
0.0
  9
$DIMDLE
 40
0.0
  9
$DIMEXE
 40
0.125
  9
$DIMTP
 40
0.01
  9
$DIMTM
 40
0.01
  9
$DIMTXT
 40
2.0
  9
$DIMCEN
 40
0.1052362205
  9
$DIMTSZ
 40
0.0
  9
$DIMTOL
 70
     1
  9
$DIMLIM
 70
     0
  9
$DIMTIH
 70
     1
  9
$DIMTOH
 70
     1
  9
$DIMSE1
 70
     0
  9
$DIMSE2
 70
     0
  9
$DIMTAD
 70
     0
  9
$DIMZIN
 70
     0
  9
$DIMBLK
  1

  9
$DIMASO
 70
     1
  9
$DIMSHO
 70
     1
  9
$DIMPOST
  1
\X
  9
$DIMAPOST
  1

  9
$DIMALT
 70
     1
  9
$DIMALTD
 70
     2
  9
$DIMALTF
 40
25.3999999999999986
  9
$DIMLFAC
 40
1.0
  9
$DIMTOFL
 70
     0
  9
$DIMTVP
 40
0.0
  9
$DIMTIX
 70
     0
  9
$DIMSOXD
 70
     0
  9
$DIMSAH
 70
     0
  9
$DIMBLK1
  1

  9
$DIMBLK2
  1

  9
$DIMSTYLE
  2
STANDARD
  9
$DIMCLRD
 70
     0
  9
$DIMCLRE
 70
     0
  9
$DIMCLRT
 70
     0
  9
$DIMTFAC
 40
1.0
  9
$DIMGAP
 40
0.09
  9
$LUNITS
 70
     2
  9
$LUPREC
 70
     4
  9
$SKETCHINC
 40
0.1
  9
$FILLETRAD
 40
0.0
  9
$AUNITS
 70
     0
  9
$AUPREC
 70
     0
  9
$MENU
  1
.
  9
$ELEVATION
 40
0.0
  9
$PELEVATION
 40
0.0
  9
$THICKNESS
 40
0.0
  9
$LIMCHECK
 70
     0
  9
$BLIPMODE
 70
     0
  9
$CHAMFERA
 40
0.0
  9
$CHAMFERB
 40
0.0
  9
$SKPOLY
 70
     0
  9
$TDCREATE
 40
2458060.468368056230247
  9
$TDUPDATE
 40
2459432.709675925783813
  9
$TDINDWG
 40
0.4140811343
  9
$TDUSRTIMER
 40
0.4140811343
  9
$USRTIMER
 70
     1
  9
$ANGBASE
 50
0.0
  9
$ANGDIR
 70
     0
  9
$PDMODE
 70
     0
  9
$PDSIZE
 40
0.3125
  9
$PLINEWID
 40
0.0
  9
$COORDS
 70
     1
  9
$SPLFRAME
 70
     0
  9
$SPLINETYPE
 70
     6
  9
$SPLINESEGS
 70
     8
  9
$ATTDIA
 70
     1
  9
$ATTREQ
 70
     1
  9
$HANDLING
 70
     1
  9
$HANDSEED
  5
17DC7
  9
$SURFTAB1
 70
     6
  9
$SURFTAB2
 70
     6
  9
$SURFTYPE
 70
     6
  9
$SURFU
 70
     6
  9
$SURFV
 70
     6
  9
$UCSNAME
  2

  9
$UCSORG
 10
0.0
 20
0.0
 30
0.0
  9
$UCSXDIR
 10
1.0
 20
0.0
 30
0.0
  9
$UCSYDIR
 10
0.0
 20
1.0
 30
0.0
  9
$PUCSNAME
  2

  9
$PUCSORG
 10
0.0
 20
0.0
 30
0.0
  9
$PUCSXDIR
 10
1.0
 20
0.0
 30
0.0
  9
$PUCSYDIR
 10
0.0
 20
1.0
 30
0.0
  9
$USERI1
 70
     0
  9
$USERI2
 70
     0
  9
$USERI3
 70
     0
  9
$USERI4
 70
     0
  9
$USERI5
 70
     0
  9
$USERR1
 40
0.0
  9
$USERR2
 40
0.0
  9
$USERR3
 40
0.0
  9
$USERR4
 40
0.0
  9
$USERR5
 40
0.0
  9
$WORLDVIEW
 70
     1
  9
$SHADEDGE
 70
     3
  9
$SHADEDIF
 70
    70
  9
$TILEMODE
 70
     1
  9
$MAXACTVP
 70
    64
  9
$PLIMCHECK
 70
     0
  9
$PEXTMIN
 10
1.0000000000000000E+20
 20
1.0000000000000000E+20
 30
1.0000000000000000E+20
  9
$PEXTMAX
 10
-1.0000000000000000E+20
 20
-1.0000000000000000E+20
 30
-1.0000000000000000E+20
  9
$PLIMMIN
 10
0.0
 20
0.0
  9
$PLIMMAX
 10
12.0
 20
9.0
  9
$UNITMODE
 70
     0
  9
$VISRETAIN
 70
     1
  9
$PLINEGEN
 70
     0
  9
$PSLTSCALE
 70
     1
  0
ENDSEC
  0
SECTION
  2
TABLES
  0
TABLE
  2
VPORT
 70
     1
  0
VPORT
  2
*ACTIVE
 70
     0
 10
0.0
 20
0.0
 11
1.0
 21
1.0
 12
-682.814307311303196
 22
10.9869492879265902
 13
0.0
 23
0.0
 14
1.0
 24
1.0
 15
0.0
 25
0.0
 16
0.0
 26
0.0
 36
122.0237731519760018
 17
4265.00634765625
 27
104.3040122985839986
 37
0.0
 40
31.1799575238242213
 41
2.5092105263157891
 42
50.0
 43
0.0
 44
0.0
 50
0.0
 51
0.0
 71
     0
 72
   100
 73
     1
 74
     1
 75
     0
 76
     0
 77
     0
 78
     0
  0
ENDTAB
  0
TABLE
  2
LTYPE
 70
     2
  0
LTYPE
  2
CONTINUOUS
 70
     0
  3
Solid line
 72
    65
 73
     0
 40
0.0
  0
LTYPE
  2
PHANTOM2
 70
     0
  3
___ _ _ ___ _ _ ___ _ _ ___ _ _
 72
    65
 73
     6
 40
1.25
 49
0.625
 49
-0.125
 49
0.125
 49
-0.125
 49
0.125
 49
-0.125
  0
ENDTAB
  0
TABLE
  2
LAYER
 70
     2
  0
LAYER
  2
0
 70
     0
 62
   255
  6
CONTINUOUS
  0
LAYER
  2
DEFPOINTS
 70
     0
 62
     7
  6
CONTINUOUS
  0
ENDTAB
  0
TABLE
  2
STYLE
 70
     1
  0
STYLE
  2
STANDARD
 70
     0
 40
0.0
 41
0.8
 50
0.0
 71
     0
 42
0.2
  3
txt
  4

  0
ENDTAB
  0
TABLE
  2
VIEW
 70
     0
  0
ENDTAB
  0
TABLE
  2
UCS
 70
     0
  0
ENDTAB
  0
TABLE
  2
APPID
 70
     9
  0
APPID
  2
ACAD
 70
     0
  0
APPID
  2
ACAD_MLEADERVER
 70
     0
  0
APPID
  2
ACAD_EXEMPT_FROM_CAD_STANDARDS
 70
     0
  0
APPID
  2
ACAD_NAV_VCDISPLAY
 70
     0
  0
APPID
  2
ACAECLAYERSTANDARD
 70
     0
  0
APPID
  2
ACCMTRANSPARENCY
 70
     0
  0
APPID
  2
ACAD_DSTYLE_DIMJAG
 70
     0
  0
APPID
  2
ACAD_DSTYLE_DIMTALN
 70
     0
  0
APPID
  2
ACDBATTR
 70
     0
  0
ENDTAB
  0
TABLE
  2
DIMSTYLE
 70
     1
  0
DIMSTYLE
  2
STANDARD
 70
     0
  3

  4

  5

  6

  7

 40
1.0
 41
0.1875
 42
0.0625
 43
0.38
 44
0.125
 45
0.0
 46
0.0
 47
0.01
 48
0.01
140
0.15625
141
0.09
142
0.0
143
25.3999999999999986
144
1.0
145
0.0
146
1.0
147
0.09
 71
     1
 72
     0
 73
     1
 74
     1
 75
     0
 76
     0
 77
     0
 78
     4
170
     0
171
     2
172
     0
173
     0
174
     0
175
     0
176
     0
177
     0
178
     0
  0
ENDTAB
  0
ENDSEC
  0
SECTION
  2
BLOCKS
  0
BLOCK
  8
0
  2
$MODEL_SPACE
 70
     0
 10
0.0
 20
0.0
 30
0.0
  3
$MODEL_SPACE
  1

  0
ENDBLK
  5
21
  8
0
  0
BLOCK
 67
     1
  8
0
  2
$PAPER_SPACE
 70
     0
 10
0.0
 20
0.0
 30
0.0
  3
$PAPER_SPACE
  1

  0
ENDBLK
  5
1D
 67
     1
  8
0
  0
BLOCK
  8
0
  2
_FILLED
 70
     0
 10
0.0
 20
0.0
 30
0.0
  3
_FILLED
  1

  0
SOLID
  5
1751C
  8
0
  6
BYBLOCK
 62
     0
 10
0.0
 20
0.0
 30
0.0
 11
-1.0
 21
0.1666666667
 31
0.0
 12
-1.0
 22
-0.1666666667
 32
0.0
 13
-1.0
 23
-0.1666666667
 33
0.0
  0
ENDBLK
  5
1751D
  8
0
  6
BYBLOCK
 62
     0
  0
ENDSEC
  0
SECTION
  2
ENTITIES
  0
LINE
  5
17A15
  8
0
 10
3577.2945078579209621
 20
99.8346719156002251
 30
0.0
 11
3587.2120642350419075
 21
99.8346719156002251
 31
0.0
  0
LINE
  5
17A17
  8
0
 10
3574.6081917874507781
 20
130.752006791576207
 30
0.0
 11
3589.8983803055130011
 21
130.752006791576207
 31
0.0
  0
LINE
  5
17A19
  8
0
 10
3574.6064334213888287
 20
130.4567311989762004
 30
0.0
 11
3589.9001386715740409
 21
130.4567311989762004
 31
0.0
  0
LINE
  5
17A1B
  8
0
 10
3574.6310536021619555
 20
130.220434391125508
 30
0.0
 11
3589.8755184908009142
 21
130.220434391125508
 31
0.0
  0
LINE
  5
17A1D
  8
0
 10
3575.1214809657540172
 20
117.3697755358165011
 30
0.0
 11
3589.3850911272079429
 21
117.3697755358165011
 31
0.0
  0
LINE
  5
17A1F
  8
0
 10
3575.2509342670100523
 20
117.2288453587761978
 30
0.0
 11
3589.2556378259528174
 21
117.2288453587761978
 31
0.0
  0
LINE
  5
17A21
  8
0
 10
3575.2447454020039004
 20
116.567225658776195
 30
0.0
 11
3576.4680467768271228
 21
116.567225658776195
 31
0.0
  0
ARC
  5
17A22
  8
0
 10
3574.6154420111279251
 20
130.6325204243593134
 30
0.0
 40
0.1197061305616791
 50
93.472350258721761
 51
155.6508803902997045
  0
ARC
  5
17A23
  8
0
 10
3574.6130419240448646
 20
130.6335188450161127
 30
0.0
 40
0.1171079137473185
 50
155.6117722074446874
 51
179.815202424813009
  0
ARC
  5
17A24
  8
0
 10
3574.6149056062990894
 20
130.5754014624486103
 30
0.0
 40
0.1189723049695504
 50
180.2697040449857866
 51
265.9164307680993034
  0
ARC
  5
17A25
  8
0
 10
3574.8739969014691269
 20
130.3773505117463003
 30
0.0
 40
0.0799243605453465
 50
96.6867262925897819
 51
174.6353676457154904
  0
ARC
  5
17A26
  8
0
 10
3578.9038973621031801
 20
129.9989224275290098
 30
0.0
 40
4.1275539801551204
 50
174.6353676457154904
 51
175.4240769471317094
  0
ARC
  5
17A27
  8
0
 10
3574.6725793155069368
 20
130.3375766510800986
 30
0.0
 40
0.1172945559620964
 50
272.8361570866177885
 51
355.4240769471317094
  0
ARC
  5
17A28
  8
0
 10
3574.6335164417077976
 20
130.1422010057438001
 30
0.0
 40
0.0782721417038803
 50
91.8031141512428377
 51
182.7696155804495106
  0
ARC
  5
17A29
  8
0
 10
102836.2901668570993934
 20
4189.8251179432581921
 30
0.0
 40
99344.7183184872701531
 50
182.3420238604541908
 51
182.3493614951597124
  0
ARC
  5
17A2A
  8
0
 10
3575.1366084849619256
 20
117.4284420326907963
 30
0.0
 40
0.0605854742728177
 50
181.9217697751662968
 51
255.5408975306727939
  0
ARC
  5
17A2B
  8
0
 10
3575.3144155135391884
 20
117.2446007141039956
 30
0.0
 40
0.1261080993045977
 50
96.9749134974023832
 51
147.3618549304235046
  0
ARC
  5
17A2C
  8
0
 10
3575.298710224063143
 20
117.2546594043425046
 30
0.0
 40
0.1074578079701716
 50
147.3618549304235046
 51
180.5815983619235965
  0
ARC
  5
17A2D
  8
0
 10
3606.0502517614008866
 20
115.8664751837528968
 30
0.0
 40
30.8901525922289686
 50
177.4263211139557086
 51
177.5290956586732989
  0
ARC
  5
17A2E
  8
0
 10
3575.25143849351889
 20
117.1495301295874043
 30
0.0
 40
0.0793168319188478
 50
90.3642385195530551
 51
142.13688081641331
  0
ARC
  5
17A2F
  8
0
 10
3575.2511965771241194
 20
117.1497182063977931
 30
0.0
 40
0.0790104066769812
 50
142.1368808164125994
 51
178.7224948559791926
  0
ARC
  5
17A30
  8
0
 10
3604.0227507155259445
 20
116.5081020021412002
 30
0.0
 40
28.8577177941289094
 50
178.7224948559791926
 51
179.354092470164602
  0
ARC
  5
17A31
  8
0
 10
3575.2414512138188911
 20
116.8325734688447
 30
0.0
 40
0.0745893550649374
 50
179.354092470164602
 51
264.0284316390872732
  0
ARC
  5
17A32
  8
0
 10
3576.5663986426311567
 20
784.6158449249679734
 30
0.0
 40
667.8587857678841146
 50
269.885666614663478
 51
269.905264588208297
  0
ARC
  5
17A33
  8
0
 10
3574.2765538482808552
 20
103.7835937090886063
 30
0.0
 40
13.0284338432938291
 50
83.030636534228023
 51
84.778904562369874
  0
ARC
  5
17A34
  8
0
 10
3597.3949050693668141
 20
129.2795840101667864
 30
0.0
 40
24.9341829517455409
 50
210.2569930274470948
 51
210.6033801193916872
  0
ARC
  5
17A35
  8
0
 10
3575.9877179279560551
 20
116.6123628047222951
 30
0.0
 40
0.0601527107938383
 50
206.2200832660913079
 51
228.6229520897782947
  0
ARC
  5
17A36
  8
0
 10
3576.9391320917061421
 20
-223.7237864030406058
 30
0.0
 40
340.4783480813380265
 50
89.7661009197267248
 51
90.2372206168790711
  0
ARC
  5
17A37
  8
0
 10
3580.5008770983909017
 20
648.7543041601513778
 30
0.0
 40
532.0070125639199432
 50
269.7661009197266822
 51
270.1887302533835964
  0
LINE
  5
17A38
  8
0
 10
3578.51309682721012
 20
116.7510051602480985
 30
0.0
 11
3578.5131090254171795
 21
116.567225658776195
 31
0.0
  0
LINE
  5
17A39
  8
0
 10
3578.4962856282509165
 20
116.7510682393302943
 30
0.0
 11
3578.4944044986968947
 21
116.567225658776195
 31
0.0
  0
LINE
  5
17A3A
  8
0
 10
3578.51309682721012
 20
116.637309925676206
 30
0.0
 11
3578.4951216208419282
 21
116.637309925676206
 31
0.0
  0
ARC
  5
17A3B
  8
0
 10
3576.4683700348200546
 20
116.5943896711778933
 30
0.0
 40
0.0271659357558344
 50
269.3181992333322228
 51
325.1366938041759909
  0
ARC
  5
17A3C
  8
0
 10
3577.6343716689298162
 20
115.8760276856816063
 30
0.0
 40
1.342404832729853
 50
144.5442530372843919
 51
148.4284507049137005
  0
ARC
  5
17A3D
  8
0
 10
3577.1427460377299212
 20
116.2318577364795971
 30
0.0
 40
0.6523556679156006
 50
126.7573026354392027
 51
136.0386436871812919
  0
ARC
  5
17A3E
  8
0
 10
3576.604863014340026
 20
116.7611388613230048
 30
0.0
 40
0.1025114979128289
 50
280.2817416700713125
 51
311.7886432610570182
  0
ARC
  5
17A3F
  8
0
 10
3576.5522254747370425
 20
117.0991117402204935
 30
0.0
 40
0.4445342879048738
 50
268.5397601692367857
 51
279.1819833590396911
  0
ARC
  5
17A40
  8
0
 10
3575.2645261717079848
 20
116.4735292008777066
 30
0.0
 40
0.0957617098469305
 50
101.9209764341798063
 51
174.812167506879689
  0
ARC
  5
17A41
  8
0
 10
3564.4408943432740671
 20
116.7744033675508035
 30
0.0
 40
10.7334450009393407
 50
358.5143999437083266
 51
0.1370949121291724
  0
LINE
  5
17A42
  8
0
 10
3577.9787357952841376
 20
116.7529745312943987
 30
0.0
 11
3577.9806748186952063
 21
116.5694040430432068
 31
0.0
  0
LINE
  5
17A43
  8
0
 10
3577.9587236150241552
 20
116.7530350478804024
 30
0.0
 11
3577.9609038760099793
 21
116.5715370997761937
 31
0.0
  0
ARC
  5
17A44
  8
0
 10
3578.0128445829700468
 20
116.9602734492031004
 30
0.0
 40
0.3921910075528266
 50
262.3895442922956818
 51
265.2949841534633038
  0
ARC
  5
17A45
  8
0
 10
3578.0527559386018766
 20
117.7602828550567011
 30
0.0
 40
1.193058268798969
 50
266.5362457681441128
 51
269.9231738210503977
  0
LINE
  5
17A46
  8
0
 10
3578.0511562033098016
 20
116.567225658776195
 30
0.0
 11
3588.0391469585028972
 21
116.567225658776195
 31
0.0
  0
ARC
  5
17A47
  8
0
 10
3487.5465737013228136
 20
502.6051227565349109
 30
0.0
 40
396.0920872490896727
 50
282.9823090013697993
 51
283.0575542516187966
  0
LINE
  5
17A48
  8
0
 10
3577.9600346382098905
 20
116.637309925676206
 30
0.0
 11
3577.9799575405668293
 21
116.637309925676206
 31
0.0
  0
ARC
  5
17A49
  8
0
 10
3581.8409429414027727
 20
-625.7966107182801352
 30
0.0
 40
741.7728746356964393
 50
89.9681523843294144
 51
90.3388382296328842
  0
ARC
  5
17A4A
  8
0
 10
3580.5415150713120056
 20
-406.0726885638985095
 30
0.0
 40
522.0451101640794604
 50
90.3388382296328842
 51
90.5419455424710833
  0
ARC
  5
17A4B
  8
0
 10
3575.554684018352873
 20
121.1312996784025984
 30
0.0
 40
5.1824628084834474
 50
268.905080536516607
 51
270.5419455424711259
  0
ARC
  5
17A4C
  8
0
 10
3641.5846251121570276
 20
115.0415939153184013
 30
0.0
 40
66.4310902906523921
 50
178.7574125936870075
 51
179.6328955890712962
  0
ARC
  5
17A4D
  8
0
 10
3528.7668926650972026
 20
118.6771004448026048
 30
0.0
 40
46.4989286086512408
 50
355.4793437809810257
 51
356.0416597378120969
  0
ARC
  5
17A4E
  8
0
 10
3577.7578533742821492
 20
114.7493735828110033
 30
0.0
 40
2.6497505367652039
 50
174.3091576812504968
 51
204.0267288224058007
  0
ARC
  5
17A4F
  8
0
 10
3575.6528012119529194
 20
115.764514743959694
 30
0.0
 40
0.500893976072592
 50
139.9587562930217075
 51
171.6435576796642124
  0
ARC
  5
17A50
  8
0
 10
3577.9498451469380598
 20
121.3599188125159998
 30
0.0
 40
5.909120789939962
 50
244.2301560698550134
 51
246.3067546115252071
  0
ARC
  5
17A51
  8
0
 10
3574.7372648453952024
 20
114.7054413505641008
 30
0.0
 40
1.4802460628756999
 50
64.2301560698549707
 51
68.9341276501607325
  0
ARC
  5
17A52
  8
0
 10
3575.4477765939777782
 20
116.5500461952153017
 30
0.0
 40
0.4964668595753938
 50
241.3637110800804919
 51
248.9341276501606899
  0
ARC
  5
17A53
  8
0
 10
3575.2529219548860056
 20
116.1931954606402968
 30
0.0
 40
0.0898825790847173
 50
179.8530081827778133
 51
241.3637110800804919
  0
ARC
  5
17A54
  8
0
 10
3512.1696476111787888
 20
68.1019613376211623
 30
0.0
 40
79.6312864791240855
 50
36.933199115737871
 51
36.9838874588769286
  0
ARC
  5
17A55
  8
0
 10
3575.8658321398038424
 20
116.2151726121812061
 30
0.0
 40
0.2250156406292253
 50
238.2722688792877079
 51
247.4373259111362984
  0
ARC
  5
17A56
  8
0
 10
3575.7582199258299624
 20
116.0421407328152981
 30
0.0
 40
0.0212574954607167
 50
182.9187997122554918
 51
239.7162994378784902
  0
ARC
  5
17A57
  8
0
 10
3575.788302649103116
 20
116.0143039222332959
 30
0.0
 40
0.0578686723741524
 50
113.4663950974615005
 51
152.4625039697311024
  0
ARC
  5
17A58
  8
0
 10
3575.8685254696079028
 20
115.8242273734470018
 30
0.0
 40
0.2641786983283824
 50
94.2598303038746934
 51
113.0103506260950041
  0
ARC
  5
17A59
  8
0
 10
3575.8254535109431345
 20
113.7483862144098055
 30
0.0
 40
2.3394075739180571
 50
83.4263186069976115
 51
89.4256905002198437
  0
ARC
  5
17A5A
  8
0
 10
3575.2022155554141136
 20
107.890305252343893
 30
0.0
 40
8.2304842415644117
 50
81.7156661041481129
 51
83.7848165780953877
  0
ARC
  5
17A5B
  8
0
 10
3576.3254578906921779
 20
115.630156484969902
 30
0.0
 40
0.4095700796978686
 50
66.0251888607294433
 51
81.2008794888478889
  0
ARC
  5
17A5C
  8
0
 10
3576.4060598561541156
 20
115.8924038057474064
 30
0.0
 40
0.1410894247248605
 50
27.2568931544539907
 51
52.5353690854028628
  0
ARC
  5
17A5D
  8
0
 10
3575.8473359381459886
 20
115.6558764046650936
 30
0.0
 40
0.4318027030117195
 50
89.7921482023752731
 51
101.2334731308458942
  0
ARC
  5
17A5E
  8
0
 10
3575.7747641631849547
 20
116.0212701556637995
 30
0.0
 40
0.0592718240367266
 50
101.2334731308458942
 51
129.3089559598188032
  0
LINE
  5
17A5F
  8
0
 10
3575.7372153545102265
 20
116.0671312076761978
 30
0.0
 11
3575.7369900076541853
 21
116.0410582876687045
 31
0.0
  0
ARC
  5
17A60
  8
0
 10
3578.0802300645068499
 20
114.9819056014375036
 30
0.0
 40
1.6567488007807769
 50
136.9097919613409999
 51
143.8769407622800998
  0
ARC
  5
17A61
  8
0
 10
3578.5343866971479656
 20
122.1706583297876989
 30
0.0
 40
6.2813731187803166
 50
254.6379503357345868
 51
261.1563635138375048
  0
LINE
  5
17A62
  8
0
 10
3589.2956323256671567
 20
116.1137118507226944
 30
0.0
 11
3575.2108793178908854
 21
116.1137118507226944
 31
0.0
  0
ARC
  5
17A63
  8
0
 10
3575.4445245180509119
 20
115.6292241788853943
 30
0.0
 40
0.3207520791297453
 50
88.0116468313958222
 51
141.0749737349142094
  0
ARC
  5
17A64
  8
0
 10
3575.3328251567941152
 20
115.7193852185120022
 30
0.0
 40
0.1772050217571139
 50
141.062505755026308
 51
177.2691234372132101
  0
ARC
  5
17A65
  8
0
 10
3577.30678372407192
 20
99.9498444745550358
 30
0.0
 40
0.1158249335245549
 50
177.4372019764066977
 51
263.9160005374296816
  0
ARC
  5
17A66
  8
0
 10
3037.9688684392249343
 20
124.0846099880720033
 30
0.0
 40
539.7618221034721273
 50
357.43778772269809
 51
358.0077356863549767
  0
ARC
  5
17A67
  8
0
 10
3559.8595256309918113
 20
105.9303343679606968
 30
0.0
 40
17.5555067573768184
 50
358.0077356863549767
 51
7.4414398421536188
  0
ARC
  5
17A68
  8
0
 10
3563.2654108762958458
 20
105.2444187339861941
 30
0.0
 40
14.3111326598267503
 50
11.9350379882536792
 51
22.6630451848644583
  0
ARC
  5
17A69
  8
0
 10
3435.4534316856879741
 20
57.9957457158216485
 30
0.0
 40
150.5565773281153952
 50
21.1190850875987692
 51
21.7028433079864485
  0
ARC
  5
17A6A
  8
0
 10
5219.7932558415632229
 20
747.1981250815166504
 30
0.0
 40
1762.2603317857578986
 50
201.1190850875979947
 51
201.1708086819681967
  0
ARC
  5
17A6B
  8
0
 10
3574.9250266034318884
 20
113.9259817950541986
 30
0.0
 40
2.260719356678301
 50
68.9226969289713338
 51
75.4011263684471942
  0
LINE
  5
17A8F
  8
0
 10
3574.4959346194182217
 20
130.6338965555762002
 30
0.0
 11
3574.4959346194182217
 21
130.5748414352761984
 31
0.0
  0
ARC
  5
17A92
  8
0
 10
3589.8911300818358541
 20
130.6325204243593134
 30
0.0
 40
0.1197061305616791
 50
24.3491196097002813
 51
86.5276497412782533
  0
ARC
  5
17A93
  8
0
 10
3589.8935301689180051
 20
130.6335188450161127
 30
0.0
 40
0.1171079137473185
 50
0.1847975751870184
 51
24.3882277925552913
  0
ARC
  5
17A94
  8
0
 10
3589.8916664866637802
 20
130.5754014624486103
 30
0.0
 40
0.1189723049695504
 50
274.0835692319006966
 51
359.730295955014185
  0
ARC
  5
17A95
  8
0
 10
3589.6325751914941975
 20
130.3773505117463003
 30
0.0
 40
0.0799243605453465
 50
5.3646323542844714
 51
83.3132737074102039
  0
ARC
  5
17A96
  8
0
 10
3585.6026747308601443
 20
129.9989224275290098
 30
0.0
 40
4.1275539801551204
 50
4.5759230528682844
 51
5.3646323542844714
  0
ARC
  5
17A97
  8
0
 10
3589.8339927774559328
 20
130.3375766510800986
 30
0.0
 40
0.1172945559620964
 50
184.5759230528682906
 51
267.1638429133820978
  0
ARC
  5
17A98
  8
0
 10
3589.873055651255072
 20
130.1422010057438001
 30
0.0
 40
0.0782721417038803
 50
357.2303844195504894
 51
88.1968858487571623
  0
ARC
  5
17A99
  8
0
 10
-95671.7835947642015526
 20
4189.8251179432581921
 30
0.0
 40
99344.7183184872701531
 50
357.6506385048393781
 51
357.657976139545724
  0
ARC
  5
17A9A
  8
0
 10
3589.3699636080009441
 20
117.4284420326907963
 30
0.0
 40
0.0605854742728177
 50
284.4591024693272061
 51
358.0782302248337032
  0
ARC
  5
17A9B
  8
0
 10
3589.192156579424136
 20
117.2446007141039956
 30
0.0
 40
0.1261080993045977
 50
32.6381450695764883
 51
83.025086502597631
  0
ARC
  5
17A9C
  8
0
 10
3589.2078618689010909
 20
117.2546594043425046
 30
0.0
 40
0.1074578079701716
 50
359.4184016380764888
 51
32.6381450695764883
  0
ARC
  5
17A9D
  8
0
 10
3558.456320331560164
 20
115.8664751837528968
 30
0.0
 40
30.8901525922289686
 50
2.4709043413266492
 51
2.5736788860442918
  0
ARC
  5
17A9E
  8
0
 10
3589.2551335994439796
 20
117.1495301295874043
 30
0.0
 40
0.0793168319188478
 50
37.8631191835867114
 51
89.6357614804469165
  0
ARC
  5
17A9F
  8
0
 10
3589.2553755158401145
 20
117.1497182063977931
 30
0.0
 40
0.0790104066769812
 50
1.2775051440207981
 51
37.863119183587358
  0
ARC
  5
17AA0
  8
0
 10
3560.4838213774369251
 20
116.5081020021412002
 30
0.0
 40
28.8577177941289094
 50
0.6459075298354305
 51
1.2775051440207981
  0
ARC
  5
17AA1
  8
0
 10
3582.6656291515591874
 20
-625.7966107182801352
 30
0.0
 40
741.7728746356964393
 50
89.6611617703671158
 51
90.0318476156705714
  0
ARC
  5
17AA2
  8
0
 10
3583.965057021650864
 20
-406.0726885638985095
 30
0.0
 40
522.0451101640794604
 50
89.4580544575289167
 51
89.6611617703671158
  0
ARC
  5
17AA3
  8
0
 10
3588.9518880746099967
 20
121.1312996784025984
 30
0.0
 40
5.1824628084834474
 50
269.4580544575288741
 51
271.0949194634835067
  0
ARC
  5
17AA4
  8
0
 10
3522.921946980805842
 20
115.0415939153184013
 30
0.0
 40
66.4310902906523921
 50
0.3671044109286292
 51
1.2425874063129381
  0
ARC
  5
17AA5
  8
0
 10
3635.7396794278661218
 20
118.6771004448026048
 30
0.0
 40
46.4989286086512408
 50
183.9583402621877894
 51
184.5206562190190027
  0
ARC
  5
17AA6
  8
0
 10
3586.7487187186811752
 20
114.7493735828110033
 30
0.0
 40
2.6497505367652039
 50
335.9732711775940857
 51
5.6908423187495281
  0
ARC
  5
17AA7
  8
0
 10
3588.8537708810099502
 20
115.764514743959694
 30
0.0
 40
0.500893976072592
 50
8.3564423203358
 51
40.0412437069782925
  0
ARC
  5
17AA8
  8
0
 10
3586.5567269460248099
 20
121.3599188125159998
 30
0.0
 40
5.909120789939962
 50
293.6932453884745087
 51
295.7698439301449866
  0
ARC
  5
17AA9
  8
0
 10
3589.769307247568122
 20
114.7054413505641008
 30
0.0
 40
1.4802460628756999
 50
111.0658723498391964
 51
115.7698439301450009
  0
ARC
  5
17AAA
  8
0
 10
3589.0587954989850914
 20
116.5500461952153017
 30
0.0
 40
0.4964668595753938
 50
291.0658723498393101
 51
298.6362889199194228
  0
ARC
  5
17AAB
  8
0
 10
3589.2536501380759546
 20
116.1931954606402968
 30
0.0
 40
0.0898825790847173
 50
298.6362889199194228
 51
0.1469918172221474
  0
ARC
  5
17AAC
  8
0
 10
3652.3369244817840809
 20
68.1019613376211623
 30
0.0
 40
79.6312864791240855
 50
143.0161125411229932
 51
143.0668008842621077
  0
ARC
  5
17AAD
  8
0
 10
3588.6407399531590272
 20
116.2151726121812061
 30
0.0
 40
0.2250156406292253
 50
292.5626740888636164
 51
301.7277311207124058
  0
ARC
  5
17AAE
  8
0
 10
3588.7483521671319977
 20
116.0421407328152981
 30
0.0
 40
0.0212574954607167
 50
300.2837005621215098
 51
357.0812002877444797
  0
ARC
  5
17AAF
  8
0
 10
3588.7182694438588442
 20
116.0143039222332959
 30
0.0
 40
0.0578686723741524
 50
27.5374960302688407
 51
66.5336049025384852
  0
ARC
  5
17AB0
  8
0
 10
3588.6380466233549669
 20
115.8242273734470018
 30
0.0
 40
0.2641786983283824
 50
66.9896493739052517
 51
85.7401696961253208
  0
ARC
  5
17AB1
  8
0
 10
3588.6811185820201899
 20
113.7483862144098055
 30
0.0
 40
2.3394075739180571
 50
90.5743094997801421
 51
96.5736813930024027
  0
ARC
  5
17AB2
  8
0
 10
3589.3043565375492108
 20
107.890305252343893
 30
0.0
 40
8.2304842415644117
 50
96.2151834219046265
 51
98.2843338958520008
  0
ARC
  5
17AB3
  8
0
 10
3588.1811142022711465
 20
115.630156484969902
 30
0.0
 40
0.4095700796978686
 50
98.7991205111521253
 51
113.9748111392704999
  0
ARC
  5
17AB4
  8
0
 10
3588.1005122368092088
 20
115.8924038057474064
 30
0.0
 40
0.1410894247248605
 50
127.4646309145970946
 51
152.7431068455460093
  0
ARC
  5
17AB5
  8
0
 10
3588.659236154815062
 20
115.6558764046650936
 30
0.0
 40
0.4318027030117195
 50
78.7665268691540916
 51
90.2078517976247127
  0
ARC
  5
17AB6
  8
0
 10
3588.7318079297770055
 20
116.0212701556637995
 30
0.0
 40
0.0592718240367266
 50
50.6910440401811684
 51
78.7665268691540916
  0
LINE
  5
17AB7
  8
0
 10
3588.7693567384530979
 20
116.0671312076761978
 30
0.0
 11
3588.7695820853077748
 21
116.0410582876687045
 31
0.0
  0
ARC
  5
17AB8
  8
0
 10
3586.4263420284551103
 20
114.9819056014375036
 30
0.0
 40
1.6567488007807769
 50
36.1230592377199073
 51
43.0902080386590072
  0
ARC
  5
17AB9
  8
0
 10
3585.9721853958139945
 20
122.1706583297876989
 30
0.0
 40
6.2813731187803166
 50
278.8436364861623815
 51
285.3620496642653848
  0
ARC
  5
17ABA
  8
0
 10
3589.0620475749110483
 20
115.6292241788853943
 30
0.0
 40
0.3207520791297464
 50
38.9250262650857408
 51
91.988353168604192
  0
ARC
  5
17ABB
  8
0
 10
3589.1737469361692092
 20
115.7193852185120022
 30
0.0
 40
0.1772050217571139
 50
2.7308765627868099
 51
38.9374942449736778
  0
ARC
  5
17ABC
  8
0
 10
3587.1997883688900401
 20
99.9498444745550358
 30
0.0
 40
0.1158249335245547
 50
276.0839994625443978
 51
2.5627980235924648
  0
ARC
  5
17ABD
  8
0
 10
4126.5377036537365711
 20
124.0846099880720033
 30
0.0
 40
539.7618221034721273
 50
181.9922643136449096
 51
182.5622122773010005
  0
ARC
  5
17ABE
  8
0
 10
3604.6470464619701488
 20
105.9303343679606968
 30
0.0
 40
17.5555067573768184
 50
172.5585601578463866
 51
181.9922643136449096
  0
ARC
  5
17ABF
  8
0
 10
3601.2411612166661143
 20
105.2444187339861941
 30
0.0
 40
14.3111326598267503
 50
157.3369548151354991
 51
168.064962011746303
  0
ARC
  5
17AC0
  8
0
 10
3729.0531404072748956
 20
57.9957457158216485
 30
0.0
 40
150.5565773281153952
 50
158.2971566920136013
 51
158.8809149124012094
  0
ARC
  5
17AC1
  8
0
 10
1944.7133162513989646
 20
747.1981250815166504
 30
0.0
 40
1762.2603317857578986
 50
338.8291913180318033
 51
338.880914912401181
  0
ARC
  5
17AC2
  8
0
 10
3589.5815454895300718
 20
113.9259817950541986
 30
0.0
 40
2.260719356678301
 50
104.5988736315528058
 51
111.0773030710285951
  0
LINE
  5
17AE2
  8
0
 10
3590.0106374735451027
 20
130.6338965555762002
 30
0.0
 11
3590.0106374735451027
 21
130.5748414352761984
 31
0.0
  0
LINE
  5
17AE3
  8
0
 10
3589.2618266909598788
 20
116.567225658776195
 30
0.0
 11
3588.0391469585028972
 21
116.567225658776195
 31
0.0
  0
ARC
  5
17AE4
  8
0
 10
3589.2651208791439785
 20
116.8325734688447
 30
0.0
 40
0.0745893550649374
 50
275.9715683609127268
 51
0.6459075298354305
  0
ARC
  5
17AE5
  8
0
 10
3587.9401734503330772
 20
784.6158449249679734
 30
0.0
 40
667.8587857678841146
 50
270.094735411791703
 51
270.114333385336522
  0
ARC
  5
17AE6
  8
0
 10
3590.2300182446820145
 20
103.7835937090886063
 30
0.0
 40
13.0284338432938291
 50
95.221095437630126
 51
96.9693634657719628
  0
ARC
  5
17AE7
  8
0
 10
3567.1116670235960555
 20
129.2795840101667864
 30
0.0
 40
24.9341829517455409
 50
329.3966198806082843
 51
329.7430069725530188
  0
ARC
  5
17AE8
  8
0
 10
3588.5188541650068146
 20
116.6123628047222951
 30
0.0
 40
0.0601527107938383
 50
311.3770479102201989
 51
333.7799167339086921
  0
ARC
  5
17AE9
  8
0
 10
3587.5674400012571823
 20
-223.7237864030406058
 30
0.0
 40
340.4783480813380265
 50
89.7627793831209431
 51
90.2338990802732752
  0
ARC
  5
17AEA
  8
0
 10
3584.0056949945728775
 20
648.7543041601513778
 30
0.0
 40
532.0070125639199432
 50
269.8112697466164036
 51
270.2338990802733178
  0
LINE
  5
17AEB
  8
0
 10
3585.9934752657518402
 20
116.7510051602480985
 30
0.0
 11
3585.9934630675461449
 21
116.567225658776195
 31
0.0
  0
LINE
  5
17AEC
  8
0
 10
3586.0102864647119532
 20
116.7510682393302943
 30
0.0
 11
3586.0121675942659749
 21
116.567225658776195
 31
0.0
  0
LINE
  5
17AED
  8
0
 10
3585.9934752657518402
 20
116.637309925676206
 30
0.0
 11
3586.0114504721209414
 21
116.637309925676206
 31
0.0
  0
ARC
  5
17AEE
  8
0
 10
3588.0461555012529971
 20
116.6102382299851001
 30
0.0
 40
0.0435798227792577
 50
226.0538977083068914
 51
260.7454573658624781
  0
ARC
  5
17AEF
  8
0
 10
3586.8722004240330534
 20
115.8760276856816063
 30
0.0
 40
1.342404832729853
 50
31.5715492950862995
 51
35.4557469627155584
  0
ARC
  5
17AF0
  8
0
 10
3587.3638260552320389
 20
116.2318577364795971
 30
0.0
 40
0.6523556679156006
 50
43.961356312818701
 51
53.2426973645612165
  0
ARC
  5
17AF1
  8
0
 10
3587.9017090786228437
 20
116.7611388613230048
 30
0.0
 40
0.1025114979128289
 50
228.2113567389428965
 51
259.7182583299286875
  0
ARC
  5
17AF2
  8
0
 10
3587.9543466182249176
 20
117.0991117402204935
 30
0.0
 40
0.4445342879048738
 50
260.8180166409603089
 51
271.4602398307632143
  0
ARC
  5
17AF3
  8
0
 10
3589.2420459212548849
 20
116.4735292008777066
 30
0.0
 40
0.0957617098469257
 50
5.1878324931178561
 51
78.0790235658458158
  0
ARC
  5
17AF4
  8
0
 10
3600.0656777496888026
 20
116.7744033675508035
 30
0.0
 40
10.7334450009393407
 50
179.8629050878707858
 51
181.4856000562917018
  0
LINE
  5
17AF5
  8
0
 10
3586.5278362976800963
 20
116.7529745312943987
 30
0.0
 11
3586.5258972742672086
 21
116.5694040430432068
 31
0.0
  0
LINE
  5
17AF6
  8
0
 10
3586.5478484779400787
 20
116.7530350478804024
 30
0.0
 11
3586.5456682169519809
 21
116.5715370997761937
 31
0.0
  0
ARC
  5
17AF7
  8
0
 10
3586.4937275099919134
 20
116.9602734492031004
 30
0.0
 40
0.3921910075528266
 50
274.7050158465365826
 51
277.6104557077042045
  0
ARC
  5
17AF8
  8
0
 10
3586.4538161543600836
 20
117.7602828550567011
 30
0.0
 40
1.193058268798969
 50
270.0768261789494886
 51
273.4637542318560008
  0
ARC
  5
17AF9
  8
0
 10
3676.9599983916400561
 20
502.6051227565349109
 30
0.0
 40
396.0920872490896727
 50
256.9424457483812034
 51
257.0176909986302007
  0
LINE
  5
17AFA
  8
0
 10
3586.5465374547529791
 20
116.637309925676206
 30
0.0
 11
3586.5266145523960404
 21
116.637309925676206
 31
0.0
  0
ARC
  5
17B60
  8
0
 10
3588.8378305778501272
 20
101.147823726007303
 30
0.0
 40
2.10364514406514
 50
169.2864145750201885
 51
200.5643783599539063
  0
ARC
  5
17B61
  8
0
 10
3585.4173160114301027
 20
100.8530548340334008
 30
0.0
 40
1.517378433196332
 50
342.9795385680947106
 51
26.8712543668834094
  0
ARC
  5
17B62
  8
0
 10
3575.668741515111833
 20
101.147823726007303
 30
0.0
 40
2.10364514406514
 50
339.4356216400461221
 51
10.7135854249798097
  0
ARC
  5
17B63
  8
0
 10
3579.0892560815332217
 20
100.8530548340334008
 30
0.0
 40
1.517378433196332
 50
153.1287456331166084
 51
197.0204614319052041
  0
LINE
  5
17B66
  8
0
 10
3574.5758993682811706
 20
129.6396476151261936
 30
0.0
 11
3574.5236545777811443
 21
129.6370508018262058
 31
0.0
  0
LINE
  5
17B67
  8
0
 10
3574.5236545777811443
 20
129.6370508018262058
 30
0.0
 11
3574.3311323768821239
 21
129.1220253784262013
 31
0.0
  0
LINE
  5
17B68
  8
0
 10
3574.3311323768821239
 20
129.1220253784262013
 30
0.0
 11
3574.3627352141820666
 21
128.4412749809262095
 31
0.0
  0
LINE
  5
17B69
  8
0
 10
3574.3627352141820666
 20
128.4412749809262095
 30
0.0
 11
3574.602146552881095
 21
127.9463012255261987
 31
0.0
  0
LINE
  5
17B6A
  8
0
 10
3574.602146552881095
 20
127.9463012255261987
 30
0.0
 11
3574.6449431823471059
 21
127.9480556854302051
 31
0.0
  0
LINE
  5
17B6B
  8
0
 10
3574.602146552881095
 20
127.9463012255261987
 30
0.0
 11
3574.5236545777811443
 21
129.6370508018262058
 31
0.0
  0
ATTDEF
  5
17B71
  8
DEFPOINTS
 10
3582.2551268226470711
 20
99.8320269402582738
 30
0.0
 40
0.001
  1
K-78469A-TF
  3

  2
MODELNUMBER
 70
     0
1001
ACDBATTR
1070
     0
1070
     1
  0
ATTDEF
  5
17B72
  8
DEFPOINTS
 10
3582.2551268226470711
 20
99.8303602735915945
 30
0.0
 40
0.001
  1
MODERNLIFE
  3

  2
TRADENAME
 70
     0
1001
ACDBATTR
1070
     0
1070
     1
  0
ATTDEF
  5
17B73
  8
DEFPOINTS
 10
3582.2551268226470711
 20
99.8286936069249293
 30
0.0
 40
0.001
  1
TOILET
  3

  2
PRODUCT
 70
     0
1001
ACDBATTR
1070
     0
1070
     1
  0
ENDSEC
  0
EOF
