  0
SECTION
  2
HEADER
  9
$ACADVER
  1
AC1009
  9
$INSBASE
 10
4419.9714999327234182
 20
117.4260010506647944
 30
0.0
  9
$EXTMIN
 10
4394.0183356021880172
 20
117.4218138985903011
 30
-0.0000000000112498
  9
$EXTMAX
 10
4420.3225477289470291
 20
148.9574903802582071
 30
0.0000000000002956
  9
$LIMMIN
 10
0.0
 20
0.0
  9
$LIMMAX
 10
11.6929133858000007
 20
8.2677165353999982
  9
$ORTHOMODE
 70
     0
  9
$REGENMODE
 70
     1
  9
$FILLMODE
 70
     1
  9
$QTEXTMODE
 70
     0
  9
$MIRRTEXT
 70
     0
  9
$DRAGMODE
 70
     2
  9
$LTSCALE
 40
0.6431102362
  9
$OSMODE
 70
  4095
  9
$ATTMODE
 70
     1
  9
$TEXTSIZE
 40
0.2
  9
$TRACEWID
 40
0.05
  9
$TEXTSTYLE
  7
STANDARD
  9
$CLAYER
  8
0
  9
$CELTYPE
  6
BYLAYER
  9
$CECOLOR
 62
   256
  9
$DIMSCALE
 40
1.0
  9
$DIMASZ
 40
0.1875
  9
$DIMEXO
 40
0.0625
  9
$DIMDLI
 40
0.4443307087
  9
$DIMRND
 40
0.0
  9
$DIMDLE
 40
0.0
  9
$DIMEXE
 40
0.125
  9
$DIMTP
 40
0.01
  9
$DIMTM
 40
0.01
  9
$DIMTXT
 40
2.0
  9
$DIMCEN
 40
0.1052362205
  9
$DIMTSZ
 40
0.0
  9
$DIMTOL
 70
     1
  9
$DIMLIM
 70
     0
  9
$DIMTIH
 70
     1
  9
$DIMTOH
 70
     1
  9
$DIMSE1
 70
     0
  9
$DIMSE2
 70
     0
  9
$DIMTAD
 70
     0
  9
$DIMZIN
 70
     0
  9
$DIMBLK
  1

  9
$DIMASO
 70
     1
  9
$DIMSHO
 70
     1
  9
$DIMPOST
  1
\X
  9
$DIMAPOST
  1

  9
$DIMALT
 70
     1
  9
$DIMALTD
 70
     2
  9
$DIMALTF
 40
25.3999999999999986
  9
$DIMLFAC
 40
1.0
  9
$DIMTOFL
 70
     0
  9
$DIMTVP
 40
0.0
  9
$DIMTIX
 70
     0
  9
$DIMSOXD
 70
     0
  9
$DIMSAH
 70
     0
  9
$DIMBLK1
  1

  9
$DIMBLK2
  1

  9
$DIMSTYLE
  2
STANDARD
  9
$DIMCLRD
 70
     0
  9
$DIMCLRE
 70
     0
  9
$DIMCLRT
 70
     0
  9
$DIMTFAC
 40
1.0
  9
$DIMGAP
 40
0.09
  9
$LUNITS
 70
     2
  9
$LUPREC
 70
     4
  9
$SKETCHINC
 40
0.1
  9
$FILLETRAD
 40
0.0
  9
$AUNITS
 70
     0
  9
$AUPREC
 70
     0
  9
$MENU
  1
.
  9
$ELEVATION
 40
0.0
  9
$PELEVATION
 40
0.0
  9
$THICKNESS
 40
0.0
  9
$LIMCHECK
 70
     0
  9
$BLIPMODE
 70
     0
  9
$CHAMFERA
 40
0.0
  9
$CHAMFERB
 40
0.0
  9
$SKPOLY
 70
     0
  9
$TDCREATE
 40
2458060.468368056230247
  9
$TDUPDATE
 40
2459540.5219791671261191
  9
$TDINDWG
 40
0.4132130787
  9
$TDUSRTIMER
 40
0.4132130787
  9
$USRTIMER
 70
     1
  9
$ANGBASE
 50
0.0
  9
$ANGDIR
 70
     0
  9
$PDMODE
 70
     0
  9
$PDSIZE
 40
0.3125
  9
$PLINEWID
 40
0.0
  9
$COORDS
 70
     1
  9
$SPLFRAME
 70
     0
  9
$SPLINETYPE
 70
     6
  9
$SPLINESEGS
 70
     8
  9
$ATTDIA
 70
     1
  9
$ATTREQ
 70
     1
  9
$HANDLING
 70
     1
  9
$HANDSEED
  5
11902
  9
$SURFTAB1
 70
     6
  9
$SURFTAB2
 70
     6
  9
$SURFTYPE
 70
     6
  9
$SURFU
 70
     6
  9
$SURFV
 70
     6
  9
$UCSNAME
  2

  9
$UCSORG
 10
0.0
 20
0.0
 30
0.0
  9
$UCSXDIR
 10
1.0
 20
0.0
 30
0.0
  9
$UCSYDIR
 10
0.0
 20
1.0
 30
0.0
  9
$PUCSNAME
  2

  9
$PUCSORG
 10
0.0
 20
0.0
 30
0.0
  9
$PUCSXDIR
 10
1.0
 20
0.0
 30
0.0
  9
$PUCSYDIR
 10
0.0
 20
1.0
 30
0.0
  9
$USERI1
 70
     0
  9
$USERI2
 70
     0
  9
$USERI3
 70
     0
  9
$USERI4
 70
     0
  9
$USERI5
 70
     0
  9
$USERR1
 40
0.0
  9
$USERR2
 40
0.0
  9
$USERR3
 40
0.0
  9
$USERR4
 40
0.0
  9
$USERR5
 40
0.0
  9
$WORLDVIEW
 70
     1
  9
$SHADEDGE
 70
     3
  9
$SHADEDIF
 70
    70
  9
$TILEMODE
 70
     1
  9
$MAXACTVP
 70
    64
  9
$PLIMCHECK
 70
     0
  9
$PEXTMIN
 10
1.0000000000000000E+20
 20
1.0000000000000000E+20
 30
1.0000000000000000E+20
  9
$PEXTMAX
 10
-1.0000000000000000E+20
 20
-1.0000000000000000E+20
 30
-1.0000000000000000E+20
  9
$PLIMMIN
 10
0.0
 20
0.0
  9
$PLIMMAX
 10
12.0
 20
9.0
  9
$UNITMODE
 70
     0
  9
$VISRETAIN
 70
     1
  9
$PLINEGEN
 70
     0
  9
$PSLTSCALE
 70
     1
  0
ENDSEC
  0
SECTION
  2
TABLES
  0
TABLE
  2
VPORT
 70
     1
  0
VPORT
  2
*ACTIVE
 70
     0
 10
0.0
 20
0.0
 11
1.0
 21
1.0
 12
142.1640940093174947
 22
28.8856398408403017
 13
0.0
 23
0.0
 14
1.0
 24
1.0
 15
0.0
 25
0.0
 16
0.0
 26
0.0
 36
122.0237731519760018
 17
4265.00634765625
 27
104.3040122985839986
 37
0.0
 40
31.7856290033191193
 41
2.0410052910052912
 42
50.0
 43
0.0
 44
0.0
 50
0.0
 51
0.0
 71
     0
 72
   100
 73
     1
 74
     1
 75
     0
 76
     0
 77
     0
 78
     0
  0
ENDTAB
  0
TABLE
  2
LTYPE
 70
     2
  0
LTYPE
  2
CONTINUOUS
 70
     0
  3
Solid line
 72
    65
 73
     0
 40
0.0
  0
LTYPE
  2
PHANTOM2
 70
     0
  3
___ _ _ ___ _ _ ___ _ _ ___ _ _
 72
    65
 73
     6
 40
1.25
 49
0.625
 49
-0.125
 49
0.125
 49
-0.125
 49
0.125
 49
-0.125
  0
ENDTAB
  0
TABLE
  2
LAYER
 70
     2
  0
LAYER
  2
0
 70
     0
 62
   255
  6
CONTINUOUS
  0
LAYER
  2
DEFPOINTS
 70
     0
 62
     7
  6
CONTINUOUS
  0
ENDTAB
  0
TABLE
  2
STYLE
 70
     1
  0
STYLE
  2
STANDARD
 70
     0
 40
0.0
 41
0.8
 50
0.0
 71
     0
 42
0.2
  3
txt
  4

  0
ENDTAB
  0
TABLE
  2
VIEW
 70
     0
  0
ENDTAB
  0
TABLE
  2
UCS
 70
     0
  0
ENDTAB
  0
TABLE
  2
APPID
 70
     9
  0
APPID
  2
ACAD
 70
     0
  0
APPID
  2
ACAD_MLEADERVER
 70
     0
  0
APPID
  2
ACAD_EXEMPT_FROM_CAD_STANDARDS
 70
     0
  0
APPID
  2
ACAD_NAV_VCDISPLAY
 70
     0
  0
APPID
  2
ACAECLAYERSTANDARD
 70
     0
  0
APPID
  2
ACCMTRANSPARENCY
 70
     0
  0
APPID
  2
ACAD_DSTYLE_DIMJAG
 70
     0
  0
APPID
  2
ACAD_DSTYLE_DIMTALN
 70
     0
  0
APPID
  2
ACDBATTR
 70
     0
  0
ENDTAB
  0
TABLE
  2
DIMSTYLE
 70
     1
  0
DIMSTYLE
  2
STANDARD
 70
     0
  3

  4

  5

  6

  7

 40
1.0
 41
0.1875
 42
0.0625
 43
0.38
 44
0.125
 45
0.0
 46
0.0
 47
0.01
 48
0.01
140
0.15625
141
0.09
142
0.0
143
25.3999999999999986
144
1.0
145
0.0
146
1.0
147
0.09
 71
     1
 72
     0
 73
     1
 74
     1
 75
     0
 76
     0
 77
     0
 78
     4
170
     0
171
     2
172
     0
173
     0
174
     0
175
     0
176
     0
177
     0
178
     0
  0
ENDTAB
  0
ENDSEC
  0
SECTION
  2
BLOCKS
  0
BLOCK
  8
0
  2
$MODEL_SPACE
 70
     0
 10
0.0
 20
0.0
 30
0.0
  3
$MODEL_SPACE
  1

  0
ENDBLK
  5
21
  8
0
  0
BLOCK
 67
     1
  8
0
  2
$PAPER_SPACE
 70
     0
 10
0.0
 20
0.0
 30
0.0
  3
$PAPER_SPACE
  1

  0
ENDBLK
  5
1D
 67
     1
  8
0
  0
ENDSEC
  0
SECTION
  2
ENTITIES
  0
ATTDEF
  5
FDB2
  8
DEFPOINTS
 10
4419.9689501463180932
 20
117.4304495045435033
 30
0.0
 40
0.001
  1
K-78470K-TF
  3

  2
MODELNUMBER
 70
     0
1001
ACDBATTR
1070
     0
1070
     1
  0
ATTDEF
  5
FDB3
  8
DEFPOINTS
 10
4419.9689501463180932
 20
117.4287828378767955
 30
0.0
 40
0.001
  1

  3

  2
TRADENAME
 70
     0
1001
ACDBATTR
1070
     0
1070
     1
  0
ATTDEF
  5
FDB4
  8
DEFPOINTS
 10
4419.9689501463180932
 20
117.4271161712101019
 30
0.0
 40
0.001
  1
TOILET
  3

  2
PRODUCT
 70
     0
1001
ACDBATTR
1070
     0
1070
     1
  0
LINE
  5
117B5
  8
0
 10
4413.8979018681529851
 20
148.9484192467367905
 30
0.0
 11
4419.9299659080206766
 21
148.9484192467367905
 31
0.0
  0
LINE
  5
117B6
  8
0
 10
4413.9107479347312619
 20
148.6531445155868028
 30
0.0
 11
4419.9420887969808973
 21
148.6531445155868028
 31
0.0
  0
LINE
  5
117B7
  8
0
 10
4414.0333125873539757
 20
134.9615115057281969
 30
0.0
 11
4419.8307856390993038
 21
134.9615115057281969
 31
0.0
  0
LINE
  5
117B8
  8
0
 10
4394.2952662223297011
 20
134.6574048914648074
 30
0.0
 11
4411.4239619727331956
 21
134.6574048914648074
 31
0.0
  0
ARC
  5
117B9
  8
0
 10
4419.9106464305123154
 20
148.8296299167357972
 30
0.0
 40
0.120350102340286
 50
0.3232977925363365
 51
80.7624958325529434
  0
LINE
  5
117BA
  8
0
 10
4420.0309946169409159
 20
148.8303090019367971
 30
0.0
 11
4420.0309946141405817
 21
148.7712548179785017
 31
0.0
  0
ARC
  5
117BB
  8
0
 10
4419.9123229455462933
 20
148.7712964802232989
 30
0.0
 40
0.1186716762415543
 50
275.3641871638063776
 51
359.9794316090417965
  0
ARC
  5
117BC
  8
0
 10
4419.9304671070121913
 20
148.559329075641898
 30
0.0
 40
0.0945325364611984
 50
16.9349488792281306
 51
82.9382766475575153
  0
ARC
  5
117BD
  8
0
 10
1586.773245586837902
 20
170.587641138794794
 30
0.0
 40
2833.3330738420900161
 50
359.2807293051639022
 51
359.5550949181076135
  0
ARC
  5
117BE
  8
0
 10
4419.8234397446176445
 20
135.0206984094440941
 30
0.0
 40
0.0596410239449275
 50
277.0750002954422939
 51
359.2584020062599848
  0
ARC
  5
117BF
  8
0
 10
4411.4133615740793175
 20
134.5782090031881069
 30
0.0
 40
0.0799021725084724
 50
1.31231452754684
 51
82.3762522457241744
  0
ARC
  5
117C0
  8
0
 10
4414.0336494832963581
 20
135.0208701249383978
 30
0.0
 40
0.0593599675691182
 50
180.6407967828766061
 51
269.7143871427992963
  0
ARC
  5
117C1
  8
0
 10
5796.2470136291130984
 20
150.6463807112166933
 30
0.0
 40
1382.3610421640410095
 50
180.0858820519237895
 51
180.6476838446531019
  0
ARC
  5
117C2
  8
0
 10
4413.9662243034035782
 20
148.574444515586805
 30
0.0
 40
0.0787
 50
90.0
 51
180.0858820514856973
  0
ARC
  5
117C3
  8
0
 10
4413.9108519975143281
 20
148.7846269834961959
 30
0.0
 40
0.1314825090900057
 50
185.8375271753118056
 51
269.9546528326881116
  0
LINE
  5
117C4
  8
0
 10
4413.7800513164411313
 20
148.7712541742367875
 30
0.0
 11
4413.780051319339691
 21
148.8303060386888035
 31
0.0
  0
ARC
  5
117C5
  8
0
 10
4413.8981616312021288
 20
148.8303092509887904
 30
0.0
 40
0.1181103119044086
 50
123.3472729941940003
 51
180.0015582994371073
  0
ARC
  5
117C6
  8
0
 10
4413.8981615286038505
 20
148.8303094068990049
 30
0.0
 40
0.1181101252648477
 50
90.125962612203935
 51
123.3472729941940003
  0
ARC
  5
117C7
  8
0
 10
4414.1697351607481323
 20
134.8416946334926934
 30
0.0
 40
0.1209169707899909
 50
99.0527780458198777
 51
178.3464271889147881
  0
ARC
  5
117C8
  8
0
 10
4402.8078446686959069
 20
1020.2418023049259546
 30
0.0
 40
886.7145431247625993
 50
269.455734628296625
 51
269.7650456453382048
  0
ARC
  5
117C9
  8
0
 10
4394.385822299850588
 20
133.6672608141666956
 30
0.0
 40
0.1
 50
180.0
 51
269.455734628296625
  0
ARC
  5
117CA
  8
0
 10
4400.863942927185235
 20
574.5096606810335516
 30
0.0
 40
440.9781930889583919
 50
269.780125790125112
 51
270.6188091013535768
  0
ARC
  5
117CB
  8
0
 10
4412.8651428272787598
 20
-536.6429804395263545
 30
0.0
 40
670.2392566787449368
 50
90.1102458585622088
 51
90.6188091013536337
  0
ARC
  5
117CC
  8
0
 10
4411.3145146240512986
 20
133.6944827808935088
 30
0.0
 40
0.1
 50
270.1325366670424728
 51
0.0
  0
ARC
  5
117CD
  8
0
 10
4411.5413644599611871
 20
151.3358774525293882
 30
0.0
 40
17.7408747899067905
 50
270.110245858562223
 51
276.0348087442200722
  0
ARC
  5
117CE
  8
0
 10
4413.2129687383539931
 20
135.5240368379573113
 30
0.0
 40
1.8409199319780309
 50
276.0348087442200722
 51
290.733955720532208
  0
ARC
  5
117CF
  8
0
 10
4411.7884355798578326
 20
134.7066855664178036
 30
0.0
 40
2.2646719312723769
 50
336.4640059789508086
 51
3.5061686803975611
  0
ARC
  5
117D0
  8
0
 10
4394.2952914615771078
 20
134.578642370627108
 30
0.0
 40
0.0787625248816331
 50
90.0183602842867003
 51
178.5154222950341989
  0
ARC
  5
117D1
  8
0
 10
4394.2922851792072834
 20
134.4610859343887057
 30
0.0
 40
0.0787703747001747
 50
178.5471051353090104
 51
250.9882030773682118
  0
ARC
  5
117D2
  8
0
 10
4394.1254206099101793
 20
133.9767999787856922
 30
0.0
 40
0.4334567929518626
 50
32.748668375525007
 51
70.9882030773679418
  0
ARC
  5
117D3
  8
0
 10
4394.5494659709283951
 20
134.2495411876982985
 30
0.0
 40
0.0707279303780129
 50
212.7486683755236072
 51
266.9706095281434273
  0
ARC
  5
117D4
  8
0
 10
4387.944696567245046
 20
6582.0872095167851512
 30
0.0
 40
6447.9116763159099719
 50
270.0586564043911153
 51
270.1065747716368151
  0
LINE
  5
117D5
  8
0
 10
4399.9383254865979325
 20
134.1866877627157066
 30
0.0
 11
4407.199277543705648
 21
134.1865355172843124
 31
0.0
  0
ARC
  5
117D6
  8
0
 10
4407.129700769952251
 20
178.4820123089145909
 30
0.0
 40
44.2955314351831717
 50
270.0899968235697202
 51
274.4575598404720154
  0
ARC
  5
117D7
  8
0
 10
4394.4600381206118982
 20
133.3278156762706885
 30
0.0
 40
0.23961513093125
 50
94.3912897556758708
 51
179.600144203823902
  0
ARC
  5
117D8
  8
0
 10
4379.0982362093200209
 20
132.6047754869904054
 30
0.0
 40
15.1395481294092704
 50
359.9931950697081788
 51
2.7437302483045851
  0
ARC
  5
117D9
  8
0
 10
4396.1980182237793997
 20
132.6027445725642906
 30
0.0
 40
1.9602340056543199
 50
179.9931950697080936
 51
231.8622398439758001
  0
ARC
  5
117DA
  8
0
 10
3056.4115664145388109
 20
-1097.3358667494160272
 30
0.0
 40
1816.7950404284611068
 50
42.374294631455939
 51
42.5422710249156992
  0
ARC
  5
117DB
  8
0
 10
4395.2121254305629918
 20
123.6260622789007044
 30
0.0
 40
4.8631334298360951
 50
19.0454439074009301
 51
46.1192928433762006
  0
ARC
  5
117DC
  8
0
 10
4392.3763969184738016
 20
123.3229029912150025
 30
0.0
 40
7.6692098253098147
 50
356.8515832296454846
 51
14.2676208462877199
  0
ARC
  5
117DD
  8
0
 10
3465.6316791359117815
 20
145.1937732191734938
 30
0.0
 40
934.6682256595589706
 50
358.3047461453555798
 51
358.6333509972330944
  0
ARC
  5
117DE
  8
0
 10
4400.0056085177548084
 20
117.5408167594135023
 30
0.0
 40
0.1148168720202578
 50
178.8767336521788138
 51
270.257914468562376
  0
CIRCLE
  5
117DF
  8
0
 10
4409.9725308195011166
 20
118.6071025514148971
 30
0.0
 40
0.5649961883250807
  0
LINE
  5
117E0
  8
0
 10
4419.8155676546994073
 20
134.8430054687231916
 30
0.0
 11
4419.8155717228200956
 21
117.5409010776805019
 31
0.0
  0
ARC
  5
117E1
  8
0
 10
4419.6974676546988121
 20
134.8430054409552099
 30
0.0
 40
0.1181
 50
0.0000134715513021
 51
90.0
  0
LINE
  5
117E2
  8
0
 10
4419.7006717228196067
 20
117.4260010506647944
 30
0.0
 11
4400.0061253591829882
 21
117.4260010506647944
 31
0.0
  0
ARC
  5
117E3
  8
0
 10
4419.7006717228196067
 20
117.5409010506648997
 30
0.0
 40
0.1149
 50
270.0
 51
0.0000134715521164
  0
LINE
  5
117E4
  8
0
 10
4394.2377842288888132
 20
132.6025391489889955
 30
0.0
 11
4419.815568181483286
 21
132.6025391489889955
 31
0.0
  0
LINE
  5
117E6
  8
0
 10
4394.2165553745326179
 20
134.5806829398648858
 30
0.0
 11
4394.2135401285331682
 21
134.4630831636648907
 31
0.0
  0
LINE
  5
117E7
  8
0
 10
4411.4932427890526014
 20
134.5800389391490057
 30
0.0
 11
4411.4984036668411136
 21
134.2843725248943088
 31
0.0
  0
ARC
  5
117E8
  8
0
 10
4412.377312772426194
 20
134.2671391029888923
 30
0.0
 40
0.8790780449252347
 50
178.8767031460434964
 51
188.5175066766300915
  0
ARC
  5
117E9
  8
0
 10
4409.5520824193899898
 20
133.6097025431558052
 30
0.0
 40
2.0256648055773461
 50
6.8219052082547762
 51
15.0865267442072604
  0
ARC
  5
117EA
  8
0
 10
4410.2093878700761707
 20
134.4856771101169954
 30
0.0
 40
1.4956756188731379
 50
323.4372139995368798
 51
334.8621717342617785
  0
LINE
  5
117EB
  8
0
 10
4411.5861790644521534
 20
133.7443887237648994
 30
0.0
 11
4411.5861790644521534
 21
133.5950592650169142
 31
0.0
  0
LINE
  5
117EC
  8
0
 10
4411.5861790644521534
 20
133.7443887237648994
 30
0.0
 11
4411.50844024975504
 21
133.7443887237648994
 31
0.0
  0
LINE
  5
117ED
  8
0
 10
4394.385822299850588
 20
133.9943887237648994
 30
0.0
 11
4411.3145146240512986
 21
133.9943887237648994
 31
0.0
  0
LINE
  5
117EE
  8
0
 10
4394.2858222998520432
 20
133.8943887237649051
 30
0.0
 11
4394.2858222998520432
 21
133.6672608141666956
 31
0.0
  0
ARC
  5
117EF
  8
0
 10
4394.385822299850588
 20
133.8943887237649051
 30
0.0
 40
0.1
 50
90.0
 51
180.0
  0
LINE
  5
117F0
  8
0
 10
4411.4145146240507529
 20
133.8943887237649051
 30
0.0
 11
4411.4145146240507529
 21
133.6944827808935088
 31
0.0
  0
ARC
  5
117F1
  8
0
 10
4411.3145146240512986
 20
133.8943887237649051
 30
0.0
 40
0.1
 50
359.9999999999992042
 51
90.0
  0
ARC
  5
117F2
  8
0
 10
4411.0178625312219083
 20
133.8934059892546884
 30
0.0
 40
0.5472422423893236
 50
355.4840804100118135
 51
26.4243515394207797
  0
ARC
  5
117F3
  8
0
 10
4427.8610799508369382
 20
176.4754717734811038
 30
0.0
 40
52.1575744871227016
 50
234.2595451773908906
 51
234.5356199122475971
  0
ARC
  5
117F4
  8
0
 10
4396.4775262213106544
 20
124.092506616101403
 30
0.0
 40
10.08996580800153
 50
84.7824579326725711
 51
89.1559354431465749
  0
ARC
  5
117F5
  8
0
 10
4399.7929004076413548
 20
128.0122184866816895
 30
0.0
 40
6.1746700054324366
 50
90.8192652423411033
 51
97.823940260727511
  0
ARC
  5
117F6
  8
0
 10
4401.347491519297364
 20
130.7896194589845891
 30
0.0
 40
4.109856114151297
 50
125.6463818240548989
 51
128.7392423776381918
  0
ARC
  5
117F7
  8
0
 10
4403.7931730536811301
 20
210.0779772452175962
 30
0.0
 40
76.0602259289770473
 50
275.1135258710232847
 51
275.7708430740548806
  0
ARC
  5
117F8
  8
0
 10
4411.4508213678773245
 20
133.7528044614826115
 30
0.0
 40
0.650493333167299
 50
85.9868669854520533
 51
90.8625366858830859
  0
ENDSEC
  0
EOF
