  0
SECTION
  2
HEADER
  9
$ACADVER
  1
AC1009
  9
$INSBASE
 10
4269.8018263640951773
 20
107.7573066791439942
 30
0.0
  9
$EXTMIN
 10
4262.0444749370317368
 20
107.7520257041674938
 30
0.0
  9
$EXTMAX
 10
4277.5591777911577083
 20
138.6746423251939859
 30
0.0
  9
$LIMMIN
 10
0.0
 20
0.0
  9
$LIMMAX
 10
11.6929133858000007
 20
8.2677165353999982
  9
$ORTHOMODE
 70
     0
  9
$REGENMODE
 70
     1
  9
$FILLMODE
 70
     1
  9
$QTEXTMODE
 70
     0
  9
$MIRRTEXT
 70
     0
  9
$DRAGMODE
 70
     2
  9
$LTSCALE
 40
0.6431102362
  9
$OSMODE
 70
  4095
  9
$ATTMODE
 70
     1
  9
$TEXTSIZE
 40
0.2
  9
$TRACEWID
 40
0.05
  9
$TEXTSTYLE
  7
STANDARD
  9
$CLAYER
  8
0
  9
$CELTYPE
  6
BYLAYER
  9
$CECOLOR
 62
   256
  9
$DIMSCALE
 40
1.0
  9
$DIMASZ
 40
0.1875
  9
$DIMEXO
 40
0.0625
  9
$DIMDLI
 40
0.4443307087
  9
$DIMRND
 40
0.0
  9
$DIMDLE
 40
0.0
  9
$DIMEXE
 40
0.125
  9
$DIMTP
 40
0.01
  9
$DIMTM
 40
0.01
  9
$DIMTXT
 40
2.0
  9
$DIMCEN
 40
0.1052362205
  9
$DIMTSZ
 40
0.0
  9
$DIMTOL
 70
     1
  9
$DIMLIM
 70
     0
  9
$DIMTIH
 70
     1
  9
$DIMTOH
 70
     1
  9
$DIMSE1
 70
     0
  9
$DIMSE2
 70
     0
  9
$DIMTAD
 70
     0
  9
$DIMZIN
 70
     0
  9
$DIMBLK
  1

  9
$DIMASO
 70
     1
  9
$DIMSHO
 70
     1
  9
$DIMPOST
  1
\X
  9
$DIMAPOST
  1

  9
$DIMALT
 70
     1
  9
$DIMALTD
 70
     2
  9
$DIMALTF
 40
25.3999999999999986
  9
$DIMLFAC
 40
1.0
  9
$DIMTOFL
 70
     0
  9
$DIMTVP
 40
0.0
  9
$DIMTIX
 70
     0
  9
$DIMSOXD
 70
     0
  9
$DIMSAH
 70
     0
  9
$DIMBLK1
  1

  9
$DIMBLK2
  1

  9
$DIMSTYLE
  2
STANDARD
  9
$DIMCLRD
 70
     0
  9
$DIMCLRE
 70
     0
  9
$DIMCLRT
 70
     0
  9
$DIMTFAC
 40
1.0
  9
$DIMGAP
 40
0.09
  9
$LUNITS
 70
     2
  9
$LUPREC
 70
     4
  9
$SKETCHINC
 40
0.1
  9
$FILLETRAD
 40
0.0
  9
$AUNITS
 70
     0
  9
$AUPREC
 70
     0
  9
$MENU
  1
.
  9
$ELEVATION
 40
0.0
  9
$PELEVATION
 40
0.0
  9
$THICKNESS
 40
0.0
  9
$LIMCHECK
 70
     0
  9
$BLIPMODE
 70
     0
  9
$CHAMFERA
 40
0.0
  9
$CHAMFERB
 40
0.0
  9
$SKPOLY
 70
     0
  9
$TDCREATE
 40
2458060.468368056230247
  9
$TDUPDATE
 40
2459788.6852199081331491
  9
$TDINDWG
 40
0.3924376157
  9
$TDUSRTIMER
 40
0.3924376157
  9
$USRTIMER
 70
     1
  9
$ANGBASE
 50
0.0
  9
$ANGDIR
 70
     0
  9
$PDMODE
 70
     0
  9
$PDSIZE
 40
0.3125
  9
$PLINEWID
 40
0.0
  9
$COORDS
 70
     1
  9
$SPLFRAME
 70
     0
  9
$SPLINETYPE
 70
     6
  9
$SPLINESEGS
 70
     8
  9
$ATTDIA
 70
     1
  9
$ATTREQ
 70
     1
  9
$HANDLING
 70
     1
  9
$HANDSEED
  5
116BD
  9
$SURFTAB1
 70
     6
  9
$SURFTAB2
 70
     6
  9
$SURFTYPE
 70
     6
  9
$SURFU
 70
     6
  9
$SURFV
 70
     6
  9
$UCSNAME
  2

  9
$UCSORG
 10
0.0
 20
0.0
 30
0.0
  9
$UCSXDIR
 10
1.0
 20
0.0
 30
0.0
  9
$UCSYDIR
 10
0.0
 20
1.0
 30
0.0
  9
$PUCSNAME
  2

  9
$PUCSORG
 10
0.0
 20
0.0
 30
0.0
  9
$PUCSXDIR
 10
1.0
 20
0.0
 30
0.0
  9
$PUCSYDIR
 10
0.0
 20
1.0
 30
0.0
  9
$USERI1
 70
     0
  9
$USERI2
 70
     0
  9
$USERI3
 70
     0
  9
$USERI4
 70
     0
  9
$USERI5
 70
     0
  9
$USERR1
 40
0.0
  9
$USERR2
 40
0.0
  9
$USERR3
 40
0.0
  9
$USERR4
 40
0.0
  9
$USERR5
 40
0.0
  9
$WORLDVIEW
 70
     1
  9
$SHADEDGE
 70
     3
  9
$SHADEDIF
 70
    70
  9
$TILEMODE
 70
     1
  9
$MAXACTVP
 70
    64
  9
$PLIMCHECK
 70
     0
  9
$PEXTMIN
 10
1.0000000000000000E+20
 20
1.0000000000000000E+20
 30
1.0000000000000000E+20
  9
$PEXTMAX
 10
-1.0000000000000000E+20
 20
-1.0000000000000000E+20
 30
-1.0000000000000000E+20
  9
$PLIMMIN
 10
0.0
 20
0.0
  9
$PLIMMAX
 10
12.0
 20
9.0
  9
$UNITMODE
 70
     0
  9
$VISRETAIN
 70
     1
  9
$PLINEGEN
 70
     0
  9
$PSLTSCALE
 70
     1
  0
ENDSEC
  0
SECTION
  2
TABLES
  0
TABLE
  2
VPORT
 70
     1
  0
VPORT
  2
*ACTIVE
 70
     0
 10
0.0
 20
0.0
 11
1.0
 21
1.0
 12
0.0
 22
0.0
 13
0.0
 23
0.0
 14
1.0
 24
1.0
 15
0.0
 25
0.0
 16
0.0
 26
0.0
 36
98.3534409735968751
 17
4269.8017578125
 27
123.2133312724939032
 37
0.0
 40
34.5968330813607778
 41
2.127494456762749
 42
50.0
 43
0.0
 44
0.0
 50
0.0
 51
0.0
 71
     0
 72
   100
 73
     1
 74
     1
 75
     0
 76
     0
 77
     0
 78
     0
  0
ENDTAB
  0
TABLE
  2
LTYPE
 70
     2
  0
LTYPE
  2
CONTINUOUS
 70
     0
  3
Solid line
 72
    65
 73
     0
 40
0.0
  0
LTYPE
  2
PHANTOM2
 70
     0
  3
___ _ _ ___ _ _ ___ _ _ ___ _ _
 72
    65
 73
     6
 40
1.25
 49
0.625
 49
-0.125
 49
0.125
 49
-0.125
 49
0.125
 49
-0.125
  0
ENDTAB
  0
TABLE
  2
LAYER
 70
     2
  0
LAYER
  2
0
 70
     0
 62
   255
  6
CONTINUOUS
  0
LAYER
  2
DEFPOINTS
 70
     0
 62
     7
  6
CONTINUOUS
  0
ENDTAB
  0
TABLE
  2
STYLE
 70
     1
  0
STYLE
  2
STANDARD
 70
     0
 40
0.0
 41
0.8
 50
0.0
 71
     0
 42
0.2
  3
txt
  4

  0
ENDTAB
  0
TABLE
  2
VIEW
 70
     0
  0
ENDTAB
  0
TABLE
  2
UCS
 70
     0
  0
ENDTAB
  0
TABLE
  2
APPID
 70
    10
  0
APPID
  2
ACAD
 70
     0
  0
APPID
  2
ACAD_MLEADERVER
 70
     0
  0
APPID
  2
ACAD_EXEMPT_FROM_CAD_STANDARDS
 70
     0
  0
APPID
  2
ACAD_NAV_VCDISPLAY
 70
     0
  0
APPID
  2
ACAECLAYERSTANDARD
 70
     0
  0
APPID
  2
ACCMTRANSPARENCY
 70
     0
  0
APPID
  2
ACAD_DSTYLE_DIMJAG
 70
     0
  0
APPID
  2
ACAD_DSTYLE_DIMTALN
 70
     0
  0
APPID
  2
ACDBATTR
 70
     0
  0
APPID
  2
DCO15
 70
     0
  0
ENDTAB
  0
TABLE
  2
DIMSTYLE
 70
     1
  0
DIMSTYLE
  2
STANDARD
 70
     0
  3

  4

  5

  6

  7

 40
1.0
 41
0.1875
 42
0.0625
 43
0.38
 44
0.125
 45
0.0
 46
0.0
 47
0.01
 48
0.01
140
0.15625
141
0.09
142
0.0
143
25.3999999999999986
144
1.0
145
0.0
146
1.0
147
0.09
 71
     1
 72
     0
 73
     1
 74
     1
 75
     0
 76
     0
 77
     0
 78
     4
170
     0
171
     2
172
     0
173
     0
174
     0
175
     0
176
     0
177
     0
178
     0
  0
ENDTAB
  0
ENDSEC
  0
SECTION
  2
BLOCKS
  0
BLOCK
  8
0
  2
$MODEL_SPACE
 70
     0
 10
0.0
 20
0.0
 30
0.0
  3
$MODEL_SPACE
  1

  0
ENDBLK
  5
21
  8
0
  0
BLOCK
 67
     1
  8
0
  2
$PAPER_SPACE
 70
     0
 10
0.0
 20
0.0
 30
0.0
  3
$PAPER_SPACE
  1

  0
ENDBLK
  5
1D
 67
     1
  8
0
  0
ENDSEC
  0
SECTION
  2
ENTITIES
  0
ATTDEF
  5
FDB2
  8
DEFPOINTS
 10
4269.7967965493362499
 20
107.7553590375007957
 30
0.0
 40
0.001
  1
K-78472K-TF
  3

  2
MODELNUMBER
 70
     0
1001
ACDBATTR
1070
     0
1070
     1
  0
ATTDEF
  5
FDB3
  8
DEFPOINTS
 10
4269.7967965493362499
 20
107.7536923708342016
 30
0.0
 40
0.001
  1

  3

  2
TRADENAME
 70
     0
1001
ACDBATTR
1070
     0
1070
     1
  0
ATTDEF
  5
FDB4
  8
DEFPOINTS
 10
4269.7967965493362499
 20
107.7520257041674938
 30
0.0
 40
0.001
  1
TOILET
  3

  2
PRODUCT
 70
     0
1001
ACDBATTR
1070
     0
1070
     1
  0
LINE
  5
11555
  8
0
 10
4264.8430481755340224
 20
107.7573066791439942
 30
0.0
 11
4269.8018263640951773
 21
107.7573066791439942
 31
0.0
  0
LINE
  5
11556
  8
0
 10
4262.1567321050652026
 20
138.6746423251939859
 30
0.0
 11
4277.4469206231260614
 21
138.6746423251939859
 31
0.0
  0
LINE
  5
11557
  8
0
 10
4262.1549737390023438
 20
138.3793675940439982
 30
0.0
 11
4277.4486789891889202
 21
138.3793675940439982
 31
0.0
  0
LINE
  5
11558
  8
0
 10
4262.1795939197772896
 20
138.1430707861933058
 30
0.0
 11
4277.4240588084139745
 21
138.1430707861933058
 31
0.0
  0
LINE
  5
11559
  8
0
 10
4262.6700212833684418
 20
125.2924104585940057
 30
0.0
 11
4276.9336428575843456
 21
125.2924134031769938
 31
0.0
  0
LINE
  5
1155A
  8
0
 10
4262.7994745846235674
 20
125.1514808923952984
 30
0.0
 11
4276.8031698379672889
 21
125.1514808923947015
 31
0.0
  0
ARC
  5
1155B
  8
0
 10
4262.163979945095889
 20
138.5551588120212045
 30
0.0
 40
0.1197031374077525
 50
93.4712941641869008
 51
155.6512789073447038
  0
ARC
  5
1155C
  8
0
 10
4262.1615822416588344
 20
138.5561552400839105
 30
0.0
 40
0.1171079137473185
 50
155.6117722074554024
 51
179.8152024248128953
  0
ARC
  5
1155D
  8
0
 10
4262.1634459239130592
 20
138.4980378575164934
 30
0.0
 40
0.1189723049695504
 50
180.2697040449851045
 51
265.9164307680733259
  0
ARC
  5
1155E
  8
0
 10
4262.4225372190830967
 20
138.2999869068140981
 30
0.0
 40
0.0799243605453465
 50
96.6867262926156741
 51
174.6353676457179063
  0
ARC
  5
1155F
  8
0
 10
4266.4524376797171499
 20
137.9215588225968077
 30
0.0
 40
4.1275539801551204
 50
174.6353676457179063
 51
175.4240769471317094
  0
ARC
  5
11560
  8
0
 10
4262.2211196331199972
 20
138.2602130461478964
 30
0.0
 40
0.1172945559620964
 50
272.8361570865919248
 51
355.4240769471325052
  0
ARC
  5
11561
  8
0
 10
4262.1820567593204032
 20
138.0648374008115979
 30
0.0
 40
0.0782721417038803
 50
91.8031141512428377
 51
182.7696155804507043
  0
ARC
  5
11562
  8
0
 10
103523.8387071748002199
 20
4197.7477543383256489
 30
0.0
 40
99344.7183184872701531
 50
182.342023860453196
 51
182.3493614951597124
  0
ARC
  5
11563
  8
0
 10
4262.6851523362211083
 20
125.3510797367554943
 30
0.0
 40
0.0605890498391395
 50
181.9228948668502994
 51
255.5383185046902099
  0
ARC
  5
11564
  8
0
 10
4262.8629502735666392
 20
125.1672427125223948
 30
0.0
 40
0.1261003972457204
 50
96.9727976312532149
 51
147.3626369694802065
  0
ARC
  5
11565
  8
0
 10
4262.847250541676658
 20
125.1772957994103024
 30
0.0
 40
0.1074578079701716
 50
147.3618549304235046
 51
180.5815983619235965
  0
ARC
  5
11566
  8
0
 10
4293.5987920790148564
 20
123.7891115788206946
 30
0.0
 40
30.8901525922289686
 50
177.4263211139576981
 51
177.5290956586736115
  0
ARC
  5
11567
  8
0
 10
4262.7999760278325994
 20
125.072169938081899
 30
0.0
 40
0.07931253948387
 50
90.3622475222065873
 51
142.1375934718329859
  0
ARC
  5
11568
  8
0
 10
4262.7997368947371797
 20
125.0723546014657046
 30
0.0
 40
0.0790104066769812
 50
142.136880816396598
 51
178.7224948559785958
  0
ARC
  5
11569
  8
0
 10
4291.5712910331385501
 20
124.430738397208998
 30
0.0
 40
28.8577177941289094
 50
178.7224948559785958
 51
179.3540924701642894
  0
ARC
  5
1156A
  8
0
 10
4262.7899915314328609
 20
124.7552098639124978
 30
0.0
 40
0.0745893550649374
 50
179.3540924701642894
 51
264.0284316390614094
  0
ARC
  5
1156B
  8
0
 10
4264.1149389602433075
 20
792.5384813200356575
 30
0.0
 40
667.8587857678841146
 50
269.885666614663478
 51
269.9052645881822059
  0
ARC
  5
1156C
  8
0
 10
4263.5479231551544217
 20
127.1485649302344996
 30
0.0
 40
2.525756934955905
 50
257.7188429405551915
 51
266.5312903914183948
  0
LINE
  5
1156D
  8
0
 10
4266.0616371881960731
 20
124.6729880964939952
 30
0.0
 11
4266.0616493430306946
 21
124.4898620538440071
 31
0.0
  0
LINE
  5
1156E
  8
0
 10
4266.0448186140438338
 20
124.6729880964939952
 30
0.0
 11
4266.0429448163113193
 21
124.4898620538440071
 31
0.0
  0
LINE
  5
1156F
  8
0
 10
4266.0616371448240898
 20
124.5599463207440039
 30
0.0
 11
4266.0436619384554433
 21
124.5599463207440039
 31
0.0
  0
ARC
  5
11570
  8
0
 10
4256.5417420098528964
 20
124.6757002792001998
 30
0.0
 40
6.1812857802962977
 50
357.3569313050210212
 51
0.4358620055862369
  0
LINE
  5
11571
  8
0
 10
4265.5273038173972964
 20
124.6729880964939952
 30
0.0
 11
4265.5292151363091762
 21
124.4920404381111041
 31
0.0
  0
LINE
  5
11572
  8
0
 10
4265.5072961665855473
 20
124.6729880964939952
 30
0.0
 11
4265.5094441936244039
 21
124.4941734948440057
 31
0.0
  0
ARC
  5
11573
  8
0
 10
4265.5613849005849261
 20
124.8829098442708982
 30
0.0
 40
0.3921910075528266
 50
262.3895442922956818
 51
265.2949841534634174
  0
ARC
  5
11574
  8
0
 10
4265.6012962562172106
 20
125.6829192501244989
 30
0.0
 40
1.193058268798969
 50
266.5362457681699766
 51
269.9231738210764888
  0
LINE
  5
11575
  8
0
 10
4265.5996965209242262
 20
124.4898620538440071
 30
0.0
 11
4274.0039562072679473
 21
124.4898620538440071
 31
0.0
  0
LINE
  5
11576
  8
0
 10
4265.5085749558229509
 20
124.5599463207440039
 30
0.0
 11
4265.5284978581812538
 21
124.5599463207440039
 31
0.0
  0
ARC
  5
11577
  8
0
 10
4269.1077690997599348
 20
-552.3048759977350528
 30
0.0
 40
676.2032652115567544
 50
89.9411914124087843
 51
90.3478243406494954
  0
ARC
  5
11578
  8
0
 10
4268.0900553889259754
 20
-398.1500521688311096
 30
0.0
 40
522.0451101640794604
 50
90.3388382296068215
 51
90.5419455424450064
  0
ARC
  5
11579
  8
0
 10
4263.1032243359659333
 20
129.0539360734703962
 30
0.0
 40
5.1824628084834474
 50
268.9050805365425845
 51
270.5419455424450916
  0
ARC
  5
1157A
  8
0
 10
4351.5888041139851339
 20
122.7345640876993969
 30
0.0
 40
88.8877809507470715
 50
178.9339565621540089
 51
179.5775997063340981
  0
ARC
  5
1157B
  8
0
 10
4216.3154329827111724
 20
126.5997368398704026
 30
0.0
 40
46.4989286086512408
 50
355.4793437809810257
 51
356.0416597378120969
  0
ARC
  5
1157C
  8
0
 10
4265.306393691896119
 20
122.6720099778788011
 30
0.0
 40
2.6497505367652039
 50
174.3091576812504968
 51
204.0267288224058007
  0
ARC
  5
1157D
  8
0
 10
4263.2013415295659797
 20
123.687151139027506
 30
0.0
 40
0.500893976072592
 50
139.9587562930217075
 51
170.6995644654330135
  0
ARC
  5
1157E
  8
0
 10
4265.4983854645515748
 20
129.2825552075838118
 30
0.0
 40
5.909120789939962
 50
244.2301560698784044
 51
246.3067546115252071
  0
ARC
  5
1157F
  8
0
 10
4262.2858051630082628
 20
122.6280777456319981
 30
0.0
 40
1.4802460628756999
 50
64.2301560698784328
 51
68.9341276501850331
  0
ARC
  5
11580
  8
0
 10
4262.9963169115917481
 20
124.4726825902830996
 30
0.0
 40
0.4964668595753938
 50
241.3637110800804919
 51
248.9341276501851041
  0
ARC
  5
11581
  8
0
 10
4262.8014622725004301
 20
124.1158318557080946
 30
0.0
 40
0.0898825790847173
 50
182.8074816567942946
 51
241.3637110800804919
  0
ARC
  5
11582
  8
0
 10
4199.7181879287927586
 20
76.0245977326889886
 30
0.0
 40
79.6312864791240855
 50
36.9331991157535313
 51
36.9838874588612612
  0
ARC
  5
11583
  8
0
 10
4263.4143724574178123
 20
124.1378090072490039
 30
0.0
 40
0.2250156406292253
 50
238.2722688793097916
 51
247.4373259111604
  0
ARC
  5
11584
  8
0
 10
4263.3067602434448418
 20
123.9647771278830959
 30
0.0
 40
0.0212574954607167
 50
182.9187997122554918
 51
239.7162994378784902
  0
ARC
  5
11585
  8
0
 10
4263.3368429667179953
 20
123.9369403173010937
 30
0.0
 40
0.0578686723741524
 50
113.4663950974615005
 51
152.4625039697191085
  0
ARC
  5
11586
  8
0
 10
4263.4170657872218726
 20
123.7468637685147996
 30
0.0
 40
0.2641786983283824
 50
94.2598303039006851
 51
113.0103506260950041
  0
ARC
  5
11587
  8
0
 10
4263.3739938285571043
 20
121.6710226094776033
 30
0.0
 40
2.3394075739180571
 50
83.4263186069976115
 51
89.4256905002459064
  0
ARC
  5
11588
  8
0
 10
4262.7507558730267192
 20
115.812941647411705
 30
0.0
 40
8.2304842415644117
 50
81.715666104122235
 51
83.7848165780953877
  0
ARC
  5
11589
  8
0
 10
4263.8739982083061477
 20
123.5527928800376998
 30
0.0
 40
0.4095700796978686
 50
66.0251888607294433
 51
81.2008794888221246
  0
ARC
  5
1158A
  8
0
 10
4263.9546001737680854
 20
123.8150402008152042
 30
0.0
 40
0.1410894247248605
 50
27.2568931544659208
 51
52.5353690854235396
  0
ARC
  5
1158B
  8
0
 10
4263.3958762557613227
 20
123.5785127997329056
 30
0.0
 40
0.4318027030117195
 50
89.7921482024013642
 51
101.2334731308714026
  0
ARC
  5
1158C
  8
0
 10
4263.3233044807993792
 20
123.9439065507315973
 30
0.0
 40
0.0592718240367266
 50
101.2334731308714026
 51
129.308955959839011
  0
LINE
  5
1158D
  8
0
 10
4263.2857556721237415
 20
123.9897676027439957
 30
0.0
 11
4263.2855303252681551
 21
123.9636946827365023
 31
0.0
  0
ARC
  5
1158E
  8
0
 10
4265.6287703821217292
 20
122.9045419965053014
 30
0.0
 40
1.6567488007807769
 50
136.9097919613587919
 51
143.8769407622953906
  0
ARC
  5
1158F
  8
0
 10
4266.0829270147623902
 20
130.0932947248554967
 30
0.0
 40
6.2813731187803166
 50
254.6379503357094904
 51
261.1563635138375048
  0
LINE
  5
11590
  8
0
 10
4276.8441726432811265
 20
124.0363482457905064
 30
0.0
 11
4262.7594196355039458
 21
124.0363482457905064
 31
0.0
  0
ARC
  5
11591
  8
0
 10
4262.9932514617767083
 20
123.5516200498986024
 30
0.0
 40
0.321048397988112
 50
88.0461093052473842
 51
141.0625057550099086
  0
ARC
  5
11592
  8
0
 10
4262.881365474408085
 20
123.6420216135798
 30
0.0
 40
0.1772050217571139
 50
141.0625057550099086
 51
171.9359447968008112
  0
ARC
  5
11593
  8
0
 10
4264.8321748946800653
 20
107.8720855153644038
 30
0.0
 40
0.115292712174979
 50
177.9008674936505088
 51
275.4116199849586906
  0
ARC
  5
11594
  8
0
 10
3575.3998747045061464
 20
130.6043521075577871
 30
0.0
 40
689.6916756238616699
 50
358.1115376207562235
 51
358.557729506538692
  0
ARC
  5
11595
  8
0
 10
4248.1113056105077703
 20
114.2306401459079979
 30
0.0
 40
16.7906988744485197
 50
356.6347560384500071
 51
6.4728116510140579
  0
ARC
  5
11596
  8
0
 10
4252.7451891376122148
 20
113.8692447367238003
 30
0.0
 40
12.2588275579855992
 50
10.5962529729479193
 51
23.1124665011688002
  0
ARC
  5
11597
  8
0
 10
4123.0019720033033082
 20
65.9183821108894676
 30
0.0
 40
150.5565773281153952
 50
21.119085087598009
 51
21.7028433079864485
  0
ARC
  5
11598
  8
0
 10
5907.3417961591776475
 20
755.1207614765842209
 30
0.0
 40
1762.2603317857578986
 50
201.1190850875979947
 51
201.1708086819587891
  0
ARC
  5
11599
  8
0
 10
4262.4735669210458582
 20
121.8486181901219965
 30
0.0
 40
2.260719356678301
 50
68.9226969289713338
 51
75.4011263684471942
  0
LINE
  5
1159A
  8
0
 10
4262.0444749370317368
 20
138.556532950643998
 30
0.0
 11
4262.0444749370317368
 21
138.4974778303439962
 31
0.0
  0
ARC
  5
1159B
  8
0
 10
4259.4585536692848109
 20
108.9356223822707932
 30
0.0
 40
5.460631429568962
 50
354.3604139314152803
 51
5.697138430925123
  0
ARC
  5
1159C
  8
0
 10
4266.9271336504589271
 20
108.9393733955306942
 30
0.0
 40
2.1049226271039578
 50
165.1821890512090931
 51
194.8753633111253976
  0
ARC
  5
1159D
  8
0
 10
4265.2145511677290415
 20
139.9941668421064946
 30
0.0
 40
15.4740693123127304
 50
263.2475274780683208
 51
265.6351852661617841
  0
LINE
  5
1159E
  8
0
 10
4262.7975943416377049
 20
124.4680011544940044
 30
0.0
 11
4276.8060583865517401
 21
124.4680011544940044
 31
0.0
  0
ARC
  5
1159F
  8
0
 10
4264.0786815324181589
 20
124.8749920265488953
 30
0.0
 40
0.3128214882858247
 50
262.3189732377250039
 51
298.9707684713429217
  0
ARC
  5
115A0
  8
0
 10
4264.8752124349439327
 20
123.9371878494171995
 30
0.0
 40
0.9257994873197247
 50
127.3661990763539933
 51
134.1634564426593101
  0
ARC
  5
115A1
  8
0
 10
4263.6836246069351546
 20
128.2937543172483004
 30
0.0
 40
3.8275720904232262
 50
271.7664479438749936
 51
278.3934723923571255
  0
ARC
  5
115A2
  8
0
 10
4251.6054644561299938
 20
210.1514256729417127
 30
0.0
 40
86.5715163546723829
 50
278.3934723923571255
 51
278.7768992994332962
  0
ARC
  5
115A3
  8
0
 10
4266.3621848318789489
 20
115.3885049799588955
 30
0.0
 40
9.3342458334181053
 50
95.9189297570463566
 51
99.5398582034467978
  0
ARC
  5
115A4
  8
0
 10
4262.7975943416386144
 20
124.3868011544939947
 30
0.0
 40
0.0812
 50
90.0
 51
178.9339565621475003
  0
LINE
  5
115A5
  8
0
 10
4274.7606045526563321
 20
107.7573066791439942
 30
0.0
 11
4269.8018263640951773
 21
107.7573066791439942
 31
0.0
  0
ARC
  5
115A6
  8
0
 10
4277.4396727830935561
 20
138.5551588120212045
 30
0.0
 40
0.1197031374077525
 50
24.3487210926552997
 51
86.5287058358130849
  0
ARC
  5
115A7
  8
0
 10
4277.4420704865306107
 20
138.5561552400839105
 30
0.0
 40
0.1171079137473185
 50
0.1847975751871024
 51
24.3882277925445408
  0
ARC
  5
115A8
  8
0
 10
4277.4402068042782048
 20
138.4980378575164934
 30
0.0
 40
0.1189723049695504
 50
274.0835692319266741
 51
359.7302959550140145
  0
ARC
  5
115A9
  8
0
 10
4277.1811155091072578
 20
138.2999869068140981
 30
0.0
 40
0.0799243605453465
 50
5.3646323542820351
 51
83.3132737073843259
  0
ARC
  5
115AA
  8
0
 10
4273.1512150484741142
 20
137.9215588225968077
 30
0.0
 40
4.1275539801551204
 50
4.5759230528682844
 51
5.3646323542820351
  0
ARC
  5
115AB
  8
0
 10
4277.3825330950694479
 20
138.2602130461478964
 30
0.0
 40
0.1172945559620964
 50
184.5759230528674095
 51
267.1638429134080752
  0
ARC
  5
115AC
  8
0
 10
4277.4215959688699513
 20
138.0648374008115979
 30
0.0
 40
0.0782721417038803
 50
357.2303844195492957
 51
88.1968858487571623
  0
ARC
  5
115AD
  8
0
 10
-94984.2350544465880375
 20
4197.7477543383256489
 30
0.0
 40
99344.7183184872701531
 50
357.6506385048393781
 51
357.657976139546804
  0
ARC
  5
115AE
  8
0
 10
4276.9185003919701558
 20
125.3510797367554943
 30
0.0
 40
0.0605890498391395
 50
284.4616814953096764
 51
358.0771051331495869
  0
ARC
  5
115AF
  8
0
 10
4276.7407024546228058
 20
125.1672427125223948
 30
0.0
 40
0.1261003972457204
 50
32.6373630305197722
 51
83.0272023687468135
  0
ARC
  5
115B0
  8
0
 10
4276.7564021865136965
 20
125.1772957994103024
 30
0.0
 40
0.1074578079701716
 50
359.4184016380764888
 51
32.6381450695764883
  0
ARC
  5
115B1
  8
0
 10
4246.0048606491745886
 20
123.7891115788206946
 30
0.0
 40
30.8901525922289686
 50
2.4709043413255252
 51
2.573678886043123
  0
ARC
  5
115B2
  8
0
 10
4276.8032303568779753
 20
125.0712502366570931
 30
0.0
 40
0.0802306785626102
 50
38.1852994983745688
 51
90.0432188598350649
  0
ARC
  5
115B3
  8
0
 10
4276.8039158334531749
 20
125.0723546014657046
 30
0.0
 40
0.0790104066769812
 50
1.2775051440213789
 51
37.8631191836033523
  0
ARC
  5
115B4
  8
0
 10
4248.0323616950508949
 20
124.430738397208998
 30
0.0
 40
28.8577177941289094
 50
0.6459075298357242
 51
1.2775051440213789
  0
ARC
  5
115B5
  8
0
 10
4276.8136611967584031
 20
124.7552098639124978
 30
0.0
 40
0.0745893550649374
 50
275.9715683609385906
 51
0.6459075298357242
  0
ARC
  5
115B6
  8
0
 10
4275.4887137679461375
 20
792.5384813200356575
 30
0.0
 40
667.8587857678841146
 50
270.0947354118177941
 51
270.114333385336522
  0
ARC
  5
115B7
  8
0
 10
4276.0557295730368423
 20
127.1485649302344996
 30
0.0
 40
2.525756934955905
 50
273.4687096085814915
 51
282.2811570594446948
  0
LINE
  5
115B8
  8
0
 10
4273.542015595520752
 20
124.673824668866601
 30
0.0
 11
4273.5420033851587505
 21
124.4898620538440071
 31
0.0
  0
LINE
  5
115B9
  8
0
 10
4273.5588250637692909
 20
124.6738725887483952
 30
0.0
 11
4273.5607079118799447
 21
124.4898620538440071
 31
0.0
  0
LINE
  5
115BA
  8
0
 10
4273.5420155833671743
 20
124.5599463207440039
 30
0.0
 11
4273.5599907897349112
 21
124.5599463207440039
 31
0.0
  0
ARC
  5
115BB
  8
0
 10
4283.0619107183365486
 20
124.6757002792001998
 30
0.0
 40
6.1812857802962977
 50
179.5641379944138123
 51
182.6430686949790072
  0
LINE
  5
115BC
  8
0
 10
4274.0763489107939677
 20
124.6729880964939952
 30
0.0
 11
4274.0744375918811784
 21
124.4920404381111041
 31
0.0
  0
LINE
  5
115BD
  8
0
 10
4274.0963565616048072
 20
124.6729880964939952
 30
0.0
 11
4274.0942085345668602
 21
124.4941734948440057
 31
0.0
  0
ARC
  5
115BE
  8
0
 10
4274.0422678276054285
 20
124.8829098442708982
 30
0.0
 40
0.3921910075528266
 50
274.7050158465365826
 51
277.6104557077042045
  0
ARC
  5
115BF
  8
0
 10
4274.0023564719740534
 20
125.6829192501244989
 30
0.0
 40
1.193058268798969
 50
270.0768261789235112
 51
273.4637542318300234
  0
LINE
  5
115C0
  8
0
 10
4274.0950777723674037
 20
124.5599463207440039
 30
0.0
 11
4274.0751548700100102
 21
124.5599463207440039
 31
0.0
  0
ARC
  5
115C1
  8
0
 10
4270.4958836284304198
 20
-552.3048759977350528
 30
0.0
 40
676.2032652115567544
 50
89.652175659350533
 51
90.0588085875912014
  0
ARC
  5
115C2
  8
0
 10
4271.5135973392652886
 20
-398.1500521688311096
 30
0.0
 40
522.0451101640794604
 50
89.4580544575549794
 51
89.6611617703931643
  0
ARC
  5
115C3
  8
0
 10
4276.5004283922244213
 20
129.0539360734703962
 30
0.0
 40
5.1824628084834474
 50
269.4580544575550221
 51
271.0949194634574155
  0
ARC
  5
115C4
  8
0
 10
4188.0148486142061302
 20
122.7345640876993969
 30
0.0
 40
88.8877809507470715
 50
0.4224002936658556
 51
1.0660434378460231
  0
ARC
  5
115C5
  8
0
 10
4323.2882197454800917
 20
126.5997368398704026
 30
0.0
 40
46.4989286086512408
 50
183.9583402621877894
 51
184.5206562190190027
  0
ARC
  5
115C6
  8
0
 10
4274.2972590362951451
 20
122.6720099778788011
 30
0.0
 40
2.6497505367652039
 50
335.9732711775940857
 51
5.6908423187495281
  0
ARC
  5
115C7
  8
0
 10
4276.4023111986252843
 20
123.687151139027506
 30
0.0
 40
0.500893976072592
 50
9.3004355345678054
 51
40.0412437069782925
  0
ARC
  5
115C8
  8
0
 10
4274.1052672636378702
 20
129.2825552075838118
 30
0.0
 40
5.909120789939962
 50
293.6932453884746792
 51
295.769843930121624
  0
ARC
  5
115C9
  8
0
 10
4277.3178475651820918
 20
122.6280777456319981
 30
0.0
 40
1.4802460628756999
 50
111.0658723498148959
 51
115.7698439301214961
  0
ARC
  5
115CA
  8
0
 10
4276.6073358165986065
 20
124.4726825902823037
 30
0.0
 40
0.4964668595745097
 50
291.0658723498144127
 51
298.4925563971037832
  0
ARC
  5
115CB
  8
0
 10
4276.802164206093039
 20
124.1158401052548044
 30
0.0
 40
0.0899092015097325
 50
297.8547555722844891
 51
357.1880868600126746
  0
ARC
  5
115CC
  8
0
 10
4339.8854647993975959
 20
76.0245977326889886
 30
0.0
 40
79.6312864791240855
 50
143.0161125411387104
 51
143.0668008842465042
  0
ARC
  5
115CD
  8
0
 10
4276.1892802707734518
 20
124.1378090072490039
 30
0.0
 40
0.2250156406292253
 50
292.5626740888395716
 51
301.72773112069018
  0
ARC
  5
115CE
  8
0
 10
4276.2968924847464223
 20
123.9647771278830959
 30
0.0
 40
0.0212574954607167
 50
300.2837005621215098
 51
357.0812002877444797
  0
ARC
  5
115CF
  8
0
 10
4276.2668097614732687
 20
123.9369403173010937
 30
0.0
 40
0.0578686723741524
 50
27.5374960302808915
 51
66.5336049025384852
  0
ARC
  5
115D0
  8
0
 10
4276.1865869409675724
 20
123.7468637685147996
 30
0.0
 40
0.2641786983283824
 50
66.9896493739049248
 51
85.7401696960993291
  0
ARC
  5
115D1
  8
0
 10
4276.2296588996341598
 20
121.6710226094776033
 30
0.0
 40
2.3394075739180571
 50
90.5743094997540936
 51
96.5736813930024027
  0
ARC
  5
115D2
  8
0
 10
4276.8528968551627258
 20
115.812941647411705
 30
0.0
 40
8.2304842415644117
 50
96.2151834219046265
 51
98.2843338958777508
  0
ARC
  5
115D3
  8
0
 10
4275.7296545198851163
 20
123.5527928800376998
 30
0.0
 40
0.4095700796978686
 50
98.7991205111778612
 51
113.9748111392702015
  0
ARC
  5
115D4
  8
0
 10
4275.6490525544231787
 20
123.8150402008152042
 30
0.0
 40
0.1410894247248605
 50
127.4646309145764036
 51
152.7431068455339869
  0
ARC
  5
115D5
  8
0
 10
4276.2077764724299414
 20
123.5785127997329056
 30
0.0
 40
0.4318027030117195
 50
78.7665268691285405
 51
90.2078517975986642
  0
ARC
  5
115D6
  8
0
 10
4276.2803482473909753
 20
123.9439065507315973
 30
0.0
 40
0.0592718240367266
 50
50.6910440401610103
 51
78.7665268691285405
  0
LINE
  5
115D7
  8
0
 10
4276.3178970560657035
 20
123.9897676027439957
 30
0.0
 11
4276.3181224029221994
 21
123.9636946827365023
 31
0.0
  0
ARC
  5
115D8
  8
0
 10
4273.9748823460686253
 20
122.9045419965053014
 30
0.0
 40
1.6567488007807769
 50
36.1230592377045525
 51
43.0902080386412081
  0
ARC
  5
115D9
  8
0
 10
4273.5207257134288739
 20
130.0932947248554967
 30
0.0
 40
6.2813731187803166
 50
278.8436364861623815
 51
285.3620496642906232
  0
ARC
  5
115DA
  8
0
 10
4276.6104012664127367
 20
123.5516200498986024
 30
0.0
 40
0.321048397988112
 50
38.9374942449900487
 51
91.9538906947526158
  0
ARC
  5
115DB
  8
0
 10
4276.722287253783179
 20
123.6420216135798
 30
0.0
 40
0.1772050217571139
 50
8.0640552031992119
 51
38.9374942449900487
  0
ARC
  5
115DC
  8
0
 10
4274.7714778335111987
 20
107.8720855153644038
 30
0.0
 40
0.115292712174979
 50
264.5883800150413094
 51
2.0991325063495099
  0
ARC
  5
115DD
  8
0
 10
4964.2037780236851177
 20
130.6043521075577871
 30
0.0
 40
689.6916756238616699
 50
181.4422704934605122
 51
181.8884623792436912
  0
ARC
  5
115DE
  8
0
 10
4291.4923471176825842
 20
114.2306401459079979
 30
0.0
 40
16.7906988744485197
 50
173.5271883489859022
 51
183.3652439615499077
  0
ARC
  5
115DF
  8
0
 10
4286.8584635905781397
 20
113.8692447367238003
 30
0.0
 40
12.2588275579855992
 50
156.8875334988312034
 51
169.4037470270519918
  0
ARC
  5
115E0
  8
0
 10
4416.6016807248879559
 20
65.9183821108894676
 30
0.0
 40
150.5565773281153952
 50
158.2971566920136013
 51
158.8809149124020053
  0
ARC
  5
115E1
  8
0
 10
2632.2618565690140713
 20
755.1207614765842209
 30
0.0
 40
1762.2603317857578986
 50
338.8291913180411825
 51
338.8809149124019768
  0
ARC
  5
115E2
  8
0
 10
4277.1300858071454059
 20
121.8486181901219965
 30
0.0
 40
2.260719356678301
 50
104.5988736315528058
 51
111.0773030710285951
  0
LINE
  5
115E3
  8
0
 10
4277.5591777911577083
 20
138.556532950643998
 30
0.0
 11
4277.5591777911577083
 21
138.4974778303439962
 31
0.0
  0
ARC
  5
115E4
  8
0
 10
4280.1450990589046341
 20
108.9356223822707932
 30
0.0
 40
5.460631429568962
 50
174.3028615690749064
 51
185.6395860685846912
  0
ARC
  5
115E5
  8
0
 10
4272.6765190777323369
 20
108.9393733955306942
 30
0.0
 40
2.1049226271039578
 50
345.1246366888738066
 51
14.8178109487908891
  0
ARC
  5
115E6
  8
0
 10
4274.3891015604613131
 20
139.9941668421064946
 30
0.0
 40
15.4740693123127304
 50
274.3648147338382159
 51
276.7524725219316224
  0
ARC
  5
115E7
  8
0
 10
4275.5249711957721956
 20
124.8749920265488953
 30
0.0
 40
0.3128214882858247
 50
241.029231528657192
 51
277.6810267622749961
  0
ARC
  5
115E8
  8
0
 10
4274.7284402932473313
 20
123.9371878494171995
 30
0.0
 40
0.9257994873197247
 50
45.8365435573406401
 51
52.6338009236459996
  0
ARC
  5
115E9
  8
0
 10
4275.9200281212542905
 20
128.2937543172483004
 30
0.0
 40
3.8275720904232262
 50
261.6065276076428745
 51
268.2335520561248927
  0
ARC
  5
115EA
  8
0
 10
4287.9981882720594513
 20
210.1514256729417127
 30
0.0
 40
86.5715163546723829
 50
261.2231007005667038
 51
261.6065276076428745
  0
ARC
  5
115EB
  8
0
 10
4273.2414678963123151
 20
115.3885049799588955
 30
0.0
 40
9.3342458334181053
 50
80.4601417965532164
 51
84.0810702429536434
  0
ARC
  5
115EC
  8
0
 10
4276.8060583865517401
 20
124.3868011544939947
 30
0.0
 40
0.0812
 50
1.066043437852535
 51
90.0
  0
LINE
  5
115EE
  8
0
 10
4276.5566960736387045
 20
124.6729880964939952
 30
0.0
 11
4263.0469566545507405
 21
124.6729880964939952
 31
0.0
  0
ENDSEC
  0
EOF
