  0
SECTION
  2
HEADER
  9
$ACADVER
  1
AC1009
  9
$INSBASE
 10
6350.1958059085163768
 20
67.4945970408461449
 30
0.0
  9
$EXTMIN
 10
6342.133698561698111
 20
41.6292970824438271
 30
-0.0000000000112498
  9
$EXTMAX
 10
6358.1423201189363681
 20
67.5021244263758717
 30
0.0000000000002956
  9
$LIMMIN
 10
0.0
 20
0.0
  9
$LIMMAX
 10
11.6929133858000007
 20
8.2677165353999982
  9
$ORTHOMODE
 70
     0
  9
$REGENMODE
 70
     1
  9
$FILLMODE
 70
     1
  9
$QTEXTMODE
 70
     0
  9
$MIRRTEXT
 70
     0
  9
$DRAGMODE
 70
     2
  9
$LTSCALE
 40
0.6431102362
  9
$OSMODE
 70
  4095
  9
$ATTMODE
 70
     1
  9
$TEXTSIZE
 40
0.2
  9
$TRACEWID
 40
0.05
  9
$TEXTSTYLE
  7
STANDARD
  9
$CLAYER
  8
0
  9
$CELTYPE
  6
BYLAYER
  9
$CECOLOR
 62
   256
  9
$DIMSCALE
 40
1.0
  9
$DIMASZ
 40
0.1875
  9
$DIMEXO
 40
0.0625
  9
$DIMDLI
 40
0.4443307087
  9
$DIMRND
 40
0.0
  9
$DIMDLE
 40
0.0
  9
$DIMEXE
 40
0.125
  9
$DIMTP
 40
0.01
  9
$DIMTM
 40
0.01
  9
$DIMTXT
 40
2.0
  9
$DIMCEN
 40
0.1052362205
  9
$DIMTSZ
 40
0.0
  9
$DIMTOL
 70
     1
  9
$DIMLIM
 70
     0
  9
$DIMTIH
 70
     1
  9
$DIMTOH
 70
     1
  9
$DIMSE1
 70
     0
  9
$DIMSE2
 70
     0
  9
$DIMTAD
 70
     0
  9
$DIMZIN
 70
     0
  9
$DIMBLK
  1

  9
$DIMASO
 70
     1
  9
$DIMSHO
 70
     1
  9
$DIMPOST
  1
\X
  9
$DIMAPOST
  1

  9
$DIMALT
 70
     1
  9
$DIMALTD
 70
     2
  9
$DIMALTF
 40
25.3999999999999986
  9
$DIMLFAC
 40
1.0
  9
$DIMTOFL
 70
     0
  9
$DIMTVP
 40
0.0
  9
$DIMTIX
 70
     0
  9
$DIMSOXD
 70
     0
  9
$DIMSAH
 70
     0
  9
$DIMBLK1
  1

  9
$DIMBLK2
  1

  9
$DIMSTYLE
  2
STANDARD
  9
$DIMCLRD
 70
     0
  9
$DIMCLRE
 70
     0
  9
$DIMCLRT
 70
     0
  9
$DIMTFAC
 40
1.0
  9
$DIMGAP
 40
0.09
  9
$LUNITS
 70
     2
  9
$LUPREC
 70
     4
  9
$SKETCHINC
 40
0.1
  9
$FILLETRAD
 40
0.0
  9
$AUNITS
 70
     0
  9
$AUPREC
 70
     0
  9
$MENU
  1
.
  9
$ELEVATION
 40
0.0
  9
$PELEVATION
 40
0.0
  9
$THICKNESS
 40
0.0
  9
$LIMCHECK
 70
     0
  9
$BLIPMODE
 70
     0
  9
$CHAMFERA
 40
0.0
  9
$CHAMFERB
 40
0.0
  9
$SKPOLY
 70
     0
  9
$TDCREATE
 40
2458060.468368056230247
  9
$TDUPDATE
 40
2460147.4891319437883794
  9
$TDINDWG
 40
0.6302153935
  9
$TDUSRTIMER
 40
0.6302153935
  9
$USRTIMER
 70
     1
  9
$ANGBASE
 50
0.0
  9
$ANGDIR
 70
     0
  9
$PDMODE
 70
     0
  9
$PDSIZE
 40
0.3125
  9
$PLINEWID
 40
0.0
  9
$COORDS
 70
     1
  9
$SPLFRAME
 70
     0
  9
$SPLINETYPE
 70
     6
  9
$SPLINESEGS
 70
     8
  9
$ATTDIA
 70
     1
  9
$ATTREQ
 70
     1
  9
$HANDLING
 70
     1
  9
$HANDSEED
  5
266E6
  9
$SURFTAB1
 70
     6
  9
$SURFTAB2
 70
     6
  9
$SURFTYPE
 70
     6
  9
$SURFU
 70
     6
  9
$SURFV
 70
     6
  9
$UCSNAME
  2

  9
$UCSORG
 10
0.0
 20
0.0
 30
0.0
  9
$UCSXDIR
 10
1.0
 20
0.0
 30
0.0
  9
$UCSYDIR
 10
0.0
 20
1.0
 30
0.0
  9
$PUCSNAME
  2

  9
$PUCSORG
 10
0.0
 20
0.0
 30
0.0
  9
$PUCSXDIR
 10
1.0
 20
0.0
 30
0.0
  9
$PUCSYDIR
 10
0.0
 20
1.0
 30
0.0
  9
$USERI1
 70
     0
  9
$USERI2
 70
     0
  9
$USERI3
 70
     0
  9
$USERI4
 70
     0
  9
$USERI5
 70
     0
  9
$USERR1
 40
0.0
  9
$USERR2
 40
0.0
  9
$USERR3
 40
0.0
  9
$USERR4
 40
0.0
  9
$USERR5
 40
0.0
  9
$WORLDVIEW
 70
     1
  9
$SHADEDGE
 70
     3
  9
$SHADEDIF
 70
    70
  9
$TILEMODE
 70
     1
  9
$MAXACTVP
 70
    64
  9
$PLIMCHECK
 70
     0
  9
$PEXTMIN
 10
1.0000000000000000E+20
 20
1.0000000000000000E+20
 30
1.0000000000000000E+20
  9
$PEXTMAX
 10
-1.0000000000000000E+20
 20
-1.0000000000000000E+20
 30
-1.0000000000000000E+20
  9
$PLIMMIN
 10
0.0
 20
0.0
  9
$PLIMMAX
 10
12.0
 20
9.0
  9
$UNITMODE
 70
     0
  9
$VISRETAIN
 70
     1
  9
$PLINEGEN
 70
     0
  9
$PSLTSCALE
 70
     1
  0
ENDSEC
  0
SECTION
  2
TABLES
  0
TABLE
  2
VPORT
 70
     1
  0
VPORT
  2
*ACTIVE
 70
     0
 10
0.0
 20
0.0
 11
1.0
 21
1.0
 12
2557.7800991840667848
 22
-65.6149456786956193
 13
0.0
 23
0.0
 14
1.0
 24
1.0
 15
0.0
 25
0.0
 16
0.0
 26
0.0
 36
5.1040778033513332
 17
3792.35791015625
 27
120.1806564331053977
 37
0.0
 40
26.1048706384964611
 41
2.8368263473053892
 42
50.0
 43
0.0
 44
0.0
 50
0.0
 51
0.0
 71
     0
 72
   100
 73
     1
 74
     1
 75
     0
 76
     0
 77
     0
 78
     0
  0
ENDTAB
  0
TABLE
  2
LTYPE
 70
     2
  0
LTYPE
  2
CONTINUOUS
 70
     0
  3
Solid line
 72
    65
 73
     0
 40
0.0
  0
LTYPE
  2
PHANTOM2
 70
     0
  3
___ _ _ ___ _ _ ___ _ _ ___ _ _
 72
    65
 73
     6
 40
1.25
 49
0.625
 49
-0.125
 49
0.125
 49
-0.125
 49
0.125
 49
-0.125
  0
ENDTAB
  0
TABLE
  2
LAYER
 70
     2
  0
LAYER
  2
0
 70
     0
 62
   255
  6
CONTINUOUS
  0
LAYER
  2
DEFPOINTS
 70
     0
 62
     7
  6
CONTINUOUS
  0
ENDTAB
  0
TABLE
  2
STYLE
 70
     1
  0
STYLE
  2
STANDARD
 70
     0
 40
0.0
 41
0.8
 50
0.0
 71
     0
 42
0.2
  3
txt
  4

  0
ENDTAB
  0
TABLE
  2
VIEW
 70
     0
  0
ENDTAB
  0
TABLE
  2
UCS
 70
     0
  0
ENDTAB
  0
TABLE
  2
APPID
 70
     9
  0
APPID
  2
ACAD
 70
     0
  0
APPID
  2
ACAD_MLEADERVER
 70
     0
  0
APPID
  2
ACAD_EXEMPT_FROM_CAD_STANDARDS
 70
     0
  0
APPID
  2
ACAD_NAV_VCDISPLAY
 70
     0
  0
APPID
  2
ACAECLAYERSTANDARD
 70
     0
  0
APPID
  2
ACCMTRANSPARENCY
 70
     0
  0
APPID
  2
ACAD_DSTYLE_DIMJAG
 70
     0
  0
APPID
  2
ACAD_DSTYLE_DIMTALN
 70
     0
  0
APPID
  2
ACDBATTR
 70
     0
  0
ENDTAB
  0
TABLE
  2
DIMSTYLE
 70
     1
  0
DIMSTYLE
  2
STANDARD
 70
     0
  3

  4

  5

  6

  7

 40
1.0
 41
0.1875
 42
0.0625
 43
0.38
 44
0.125
 45
0.0
 46
0.0
 47
0.01
 48
0.01
140
0.15625
141
0.09
142
0.0
143
25.3999999999999986
144
1.0
145
0.0
146
1.0
147
0.09
 71
     1
 72
     0
 73
     1
 74
     1
 75
     0
 76
     0
 77
     0
 78
     4
170
     0
171
     2
172
     0
173
     0
174
     0
175
     0
176
     0
177
     0
178
     0
  0
ENDTAB
  0
ENDSEC
  0
SECTION
  2
BLOCKS
  0
BLOCK
  8
0
  2
$MODEL_SPACE
 70
     0
 10
0.0
 20
0.0
 30
0.0
  3
$MODEL_SPACE
  1

  0
ENDBLK
  5
21
  8
0
  0
BLOCK
 67
     1
  8
0
  2
$PAPER_SPACE
 70
     0
 10
0.0
 20
0.0
 30
0.0
  3
$PAPER_SPACE
  1

  0
ENDBLK
  5
1D
 67
     1
  8
0
  0
BLOCK
  8
0
  2
_FILLED
 70
     0
 10
0.0
 20
0.0
 30
0.0
  3
_FILLED
  1

  0
SOLID
  5
21F57
  8
0
  6
BYBLOCK
 62
     0
 10
0.0
 20
0.0
 30
0.0
 11
-1.0
 21
0.1666666667
 31
0.0
 12
-1.0
 22
-0.1666666667
 32
0.0
 13
-1.0
 23
-0.1666666667
 33
0.0
  0
ENDBLK
  5
21F58
  8
0
  6
BYBLOCK
 62
     0
  0
ENDSEC
  0
SECTION
  2
ENTITIES
  0
ATTDEF
  5
3930
  8
DEFPOINTS
 10
6350.185501447698698
 20
67.4980386963700312
 30
0.0
 40
0.001
  1
K-78476H-TF
  3

  2
MODELNUMBER
 70
     0
1001
ACDBATTR
1070
     0
1070
     1
  0
ATTDEF
  5
3931
  8
DEFPOINTS
 10
6350.185501447698698
 20
67.496372029703366
 30
0.0
 40
0.001
  1
MODERNLIFE
  3

  2
TRADENAME
 70
     0
1001
ACDBATTR
1070
     0
1070
     1
  0
ATTDEF
  5
3932
  8
DEFPOINTS
 10
6350.185501447698698
 20
67.4947053630367009
 30
0.0
 40
0.001
  1
TOILET
  3

  2
PRODUCT
 70
     0
1001
ACDBATTR
1070
     0
1070
     1
  0
LINE
  5
26215
  8
0
 10
6342.7236088368481433
 20
67.4405970408461428
 30
0.0
 11
6357.6680029801846104
 21
67.4405970408461428
 31
0.0
  0
ARC
  5
26216
  8
0
 10
6342.7342643264046274
 20
67.1449791711014541
 30
0.0
 40
0.2958098449512192
 50
92.0643217115649577
 51
183.0362860500449926
  0
ARC
  5
26217
  8
0
 10
6211.347205922212197
 20
63.7954003955557027
 30
0.0
 40
131.1340508045074102
 50
0.2396758721467212
 51
1.456826558541126
  0
ARC
  5
26218
  8
0
 10
6346.8379673057661421
 20
64.2420288471867735
 30
0.0
 40
4.3590496063609381
 50
178.6602163806431918
 51
194.8007752441405955
  0
ARC
  5
26219
  8
0
 10
6345.235584106882925
 20
63.8186377493050472
 30
0.0
 40
2.701674592120034
 50
194.8007752441405955
 51
212.9495873370366894
  0
ARC
  5
2621A
  8
0
 10
6344.4822772856387019
 20
63.4395738958383504
 30
0.0
 40
1.8656161300173659
 50
215.7649036674696106
 51
240.6152121055029056
  0
ARC
  5
2621B
  8
0
 10
6345.400341884923364
 20
65.4802150937064482
 30
0.0
 40
4.0991332937151252
 50
243.4305284359705013
 51
262.165258290473389
  0
ARC
  5
2621C
  8
0
 10
6347.779594322819321
 20
82.7711999716300681
 30
0.0
 40
21.5530440363485809
 50
262.165258290473389
 51
268.6732104015118807
  0
ARC
  5
2621D
  8
0
 10
6350.2418642371649184
 20
189.0822741003838985
 30
0.0
 40
127.8926286487614021
 50
268.673210177013118
 51
269.9793659108387942
  0
ARC
  5
2621E
  8
0
 10
6350.5837630806299785
 20
55.5816312009044324
 30
0.0
 40
13.9530826621799093
 50
261.396583066489427
 51
268.4067195621997257
  0
ARC
  5
2621F
  8
0
 10
6349.351754446144696
 20
48.5417747809238094
 30
0.0
 40
6.8101407239146274
 50
238.2366996429587118
 51
262.7851071130392029
  0
ARC
  5
26220
  8
0
 10
6348.7506407299151761
 20
47.0660485016755104
 30
0.0
 40
5.2457368424561004
 50
206.3310736864256114
 51
235.3327975049537883
  0
ARC
  5
26221
  8
0
 10
6357.6161727732287545
 20
50.6178701648890126
 30
0.0
 40
14.78585740773776
 50
195.947416577224601
 51
203.4271715483992011
  0
ARC
  5
26222
  8
0
 10
6364.1473734877436073
 20
50.6872605188859495
 30
0.0
 40
21.1554363445800284
 50
184.2686711205745951
 51
191.2628635910373873
  0
ARC
  5
26223
  8
0
 10
6114.2085073138523512
 20
61.47762761073934
 30
0.0
 40
228.8951595217741897
 50
358.7664794091788281
 51
0.1767670746347557
  0
ARC
  5
26224
  8
0
 10
6349.8649777279460977
 20
55.4332186216525429
 30
0.0
 40
6.9052816847396876
 50
164.1392011928460875
 51
170.6917025990827881
  0
ARC
  5
26225
  8
0
 10
6345.3921553014033634
 20
56.6238836282903719
 30
0.0
 40
2.278640610086704
 50
148.3395747496547017
 51
162.2003533473474874
  0
ARC
  5
26226
  8
0
 10
6345.5810230540519115
 20
56.5074166633861807
 30
0.0
 40
2.5005315335253071
 50
127.1216313425625941
 51
148.3395747496547017
  0
ARC
  5
26227
  8
0
 10
6345.4330179172902717
 20
56.7029610411910596
 30
0.0
 40
2.2552905822173241
 50
101.8255916932408951
 51
127.1216313425625941
  0
ARC
  5
26228
  8
0
 10
6345.470397889736887
 20
56.5245308913066822
 30
0.0
 40
2.43759412125257
 50
90.0217652946614209
 51
101.8260699569568999
  0
LINE
  5
26229
  8
0
 10
6345.4694719061199066
 20
58.9621248366797488
 30
0.0
 11
6354.9221399108828336
 21
58.9621248366797488
 31
0.0
  0
LINE
  5
2622A
  8
0
 10
6346.4556166892389228
 20
58.9621248366797204
 30
0.0
 11
6346.4556166893453337
 21
58.9929178264797187
 31
0.0
  0
ARC
  5
2622B
  8
0
 10
6346.4949867672848995
 20
58.9929178266397898
 30
0.0
 40
0.0393700779399198
 50
89.9999988938565991
 51
180.0000002329636004
  0
LINE
  5
2622C
  8
0
 10
6346.4949867680452371
 20
59.0322879045797322
 30
0.0
 11
6353.8967311243541189
 21
59.0322877616813102
 31
0.0
  0
LINE
  5
2622D
  8
0
 10
6347.5026569070669211
 20
59.0671283314541924
 30
0.0
 11
6352.888954909964923
 21
59.0671283314541924
 31
0.0
  0
ARC
  5
2622E
  8
0
 10
6347.5330314698821894
 20
57.9001881824509113
 30
0.0
 40
1.1673353954292269
 50
91.4910288048159401
 51
104.1133365356439953
  0
LINE
  5
2622F
  8
0
 10
6345.9216792153365532
 20
58.9621248366797204
 30
0.0
 11
6345.9241206262458945
 21
59.0322879052797305
 31
0.0
  0
LINE
  5
26230
  8
0
 10
6345.9241206262458945
 20
59.0322879052797305
 30
0.0
 11
6346.4359316499449051
 21
59.0322879052797305
 31
0.0
  0
LINE
  5
26231
  8
0
 10
6346.4359316499449051
 20
59.0322879052797305
 30
0.0
 11
6346.4415947996167233
 21
58.9621248366797488
 31
0.0
  0
ARC
  5
26232
  8
0
 10
6345.8265143997095947
 20
58.9357599810212491
 30
0.0
 40
0.076860567536365
 50
20.0610900825850891
 51
90.598721850180354
  0
LINE
  5
26233
  8
0
 10
6345.8257112469445929
 20
59.0126163521797409
 30
0.0
 11
6345.3548251873962727
 21
59.0101673256297374
 31
0.0
  0
ARC
  5
26234
  8
0
 10
6345.5780203713402443
 20
56.0593625522862382
 30
0.0
 40
2.9592338367426891
 50
94.3255445473270271
 51
105.6548734913282033
  0
ARC
  5
26235
  8
0
 10
6345.5023790457789801
 20
56.6030398779483619
 30
0.0
 40
2.4164426438149942
 50
107.4067026642360929
 51
138.3478666302025033
  0
ARC
  5
26236
  8
0
 10
6345.5085880655742585
 20
56.5479615302995526
 30
0.0
 40
2.4579663184799712
 50
137.484710910013689
 51
179.9495602908658896
  0
LINE
  5
26237
  8
0
 10
6343.0506226995530596
 20
56.5501253736262015
 30
0.0
 11
6343.0506226995530596
 21
49.1125881369420725
 31
0.0
  0
ARC
  5
26238
  8
0
 10
6357.6573474906281263
 20
67.1449791711014541
 30
0.0
 40
0.2958098449512192
 50
356.9637139499548084
 51
87.9356782883829737
  0
ARC
  5
26239
  8
0
 10
6489.0444058948223756
 20
63.7954003955557027
 30
0.0
 40
131.1340508045074102
 50
178.543173441458805
 51
179.7603241278548865
  0
ARC
  5
2623A
  8
0
 10
6353.5536445112666115
 20
64.2420288471867735
 30
0.0
 40
4.3590496063609381
 50
345.1992247558591771
 51
1.3397836193567469
  0
ARC
  5
2623B
  8
0
 10
6355.1560277101498286
 20
63.8186377493050472
 30
0.0
 40
2.701674592120034
 50
327.0504126629631969
 51
345.1992247558591771
  0
ARC
  5
2623C
  8
0
 10
6355.9093345313931422
 20
63.4395738958383504
 30
0.0
 40
1.8656161300173659
 50
299.3847878944969807
 51
324.2350963325303042
  0
ARC
  5
2623D
  8
0
 10
6354.9912699321102991
 20
65.4802150937064482
 30
0.0
 40
4.0991332937151252
 50
277.8347417094748835
 51
296.5694715640294135
  0
ARC
  5
2623E
  8
0
 10
6352.6120174942134327
 20
82.7711999716300681
 30
0.0
 40
21.5530440363485809
 50
271.3267895984881193
 51
277.8347417094748835
  0
ARC
  5
2623F
  8
0
 10
6350.1497475798450978
 20
189.0822741023609979
 30
0.0
 40
127.892628650738402
 50
270.0206340891610921
 51
271.3267898229349271
  0
ARC
  5
26240
  8
0
 10
6349.9528643975036175
 20
53.9562335080120832
 30
0.0
 40
12.3246851049015191
 50
271.1294750903658155
 51
279.0672222809753862
  0
ARC
  5
26241
  8
0
 10
6351.0398573708889671
 20
48.5417747809238094
 30
0.0
 40
6.8101407239146274
 50
277.2148928869607971
 51
301.7633003569969787
  0
ARC
  5
26242
  8
0
 10
6351.6409710871175776
 20
47.0660485016755104
 30
0.0
 40
5.2457368424561004
 50
304.6672024950461264
 51
333.6689263135743886
  0
ARC
  5
26243
  8
0
 10
6342.7754390438039991
 20
50.6178701648890126
 30
0.0
 40
14.78585740773776
 50
336.5728284516006283
 51
344.0525834227751147
  0
ARC
  5
26244
  8
0
 10
6336.2442383292891463
 20
50.6872605188859495
 30
0.0
 40
21.1554363445800284
 50
348.7371364089602821
 51
355.7313288794254049
  0
ARC
  5
26245
  8
0
 10
6586.1831045031813119
 20
61.47762761073934
 30
0.0
 40
228.8951595217741897
 50
179.823232925365204
 51
181.2335205908206888
  0
ARC
  5
26246
  8
0
 10
6350.5266340890875654
 20
55.4332186216525429
 30
0.0
 40
6.9052816847396876
 50
9.3082974009171746
 51
15.8607988071537296
  0
ARC
  5
26247
  8
0
 10
6354.9994565156302997
 20
56.6238836282903719
 30
0.0
 40
2.278640610086704
 50
17.7996466526524806
 51
31.6604252503452592
  0
ARC
  5
26248
  8
0
 10
6354.8105887629808421
 20
56.5074166633861807
 30
0.0
 40
2.5005315335253071
 50
31.6604252503452592
 51
52.8783686574374201
  0
ARC
  5
26249
  8
0
 10
6354.9585938997415724
 20
56.7029610411910596
 30
0.0
 40
2.2552905822173241
 50
52.8783686574374201
 51
78.1744083067591191
  0
ARC
  5
2624A
  8
0
 10
6354.9212139272958666
 20
56.5245308913066822
 30
0.0
 40
2.43759412125257
 50
78.1739300430430433
 51
89.9782347053385934
  0
LINE
  5
2624B
  8
0
 10
6353.9359951277938308
 20
58.9621248366797204
 30
0.0
 11
6353.9359951276883294
 21
58.9929178264797187
 31
0.0
  0
ARC
  5
2624C
  8
0
 10
6353.8966250497478541
 20
58.9929178266397898
 30
0.0
 40
0.0393700779399167
 50
359.9999997670461767
 51
89.8456280773789757
  0
ARC
  5
2624D
  8
0
 10
6352.8585803471523832
 20
57.9001881824509113
 30
0.0
 40
1.1673353954292269
 50
75.8866634643054567
 51
88.5089711952361569
  0
LINE
  5
2624E
  8
0
 10
6354.4699326016952909
 20
58.9621248366797204
 30
0.0
 11
6354.4674911907877686
 21
59.0322879052797305
 31
0.0
  0
LINE
  5
2624F
  8
0
 10
6354.4674911907877686
 20
59.0322879052797305
 30
0.0
 11
6353.9556801670878485
 21
59.0322879052797305
 31
0.0
  0
LINE
  5
26250
  8
0
 10
6353.9556801670878485
 20
59.0322879052797305
 30
0.0
 11
6353.9500170174169398
 21
58.9621248366797488
 31
0.0
  0
ARC
  5
26251
  8
0
 10
6354.5650974173240684
 20
58.9357599810212491
 30
0.0
 40
0.076860567536365
 50
89.401278149819646
 51
159.9389099174148896
  0
LINE
  5
26252
  8
0
 10
6354.5659005700872513
 20
59.0126163521797409
 30
0.0
 11
6355.0367866296382999
 21
59.0101673256297374
 31
0.0
  0
ARC
  5
26253
  8
0
 10
6354.8135914456934188
 20
56.0593625522862382
 30
0.0
 40
2.9592338367426891
 50
74.3451265086717541
 51
85.6744554526210038
  0
ARC
  5
26254
  8
0
 10
6354.889232771252864
 20
56.6030398779483619
 30
0.0
 40
2.4164426438149942
 50
41.6521333697974825
 51
72.5932973357638645
  0
ARC
  5
26255
  8
0
 10
6354.8830237514594046
 20
56.5479615302995526
 30
0.0
 40
2.4579663184799712
 50
0.050439709134113
 51
42.515289089986247
  0
LINE
  5
26256
  8
0
 10
6357.3409891174806035
 20
56.5501253736262015
 30
0.0
 11
6357.3409891174806035
 21
49.1125881369420725
 31
0.0
  0
LINE
  5
26257
  8
0
 10
6342.2321741778650903
 20
65.4992958270082397
 30
0.0
 11
6342.2321741778650903
 21
66.1272486450871639
 31
0.0
  0
LINE
  5
26258
  8
0
 10
6342.4504117218357351
 20
66.639466052421767
 30
0.0
 11
6342.2321741778650903
 21
66.1272486450871639
 31
0.0
  0
LINE
  5
26259
  8
0
 10
6342.459045009851252
 20
64.9668155430961463
 30
0.0
 11
6342.2321741778650903
 21
65.4992958270082397
 31
0.0
  0
LINE
  5
2625A
  8
0
 10
6342.4760245203788145
 20
64.9668155430961463
 30
0.0
 11
6342.459045009851252
 21
64.9668155430961463
 31
0.0
  0
LINE
  5
2625B
  8
0
 10
6342.459045009851252
 20
64.9668155430961463
 30
0.0
 11
6342.4307547639064069
 21
66.593329920921164
 31
0.0
  0
CIRCLE
  5
2625C
  8
0
 10
6346.2184397986166005
 20
64.3151639728961442
 30
0.0
 40
0.7086614173000001
  0
CIRCLE
  5
2625D
  8
0
 10
6346.2184397986166005
 20
64.3151639728961442
 30
0.0
 40
0.7874015748000005
  0
CIRCLE
  5
2625E
  8
0
 10
6354.5668360802155803
 20
64.3151639728961442
 30
0.0
 40
0.3149606298999998
  0
CIRCLE
  5
2625F
  8
0
 10
6354.5668360802155803
 20
64.3151639728961442
 30
0.0
 40
0.3937007874000002
  0
ENDSEC
  0
EOF
