  0
SECTION
  2
HEADER
  9
$ACADVER
  1
AC1009
  9
$INSBASE
 10
136.1496529705744933
 20
-7.5297403783359806
 30
0.0
  9
$EXTMIN
 10
128.2908628248634102
 20
-23.0281536468890984
 30
-0.0000000000112498
  9
$EXTMAX
 10
136.1631009393163936
 20
7.5811746228579153
 30
0.0000000000002956
  9
$LIMMIN
 10
0.0
 20
0.0
  9
$LIMMAX
 10
11.6929133858000007
 20
8.2677165353999982
  9
$ORTHOMODE
 70
     0
  9
$REGENMODE
 70
     1
  9
$FILLMODE
 70
     1
  9
$QTEXTMODE
 70
     0
  9
$MIRRTEXT
 70
     0
  9
$DRAGMODE
 70
     2
  9
$LTSCALE
 40
0.6431102362
  9
$OSMODE
 70
     7
  9
$ATTMODE
 70
     1
  9
$TEXTSIZE
 40
0.2
  9
$TRACEWID
 40
0.05
  9
$TEXTSTYLE
  7
STANDARD
  9
$CLAYER
  8
0
  9
$CELTYPE
  6
BYLAYER
  9
$CECOLOR
 62
   256
  9
$DIMSCALE
 40
1.0
  9
$DIMASZ
 40
0.1875
  9
$DIMEXO
 40
0.0625
  9
$DIMDLI
 40
0.4443307087
  9
$DIMRND
 40
0.0
  9
$DIMDLE
 40
0.0
  9
$DIMEXE
 40
0.125
  9
$DIMTP
 40
0.01
  9
$DIMTM
 40
0.01
  9
$DIMTXT
 40
1.0
  9
$DIMCEN
 40
0.1052362205
  9
$DIMTSZ
 40
0.0
  9
$DIMTOL
 70
     1
  9
$DIMLIM
 70
     0
  9
$DIMTIH
 70
     1
  9
$DIMTOH
 70
     1
  9
$DIMSE1
 70
     0
  9
$DIMSE2
 70
     0
  9
$DIMTAD
 70
     0
  9
$DIMZIN
 70
     0
  9
$DIMBLK
  1

  9
$DIMASO
 70
     1
  9
$DIMSHO
 70
     1
  9
$DIMPOST
  1
\X
  9
$DIMAPOST
  1

  9
$DIMALT
 70
     1
  9
$DIMALTD
 70
     2
  9
$DIMALTF
 40
25.3999999999999986
  9
$DIMLFAC
 40
1.0
  9
$DIMTOFL
 70
     0
  9
$DIMTVP
 40
0.0
  9
$DIMTIX
 70
     0
  9
$DIMSOXD
 70
     0
  9
$DIMSAH
 70
     0
  9
$DIMBLK1
  1

  9
$DIMBLK2
  1

  9
$DIMSTYLE
  2
STANDARD
  9
$DIMCLRD
 70
     0
  9
$DIMCLRE
 70
     0
  9
$DIMCLRT
 70
     0
  9
$DIMTFAC
 40
1.0
  9
$DIMGAP
 40
0.09
  9
$LUNITS
 70
     2
  9
$LUPREC
 70
     4
  9
$SKETCHINC
 40
0.1
  9
$FILLETRAD
 40
0.0
  9
$AUNITS
 70
     0
  9
$AUPREC
 70
     0
  9
$MENU
  1
.
  9
$ELEVATION
 40
0.0
  9
$PELEVATION
 40
0.0
  9
$THICKNESS
 40
0.0
  9
$LIMCHECK
 70
     0
  9
$BLIPMODE
 70
     0
  9
$CHAMFERA
 40
0.0
  9
$CHAMFERB
 40
0.0
  9
$SKPOLY
 70
     0
  9
$TDCREATE
 40
2458172.4620254631154239
  9
$TDUPDATE
 40
2459499.5639814818277955
  9
$TDINDWG
 40
0.0981077894
  9
$TDUSRTIMER
 40
0.0981077894
  9
$USRTIMER
 70
     1
  9
$ANGBASE
 50
0.0
  9
$ANGDIR
 70
     0
  9
$PDMODE
 70
     0
  9
$PDSIZE
 40
0.3125
  9
$PLINEWID
 40
0.0
  9
$COORDS
 70
     1
  9
$SPLFRAME
 70
     0
  9
$SPLINETYPE
 70
     6
  9
$SPLINESEGS
 70
     8
  9
$ATTDIA
 70
     1
  9
$ATTREQ
 70
     1
  9
$HANDLING
 70
     1
  9
$HANDSEED
  5
47C3
  9
$SURFTAB1
 70
     6
  9
$SURFTAB2
 70
     6
  9
$SURFTYPE
 70
     6
  9
$SURFU
 70
     6
  9
$SURFV
 70
     6
  9
$UCSNAME
  2

  9
$UCSORG
 10
0.0
 20
0.0
 30
0.0
  9
$UCSXDIR
 10
1.0
 20
0.0
 30
0.0
  9
$UCSYDIR
 10
0.0
 20
1.0
 30
0.0
  9
$PUCSNAME
  2

  9
$PUCSORG
 10
0.0
 20
0.0
 30
0.0
  9
$PUCSXDIR
 10
1.0
 20
0.0
 30
0.0
  9
$PUCSYDIR
 10
0.0
 20
1.0
 30
0.0
  9
$USERI1
 70
     0
  9
$USERI2
 70
     0
  9
$USERI3
 70
     0
  9
$USERI4
 70
     0
  9
$USERI5
 70
     0
  9
$USERR1
 40
0.0
  9
$USERR2
 40
0.0
  9
$USERR3
 40
0.0
  9
$USERR4
 40
0.0
  9
$USERR5
 40
0.0
  9
$WORLDVIEW
 70
     1
  9
$SHADEDGE
 70
     3
  9
$SHADEDIF
 70
    70
  9
$TILEMODE
 70
     1
  9
$MAXACTVP
 70
    64
  9
$PLIMCHECK
 70
     0
  9
$PEXTMIN
 10
1.0000000000000000E+20
 20
1.0000000000000000E+20
 30
1.0000000000000000E+20
  9
$PEXTMAX
 10
-1.0000000000000000E+20
 20
-1.0000000000000000E+20
 30
-1.0000000000000000E+20
  9
$PLIMMIN
 10
0.0
 20
0.0
  9
$PLIMMAX
 10
12.0
 20
9.0
  9
$UNITMODE
 70
     0
  9
$VISRETAIN
 70
     1
  9
$PLINEGEN
 70
     0
  9
$PSLTSCALE
 70
     1
  0
ENDSEC
  0
SECTION
  2
TABLES
  0
TABLE
  2
VPORT
 70
     1
  0
VPORT
  2
*ACTIVE
 70
     0
 10
0.0
 20
0.0
 11
1.0
 21
1.0
 12
7.6158232820172698
 22
-13.0357636823934104
 13
0.0
 23
0.0
 14
1.0
 24
1.0
 15
0.0
 25
0.0
 16
0.0
 26
0.0
 36
30.6214257250603907
 17
124.6111586000725993
 27
5.3122741703778242
 37
0.0
 40
31.1305154272301685
 41
2.2118055555555549
 42
50.0
 43
0.0
 44
0.0
 50
0.0
 51
0.0
 71
     0
 72
   100
 73
     1
 74
     1
 75
     0
 76
     0
 77
     0
 78
     0
  0
ENDTAB
  0
TABLE
  2
LTYPE
 70
     2
  0
LTYPE
  2
CONTINUOUS
 70
     0
  3
Solid line
 72
    65
 73
     0
 40
0.0
  0
LTYPE
  2
PHANTOM2
 70
     0
  3
___ _ _ ___ _ _ ___ _ _ ___ _ _
 72
    65
 73
     6
 40
1.25
 49
0.625
 49
-0.125
 49
0.125
 49
-0.125
 49
0.125
 49
-0.125
  0
ENDTAB
  0
TABLE
  2
LAYER
 70
     2
  0
LAYER
  2
0
 70
     0
 62
   255
  6
CONTINUOUS
  0
LAYER
  2
DEFPOINTS
 70
     0
 62
     7
  6
CONTINUOUS
  0
ENDTAB
  0
TABLE
  2
STYLE
 70
     1
  0
STYLE
  2
STANDARD
 70
     0
 40
0.0
 41
0.8
 50
0.0
 71
     0
 42
0.2
  3
txt
  4

  0
ENDTAB
  0
TABLE
  2
VIEW
 70
     0
  0
ENDTAB
  0
TABLE
  2
UCS
 70
     0
  0
ENDTAB
  0
TABLE
  2
APPID
 70
    10
  0
APPID
  2
ACAD
 70
     0
  0
APPID
  2
ACAD_MLEADERVER
 70
     0
  0
APPID
  2
ACAD_EXEMPT_FROM_CAD_STANDARDS
 70
     0
  0
APPID
  2
ACAD_DSTYLE_DIMJAG
 70
     0
  0
APPID
  2
ACAD_DSTYLE_DIMTALN
 70
     0
  0
APPID
  2
ACAD_NAV_VCDISPLAY
 70
     0
  0
APPID
  2
ACAECLAYERSTANDARD
 70
     0
  0
APPID
  2
ACCMTRANSPARENCY
 70
     0
  0
APPID
  2
ACDBATTR
 70
     0
  0
APPID
  2
DCO15
 70
     0
  0
ENDTAB
  0
TABLE
  2
DIMSTYLE
 70
     1
  0
DIMSTYLE
  2
STANDARD
 70
     0
  3

  4

  5

  6

  7

 40
1.0
 41
0.1875
 42
0.0625
 43
0.38
 44
0.125
 45
0.0
 46
0.0
 47
0.01
 48
0.01
140
0.15625
141
0.09
142
0.0
143
25.3999999999999986
144
1.0
145
0.0
146
1.0
147
0.09
 71
     1
 72
     0
 73
     1
 74
     1
 75
     0
 76
     0
 77
     0
 78
     4
170
     0
171
     2
172
     0
173
     0
174
     0
175
     0
176
     0
177
     0
178
     0
  0
ENDTAB
  0
ENDSEC
  0
SECTION
  2
BLOCKS
  0
BLOCK
  8
0
  2
$MODEL_SPACE
 70
     0
 10
0.0
 20
0.0
 30
0.0
  3
$MODEL_SPACE
  1

  0
ENDBLK
  5
21
  8
0
  0
BLOCK
 67
     1
  8
0
  2
$PAPER_SPACE
 70
     0
 10
0.0
 20
0.0
 30
0.0
  3
$PAPER_SPACE
  1

  0
ENDBLK
  5
1D
 67
     1
  8
0
  0
ENDSEC
  0
SECTION
  2
ENTITIES
  0
ATTDEF
  5
1FF6
  8
DEFPOINTS
 10
136.1496243346473136
 20
-7.5263732817702893
 30
0.0
 40
0.001
  1
K-78558A
  3

  2
MODELNUMBER
 70
     0
1001
ACDBATTR
1070
     0
1070
     1
  0
ATTDEF
  5
1FF7
  8
DEFPOINTS
 10
136.1496243346473136
 20
-7.5280399484369536
 30
0.0
 40
0.001
  1
HYDRORAIL
  3

  2
TRADENAME
 70
     0
1001
ACDBATTR
1070
     0
1070
     1
  0
ATTDEF
  5
1FF8
  8
DEFPOINTS
 10
136.1496243346473136
 20
-7.5297066151036187
 30
0.0
 40
0.001
  1
SLIDE BAR
  3

  2
PRODUCT
 70
     0
1001
ACDBATTR
1070
     0
1070
     1
  0
LINE
  5
467A
  8
0
 10
128.3385228250672014
 20
-13.2295429839480807
 30
0.0
 11
132.1967920832240964
 21
-13.2295429839480807
 31
0.0
  0
LINE
  5
467B
  8
0
 10
135.3011203156268039
 20
5.3763619805077978
 30
0.0
 11
135.3011203156268039
 21
7.5346297205209254
 31
0.0
  0
ARC
  5
467C
  8
0
 10
135.2660809455267952
 20
7.5346297087643634
 30
0.0
 40
0.0350393700999965
 50
0.0000192241323132
 51
90.0000000000065086
  0
LINE
  5
467D
  8
0
 10
135.2660809455267952
 20
7.5696690788643606
 30
0.0
 11
135.0861596856267965
 21
7.5696690788643428
 31
0.0
  0
ARC
  5
467E
  8
0
 10
135.0861596856267965
 20
7.5346297088643404
 30
0.0
 40
0.0350393700000034
 50
90.0000000000048743
 51
180.0000001634805074
  0
LINE
  5
467F
  8
0
 10
135.0511203156268039
 20
7.5346297087643634
 30
0.0
 11
135.0511203217849072
 21
5.3763619922659842
 31
0.0
  0
ARC
  5
4680
  8
0
 10
135.0861596919864951
 20
5.3763619923659611
 30
0.0
 40
0.0350393702016021
 50
180.0000001634813032
 51
269.9999896006768267
  0
LINE
  5
4681
  8
0
 10
135.0861596856267965
 20
5.341322622164359
 30
0.0
 11
135.2660809455267952
 21
5.3413225895082164
 31
0.0
  0
ARC
  5
4682
  8
0
 10
135.2660808897792037
 20
5.3763620153557801
 30
0.0
 40
0.0350394258476089
 50
270.0000911573702069
 51
359.9999454793338032
  0
ARC
  5
4683
  8
0
 10
135.0314352763975023
 20
6.8354171104350634
 30
0.0
 40
0.0196850392292944
 50
359.9999997942113055
 51
90.000000496856174
  0
LINE
  5
4684
  8
0
 10
135.0511203175655908
 20
6.8551021498350622
 30
0.0
 11
133.0432462998267908
 21
6.8551021324232231
 31
0.0
  0
LINE
  5
4685
  8
0
 10
133.0432462998267908
 20
6.8551021324232231
 30
0.0
 11
133.0432462998267908
 21
7.481086401664359
 31
0.0
  0
LINE
  5
4686
  8
0
 10
133.0432462998267908
 20
7.481086401664359
 30
0.0
 11
132.0590600923268028
 21
7.481086401664359
 31
0.0
  0
ARC
  5
4687
  8
0
 10
132.0688368510267878
 20
7.4909289213643566
 30
0.0
 40
0.0098425196999988
 50
180.0
 51
270.0
  0
LINE
  5
4688
  8
0
 10
132.0589943313268009
 20
7.4909289213643566
 30
0.0
 11
132.0589943313268009
 21
7.5598265591643603
 31
0.0
  0
ARC
  5
4689
  8
0
 10
132.0786793707268032
 20
7.5598265591643603
 30
0.0
 40
0.0196850393999952
 50
89.9999999999886171
 51
179.9999999999895977
  0
LINE
  5
468A
  8
0
 10
132.0786793707268032
 20
7.5795115985643591
 30
0.0
 11
133.0235612604267885
 21
7.5795115985641877
 31
0.0
  0
ARC
  5
468B
  8
0
 10
133.0235612604267885
 20
7.5598265591641862
 30
0.0
 40
0.0196850394000023
 50
0.0000000005066496
 51
89.9999999999886171
  0
LINE
  5
468C
  8
0
 10
133.0432462998267908
 20
7.5598265591643603
 30
0.0
 11
133.0432462998273877
 21
7.4909289213643566
 31
0.0
  0
ARC
  5
468D
  8
0
 10
133.0333995898787975
 20
7.4909289213642722
 30
0.0
 40
0.0098467099485937
 50
271.6715807408347132
 51
0.0000000004958612
  0
LINE
  5
468E
  8
0
 10
132.0590600923268028
 20
7.481086401664359
 30
0.0
 11
132.059038011504299
 21
-2.6983420236300399
 31
0.0
  0
LINE
  5
468F
  8
0
 10
132.0590350237852988
 20
-4.0757033757364773
 30
0.0
 11
132.059015167630406
 21
-13.2295429839480807
 31
0.0
  0
LINE
  5
4690
  8
0
 10
132.059012409207611
 20
-14.5011970628356295
 30
0.0
 11
132.058994855226814
 21
-22.5937167479356411
 31
0.0
  0
LINE
  5
4691
  8
0
 10
132.058994855226814
 20
-22.5937167479356411
 30
0.0
 11
133.0432457760267937
 21
-22.5937167479356411
 31
0.0
  0
LINE
  5
4692
  8
0
 10
133.0432457760267937
 20
-22.5937167479356411
 30
0.0
 11
133.0432457760267937
 21
-21.9145828897356409
 31
0.0
  0
LINE
  5
4693
  8
0
 10
133.0432457760267937
 20
-21.1153707510017092
 30
0.0
 11
133.0432457760267937
 21
-14.5011970628356295
 31
0.0
  0
LINE
  5
4694
  8
0
 10
133.0432457760267937
 20
-13.3988348581356398
 30
0.0
 11
133.0432457760267937
 21
-4.075719247642076
 31
0.0
  0
LINE
  5
4695
  8
0
 10
133.0432457760267937
 20
-2.698328287629209
 30
0.0
 11
133.0432457760267937
 21
6.05588955126436
 31
0.0
  0
LINE
  5
4696
  8
0
 10
133.0432457760267937
 20
6.05588955126436
 30
0.0
 11
135.0511203198460066
 21
6.0558895512643574
 31
0.0
  0
ARC
  5
4697
  8
0
 10
135.0314352762268015
 20
6.0755745906643588
 30
0.0
 40
0.0196850393999988
 50
270.0
 51
0.0
  0
ARC
  5
4698
  8
0
 10
133.3807716912222929
 20
6.4554956206311607
 30
0.0
 40
0.5230762411956663
 50
130.1859200436583137
 51
229.8140048536045015
  0
LINE
  5
4699
  8
0
 10
132.1967896069268136
 20
-22.5937167479356411
 30
0.0
 11
132.1967896069268136
 21
-22.7315120235356396
 31
0.0
  0
LINE
  5
469A
  8
0
 10
132.1377344888267942
 20
-22.7315120235356396
 30
0.0
 11
132.9644993701267879
 21
-22.7315120235356396
 31
0.0
  0
LINE
  5
469B
  8
0
 10
132.9644993701267879
 20
-22.7315120235356396
 30
0.0
 11
132.9645061423267975
 21
-22.967732495935639
 31
0.0
  0
LINE
  5
469C
  8
0
 10
132.9645061423267975
 20
-22.967732495935639
 30
0.0
 11
132.9054510242268066
 21
-23.02678761403563
 31
0.0
  0
LINE
  5
469D
  8
0
 10
132.9054510242268066
 20
-23.02678761403563
 30
0.0
 11
132.1967896069268136
 21
-23.02678761403563
 31
0.0
  0
LINE
  5
469E
  8
0
 10
132.1967896069268136
 20
-23.02678761403563
 30
0.0
 11
132.1377344888267942
 21
-22.967732495935639
 31
0.0
  0
LINE
  5
469F
  8
0
 10
132.1377344888267942
 20
-22.967732495935639
 30
0.0
 11
132.1377344888267942
 21
-22.7315120235356396
 31
0.0
  0
LINE
  5
46A0
  8
0
 10
132.1377344888267942
 20
-22.967732495935639
 30
0.0
 11
132.9645061423267975
 21
-22.967732495935639
 31
0.0
  0
LINE
  5
46A1
  8
0
 10
135.3011203156268039
 20
-22.5941104604921996
 30
0.0
 11
135.3011203156268039
 21
-20.4358427204790694
 31
0.0
  0
ARC
  5
46A2
  8
0
 10
135.2660809455267952
 20
-20.4358427322356384
 30
0.0
 40
0.0350393700999965
 50
0.000019224127835
 51
90.0000000000048743
  0
LINE
  5
46A3
  8
0
 10
135.2660809455267952
 20
-20.4008033621356297
 30
0.0
 11
135.0861596856267965
 21
-20.4008033621356617
 31
0.0
  0
ARC
  5
46A4
  8
0
 10
135.0861596856267965
 20
-20.4358427321356615
 30
0.0
 40
0.0350393700000034
 50
90.0000000000048743
 51
180.0000001634805074
  0
LINE
  5
46A5
  8
0
 10
135.0511203156268039
 20
-20.4358427322356384
 30
0.0
 11
135.0511203217849072
 21
-22.5941104487340105
 31
0.0
  0
ARC
  5
46A6
  8
0
 10
135.0861596919864951
 20
-22.5941104486340301
 30
0.0
 40
0.0350393702016021
 50
180.0000001634813032
 51
269.9999896006768267
  0
LINE
  5
46A7
  8
0
 10
135.0861596856267965
 20
-22.6291498188356393
 30
0.0
 11
135.2660809455267952
 21
-22.6291498514917784
 31
0.0
  0
ARC
  5
46A8
  8
0
 10
135.2660808897792037
 20
-22.5941104256442102
 30
0.0
 40
0.0350394258476089
 50
270.0000911573702069
 51
359.9999454793336895
  0
ARC
  5
46A9
  8
0
 10
135.0314352763975023
 20
-21.1350553305649385
 30
0.0
 40
0.0196850392292944
 50
359.9999997942110781
 51
90.000000496856174
  0
LINE
  5
46AA
  8
0
 10
135.0314352762268015
 20
-21.1153702913356298
 30
0.0
 11
133.0432462998267908
 21
-21.1153703085767788
 31
0.0
  0
LINE
  5
46AB
  8
0
 10
133.0432457760267937
 20
-21.9145828897356409
 30
0.0
 11
135.0314352762268015
 21
-21.9145828897356409
 31
0.0
  0
ARC
  5
46AC
  8
0
 10
135.0314352762268015
 20
-21.8948978503356386
 30
0.0
 40
0.0196850393999988
 50
270.0
 51
0.0
  0
ARC
  5
46AD
  8
0
 10
133.3807716912222929
 20
-21.5149768203688403
 30
0.0
 40
0.5230762411956627
 50
130.1859200436574895
 51
229.8140048536045015
  0
LINE
  5
46AE
  8
0
 10
133.2204116541267922
 20
-14.4618269841356302
 30
0.0
 11
133.2204116541267922
 21
-13.4382049369356302
 31
0.0
  0
ARC
  5
46AF
  8
0
 10
133.1810415754268035
 20
-13.4382049369356302
 30
0.0
 40
0.0393700786999993
 50
0.0000000000010178
 51
90.0
  0
LINE
  5
46B0
  8
0
 10
133.1810415754268035
 20
-13.3988348582356398
 30
0.0
 11
132.2361596856268022
 21
-13.3988348582356398
 31
0.0
  0
ARC
  5
46B1
  8
0
 10
133.1810415754268035
 20
-14.4618269841356302
 30
0.0
 40
0.0393700786999993
 50
270.0
 51
0.0000000000044782
  0
LINE
  5
46B2
  8
0
 10
133.1810415754268035
 20
-14.5011970628356295
 30
0.0
 11
131.9211990557267882
 21
-14.5011970628356295
 31
0.0
  0
ARC
  5
46B3
  8
0
 10
131.9211990557267882
 20
-14.4618269841356302
 30
0.0
 40
0.0393700786999993
 50
179.9999999999992042
 51
270.0
  0
LINE
  5
46B4
  8
0
 10
131.8818289770267995
 20
-14.4618269841356302
 30
0.0
 11
131.8818289770267995
 21
-13.5681261967356299
 31
0.0
  0
LINE
  5
46B5
  8
0
 10
132.1967896059109933
 20
-13.5681261967356299
 30
0.0
 11
128.3385218871268023
 21
-13.5681261967356299
 31
0.0
  0
ARC
  5
46B6
  8
0
 10
128.3385218871268023
 20
-13.5287561212356398
 30
0.0
 40
0.0393700754999992
 50
179.9999953429972095
 51
270.0
  0
LINE
  5
46B7
  8
0
 10
128.2991518116268139
 20
-13.5287561180356395
 30
0.0
 11
128.2991518327467872
 21
-13.2689135942644896
 31
0.0
  0
ARC
  5
46B8
  8
0
 10
128.3385228250672014
 20
-13.2689139762591992
 30
0.0
 40
0.0393709923222168
 50
90.0
 51
179.9994440910992068
  0
ARC
  5
46B9
  8
0
 10
132.19679208335711
 20
-13.2689105863326304
 30
0.0
 40
0.0393676023845526
 50
359.9956233036800199
 51
90.0000001934933351
  0
LINE
  5
46BA
  8
0
 10
132.2361596856268022
 20
-13.2689135935356397
 30
0.0
 11
132.2361465523694903
 21
-13.5287561177037396
 31
0.0
  0
ARC
  5
46BB
  8
0
 10
132.1967744804939002
 20
-13.5287541277155601
 30
0.0
 40
0.0393720719258092
 50
270.0220125774812914
 51
359.9971040913378033
  0
LINE
  5
46BC
  8
0
 10
131.9605691345267928
 20
-13.2295429839480807
 30
0.0
 11
131.9605691345267928
 21
-13.0248191101356401
 31
0.0
  0
ARC
  5
46BD
  8
0
 10
131.5274982684267968
 20
-13.0248191101356401
 30
0.0
 40
0.4330708660999997
 50
0.0
 51
90.0000000132294815
  0
LINE
  5
46BE
  8
0
 10
131.5274982683268092
 20
-12.5917482440356299
 30
0.0
 11
128.4566321268654008
 21
-12.5917482440356299
 31
0.0
  0
ARC
  5
46BF
  8
0
 10
128.4566321266268005
 20
-12.7098584802356296
 30
0.0
 40
0.1181102361999999
 50
89.9999998842388038
 51
269.9999999999984084
  0
LINE
  5
46C0
  8
0
 10
128.4566321266268005
 20
-12.82796871643564
 30
0.0
 11
131.5274982683268092
 21
-12.8279687164356897
 31
0.0
  0
ARC
  5
46C1
  8
0
 10
131.5274982683268092
 20
-13.0248191101356898
 30
0.0
 40
0.1968503936999995
 50
0.0000000000134347
 51
89.9999999999983658
  0
LINE
  5
46C2
  8
0
 10
131.7243486620268129
 20
-13.0248191101356401
 30
0.0
 11
131.7243486620268982
 21
-13.2295429839480807
 31
0.0
  0
ARC
  5
46C3
  8
0
 10
132.5511203169102998
 20
-3.4460788882408968
 30
0.0
 40
0.8464566956845743
 50
108.7090866917880021
 51
133.5013836184938896
  0
ARC
  5
46C4
  8
0
 10
132.5511099068951921
 20
-3.4460481492296822
 30
0.0
 40
0.8464242417907565
 50
89.5685637899257046
 51
108.7090866917880021
  0
LINE
  5
46C5
  8
0
 10
131.9684431502267898
 20
-2.8320949657356418
 30
0.0
 11
131.9684431502267898
 21
-2.7815887423356389
 31
0.0
  0
ARC
  5
46C6
  8
0
 10
131.9880950646519011
 20
-2.7815887423356389
 30
0.0
 40
0.0196519144251326
 50
136.2226043491145049
 51
180.0
  0
ARC
  5
46C7
  8
0
 10
132.5510297626856868
 20
-3.3865467800057401
 30
0.0
 40
0.8459797101164545
 50
89.9938671089956159
 51
133.0154909510079051
  0
ARC
  5
46C8
  8
0
 10
132.5511203156268039
 20
-3.387023767635625
 30
0.0
 40
0.8464566928999877
 50
54.4512995781732911
 51
90.0
  0
ARC
  5
46C9
  8
0
 10
132.5511203156272018
 20
-3.3870237676350778
 30
0.0
 40
0.8464566928992873
 50
47.0811785999961216
 51
54.451299578175572
  0
ARC
  5
46CA
  8
0
 10
133.1138200872916002
 20
-2.7816632345603649
 30
0.0
 40
0.0199632343249364
 50
0.3555566206913245
 51
46.646859801494017
  0
LINE
  5
46CB
  8
0
 10
133.1337829372268118
 20
-2.7815393508356401
 30
0.0
 11
133.1337974809268019
 21
-2.8320949657356418
 31
0.0
  0
ARC
  5
46CC
  8
0
 10
132.5511203156268891
 20
-3.446078885735516
 30
0.0
 40
0.8464566928998358
 50
46.4986163327008697
 51
54.4512995781752025
  0
ARC
  5
46CD
  8
0
 10
132.5511260447991901
 20
-3.446070868155914
 30
0.0
 40
0.8464468387130288
 50
54.4512995781749609
 51
89.569667709424948
  0
CIRCLE
  5
46CE
  8
0
 10
132.5511203156268039
 20
-3.3870237676356392
 30
0.0
 40
0.7874014516651019
  0
LINE
  5
46CF
  8
0
 10
133.1003329140268079
 20
-2.8019869243559579
 30
0.0
 11
133.1003329140268079
 21
-2.8227839535113359
 31
0.0
  0
LINE
  5
46D0
  8
0
 10
132.0019077171268123
 20
-2.8019869243814699
 30
0.0
 11
132.0019077171268123
 21
-2.8227839536086741
 31
0.0
  0
ARC
  5
46D1
  8
0
 10
132.5511203169102998
 20
-3.3279686470303811
 30
0.0
 40
0.8464566956845743
 50
226.4986163815061104
 51
251.2909133082119979
  0
LINE
  5
46D2
  8
0
 10
131.9684431502267898
 20
-3.9419525695356361
 30
0.0
 11
131.9684431502267898
 21
-3.992458792935639
 31
0.0
  0
ARC
  5
46D3
  8
0
 10
131.9880950646519011
 20
-3.992458792935639
 30
0.0
 40
0.0196519144251326
 50
180.0
 51
223.7773956508854951
  0
ARC
  5
46D4
  8
0
 10
132.5510292065177964
 20
-3.3875016363946102
 30
0.0
 40
0.8459786864464121
 50
226.984495879441198
 51
270.0061701191282282
  0
ARC
  5
46D5
  8
0
 10
132.5511203156272018
 20
-3.3870237676361969
 30
0.0
 40
0.8464566928992873
 50
305.5487004218231277
 51
312.9188214000026278
  0
ARC
  5
46D6
  8
0
 10
133.1138200872916002
 20
-3.992384300710913
 30
0.0
 40
0.0199632343249364
 50
313.3531401985060256
 51
359.6444433793087114
  0
LINE
  5
46D7
  8
0
 10
133.1337829372268118
 20
-3.9925081844356392
 30
0.0
 11
133.1337974809268019
 21
-3.9419525695356361
 31
0.0
  0
ARC
  5
46D8
  8
0
 10
132.5511203156268891
 20
-3.3279686495357619
 30
0.0
 40
0.8464566928998358
 50
305.5487004218246057
 51
313.5013836672991943
  0
ARC
  5
46D9
  8
0
 10
132.5511266472188936
 20
-3.3279778613031752
 30
0.0
 40
0.8464455168523475
 50
270.4302977238912717
 51
305.5487142408971977
  0
LINE
  5
46DA
  8
0
 10
133.1003329140268079
 20
-3.9720606109153058
 30
0.0
 11
133.1003329140268079
 21
-3.951263581759942
 31
0.0
  0
LINE
  5
46DB
  8
0
 10
132.0019077171268123
 20
-3.972060610889812
 30
0.0
 11
132.0019077171268123
 21
-3.9512635816626012
 31
0.0
  0
ARC
  5
46DC
  8
0
 10
132.5511205229447
 20
-3.3870236492397652
 30
0.0
 40
0.846456668695917
 50
269.9999855201136825
 51
305.5486843448098284
  0
ARC
  5
46DD
  8
0
 10
131.954519903505286
 20
-2.9434507722078029
 30
0.0
 40
0.0446153518095469
 50
85.6874390406863142
 51
133.3315917069101033
  0
ARC
  5
46DE
  8
0
 10
131.9542926942629038
 20
-2.9464637237912639
 30
0.0
 40
0.047636858268939
 50
34.7880400613042724
 51
85.6874390406879343
  0
LINE
  5
46DF
  8
0
 10
131.993415336926688
 20
-2.919284888335639
 30
0.0
 11
132.4483359312282005
 21
-4.1676878544284932
 31
0.0
  0
LINE
  5
46E0
  8
0
 10
132.4914609810342085
 20
-4.1721618509561997
 30
0.0
 11
132.008946350563491
 21
-2.8906088189312871
 31
0.0
  0
ARC
  5
46E1
  8
0
 10
131.9766821184221897
 20
-2.907690488940609
 30
0.0
 40
0.0365070421422388
 50
27.8981114961383589
 51
85.3869738433304377
  0
ARC
  5
46E2
  8
0
 10
131.9823455044970899
 20
-2.9301521639126298
 30
0.0
 40
0.0589136179190442
 50
92.6533412260041587
 51
129.9260831055997869
  0
CIRCLE
  5
46E3
  8
0
 10
132.5511203155267879
 20
-3.3870237675856378
 30
0.0
 40
0.1968503936499992
  0
ARC
  5
46E4
  8
0
 10
132.5511203155768101
 20
-3.4969451857447811
 30
0.0
 40
0.1985042758411137
 50
83.1655955658272177
 51
96.8344044341744166
  0
LINE
  5
46E5
  8
0
 10
132.5747423628268109
 20
-3.2998514354356381
 30
0.0
 11
132.5747423628268109
 21
-3.363401720335637
 31
0.0
  0
LINE
  5
46E6
  8
0
 10
132.5747423628268109
 20
-3.363401720335637
 30
0.0
 11
132.6382926477267858
 21
-3.363401720335637
 31
0.0
  0
ARC
  5
46E7
  8
0
 10
132.4411638275267933
 20
-3.3870237408812538
 30
0.0
 40
0.1985390934000145
 50
353.1667920607997075
 51
6.8331924158625679
  0
LINE
  5
46E8
  8
0
 10
132.6382926413268137
 20
-3.4106458148356391
 30
0.0
 11
132.5747423628268109
 21
-3.4106458148356391
 31
0.0
  0
LINE
  5
46E9
  8
0
 10
132.5747423628268109
 20
-3.4106458148356391
 30
0.0
 11
132.5747423628268109
 21
-3.4741960997356389
 31
0.0
  0
ARC
  5
46EA
  8
0
 10
132.5511203155768101
 20
-3.2771044977489612
 30
0.0
 40
0.1985021427842941
 50
263.1655217746252902
 51
276.8344782253747098
  0
LINE
  5
46EB
  8
0
 10
132.5274982683268092
 20
-3.4741960997356389
 30
0.0
 11
132.5274982683268945
 21
-3.4106458148356391
 31
0.0
  0
LINE
  5
46EC
  8
0
 10
132.5274982683268945
 20
-3.4106458148356391
 30
0.0
 11
132.4639479834268059
 21
-3.4106458148356391
 31
0.0
  0
ARC
  5
46ED
  8
0
 10
132.661067423468694
 20
-3.3870235794131811
 30
0.0
 40
0.1985298054419922
 50
173.166533310866896
 51
186.8335760802009986
  0
LINE
  5
46EE
  8
0
 10
132.463947938326811
 20
-3.363401720335637
 30
0.0
 11
132.5274982683268092
 21
-3.363401720335637
 31
0.0
  0
LINE
  5
46EF
  8
0
 10
132.5274982683268092
 20
-3.363401720335637
 30
0.0
 11
132.5274982683268092
 21
-3.2998514354356381
 31
0.0
  0
LINE
  5
46F0
  8
0
 10
132.5274982683268092
 20
-3.363401720335637
 30
0.0
 11
132.5747423628268109
 21
-3.4106458148356391
 31
0.0
  0
LINE
  5
46F1
  8
0
 10
132.5747423628268109
 20
-3.363401720335637
 30
0.0
 11
132.5274982683268092
 21
-3.4106458148356391
 31
0.0
  0
ARC
  5
46F2
  8
0
 10
132.720078254295089
 20
-2.6536793879623479
 30
0.0
 40
0.0349018283740095
 50
80.3620102029184835
 51
131.3882982131879942
  0
ARC
  5
46F3
  8
0
 10
132.7232390003960916
 20
-2.665081945552628
 30
0.0
 40
0.0458385190736092
 50
124.9153522203064028
 51
186.4473430458064058
  0
LINE
  5
46F4
  8
0
 10
132.6776903882268073
 20
-2.6702291545356398
 30
0.0
 11
133.1316590317267128
 21
-3.9189788535356409
 31
0.0
  0
ARC
  5
46F5
  8
0
 10
132.6876240687307131
 20
-2.6551934889010829
 30
0.0
 40
0.0429496214985552
 50
79.6160957133221245
 51
138.8839805244190018
  0
ARC
  5
46F6
  8
0
 10
132.6820829487483024
 20
-2.6503569329376542
 30
0.0
 40
0.0355946038747069
 50
138.8839805244190018
 51
192.8085986038666988
  0
LINE
  5
46F7
  8
0
 10
132.6473740776268073
 20
-2.6582480729356339
 30
0.0
 11
133.1016616340268115
 21
-3.949967075135639
 31
0.0
  0
ARC
  5
46F8
  8
0
 10
132.5511203156268039
 20
-3.3279686495359071
 30
0.0
 40
0.8464566928997324
 50
251.2909133361015961
 51
270.0000000000017053
  0
LINE
  5
46F9
  8
0
 10
132.9054510242268066
 20
-22.7315120235356396
 30
0.0
 11
132.9054510242268066
 21
-22.5937167479356411
 31
0.0
  0
ENDSEC
  0
EOF
