  0
SECTION
  2
HEADER
  9
$ACADVER
  1
AC1009
  9
$INSBASE
 10
4347.7769110761428237
 20
117.2754199258302066
 30
0.0
  9
$EXTMIN
 10
4321.9001997850245971
 20
117.2753205074563994
 30
-0.0015258207003583
  9
$EXTMAX
 10
4348.1063960790470446
 20
148.1979434616559956
 30
0.0000000349246037
  9
$LIMMIN
 10
0.0
 20
0.0
  9
$LIMMAX
 10
11.6929133858000007
 20
8.2677165353999982
  9
$ORTHOMODE
 70
     0
  9
$REGENMODE
 70
     1
  9
$FILLMODE
 70
     1
  9
$QTEXTMODE
 70
     0
  9
$MIRRTEXT
 70
     0
  9
$DRAGMODE
 70
     2
  9
$LTSCALE
 40
0.6431102362
  9
$OSMODE
 70
  4095
  9
$ATTMODE
 70
     1
  9
$TEXTSIZE
 40
0.2
  9
$TRACEWID
 40
0.05
  9
$TEXTSTYLE
  7
STANDARD
  9
$CLAYER
  8
0
  9
$CELTYPE
  6
BYLAYER
  9
$CECOLOR
 62
   256
  9
$DIMSCALE
 40
1.0
  9
$DIMASZ
 40
0.1875
  9
$DIMEXO
 40
0.0625
  9
$DIMDLI
 40
0.4443307087
  9
$DIMRND
 40
0.0
  9
$DIMDLE
 40
0.0
  9
$DIMEXE
 40
0.125
  9
$DIMTP
 40
0.01
  9
$DIMTM
 40
0.01
  9
$DIMTXT
 40
2.0
  9
$DIMCEN
 40
0.1052362205
  9
$DIMTSZ
 40
0.0
  9
$DIMTOL
 70
     1
  9
$DIMLIM
 70
     0
  9
$DIMTIH
 70
     1
  9
$DIMTOH
 70
     1
  9
$DIMSE1
 70
     0
  9
$DIMSE2
 70
     0
  9
$DIMTAD
 70
     0
  9
$DIMZIN
 70
     0
  9
$DIMBLK
  1

  9
$DIMASO
 70
     1
  9
$DIMSHO
 70
     1
  9
$DIMPOST
  1
\X
  9
$DIMAPOST
  1

  9
$DIMALT
 70
     1
  9
$DIMALTD
 70
     2
  9
$DIMALTF
 40
25.3999999999999986
  9
$DIMLFAC
 40
1.0
  9
$DIMTOFL
 70
     0
  9
$DIMTVP
 40
0.0
  9
$DIMTIX
 70
     0
  9
$DIMSOXD
 70
     0
  9
$DIMSAH
 70
     0
  9
$DIMBLK1
  1

  9
$DIMBLK2
  1

  9
$DIMSTYLE
  2
STANDARD
  9
$DIMCLRD
 70
     0
  9
$DIMCLRE
 70
     0
  9
$DIMCLRT
 70
     0
  9
$DIMTFAC
 40
1.0
  9
$DIMGAP
 40
0.09
  9
$LUNITS
 70
     2
  9
$LUPREC
 70
     4
  9
$SKETCHINC
 40
0.1
  9
$FILLETRAD
 40
0.0
  9
$AUNITS
 70
     0
  9
$AUPREC
 70
     0
  9
$MENU
  1
.
  9
$ELEVATION
 40
0.0
  9
$PELEVATION
 40
0.0
  9
$THICKNESS
 40
0.0
  9
$LIMCHECK
 70
     0
  9
$BLIPMODE
 70
     0
  9
$CHAMFERA
 40
0.0
  9
$CHAMFERB
 40
0.0
  9
$SKPOLY
 70
     0
  9
$TDCREATE
 40
2458060.468368056230247
  9
$TDUPDATE
 40
2459536.9603125001303852
  9
$TDINDWG
 40
0.4058982639
  9
$TDUSRTIMER
 40
0.4058982639
  9
$USRTIMER
 70
     1
  9
$ANGBASE
 50
0.0
  9
$ANGDIR
 70
     0
  9
$PDMODE
 70
     0
  9
$PDSIZE
 40
0.3125
  9
$PLINEWID
 40
0.0
  9
$COORDS
 70
     1
  9
$SPLFRAME
 70
     0
  9
$SPLINETYPE
 70
     6
  9
$SPLINESEGS
 70
     8
  9
$ATTDIA
 70
     1
  9
$ATTREQ
 70
     1
  9
$HANDLING
 70
     1
  9
$HANDSEED
  5
11693
  9
$SURFTAB1
 70
     6
  9
$SURFTAB2
 70
     6
  9
$SURFTYPE
 70
     6
  9
$SURFU
 70
     6
  9
$SURFV
 70
     6
  9
$UCSNAME
  2

  9
$UCSORG
 10
0.0
 20
0.0
 30
0.0
  9
$UCSXDIR
 10
1.0
 20
0.0
 30
0.0
  9
$UCSYDIR
 10
0.0
 20
1.0
 30
0.0
  9
$PUCSNAME
  2

  9
$PUCSORG
 10
0.0
 20
0.0
 30
0.0
  9
$PUCSXDIR
 10
1.0
 20
0.0
 30
0.0
  9
$PUCSYDIR
 10
0.0
 20
1.0
 30
0.0
  9
$USERI1
 70
     0
  9
$USERI2
 70
     0
  9
$USERI3
 70
     0
  9
$USERI4
 70
     0
  9
$USERI5
 70
     0
  9
$USERR1
 40
0.0
  9
$USERR2
 40
0.0
  9
$USERR3
 40
0.0
  9
$USERR4
 40
0.0
  9
$USERR5
 40
0.0
  9
$WORLDVIEW
 70
     1
  9
$SHADEDGE
 70
     3
  9
$SHADEDIF
 70
    70
  9
$TILEMODE
 70
     1
  9
$MAXACTVP
 70
    64
  9
$PLIMCHECK
 70
     0
  9
$PEXTMIN
 10
1.0000000000000000E+20
 20
1.0000000000000000E+20
 30
1.0000000000000000E+20
  9
$PEXTMAX
 10
-1.0000000000000000E+20
 20
-1.0000000000000000E+20
 30
-1.0000000000000000E+20
  9
$PLIMMIN
 10
0.0
 20
0.0
  9
$PLIMMAX
 10
12.0
 20
9.0
  9
$UNITMODE
 70
     0
  9
$VISRETAIN
 70
     1
  9
$PLINEGEN
 70
     0
  9
$PSLTSCALE
 70
     1
  0
ENDSEC
  0
SECTION
  2
TABLES
  0
TABLE
  2
VPORT
 70
     1
  0
VPORT
  2
*ACTIVE
 70
     0
 10
0.0
 20
0.0
 11
1.0
 21
1.0
 12
69.9969502757858208
 22
28.43261968597227
 13
0.0
 23
0.0
 14
1.0
 24
1.0
 15
0.0
 25
0.0
 16
0.0
 26
0.0
 36
122.0237731519760018
 17
4265.00634765625
 27
104.3040122985839986
 37
0.0
 40
31.1677163990149211
 41
2.0410052910052912
 42
50.0
 43
0.0
 44
0.0
 50
0.0
 51
0.0
 71
     0
 72
   100
 73
     1
 74
     1
 75
     0
 76
     0
 77
     0
 78
     0
  0
ENDTAB
  0
TABLE
  2
LTYPE
 70
     2
  0
LTYPE
  2
CONTINUOUS
 70
     0
  3
Solid line
 72
    65
 73
     0
 40
0.0
  0
LTYPE
  2
PHANTOM2
 70
     0
  3
___ _ _ ___ _ _ ___ _ _ ___ _ _
 72
    65
 73
     6
 40
1.25
 49
0.625
 49
-0.125
 49
0.125
 49
-0.125
 49
0.125
 49
-0.125
  0
ENDTAB
  0
TABLE
  2
LAYER
 70
     2
  0
LAYER
  2
0
 70
     0
 62
   255
  6
CONTINUOUS
  0
LAYER
  2
DEFPOINTS
 70
     0
 62
     7
  6
CONTINUOUS
  0
ENDTAB
  0
TABLE
  2
STYLE
 70
     1
  0
STYLE
  2
STANDARD
 70
     0
 40
0.0
 41
0.8
 50
0.0
 71
     0
 42
0.2
  3
txt
  4

  0
ENDTAB
  0
TABLE
  2
VIEW
 70
     0
  0
ENDTAB
  0
TABLE
  2
UCS
 70
     0
  0
ENDTAB
  0
TABLE
  2
APPID
 70
     9
  0
APPID
  2
ACAD
 70
     0
  0
APPID
  2
ACAD_MLEADERVER
 70
     0
  0
APPID
  2
ACAD_EXEMPT_FROM_CAD_STANDARDS
 70
     0
  0
APPID
  2
ACAD_NAV_VCDISPLAY
 70
     0
  0
APPID
  2
ACAECLAYERSTANDARD
 70
     0
  0
APPID
  2
ACCMTRANSPARENCY
 70
     0
  0
APPID
  2
ACAD_DSTYLE_DIMJAG
 70
     0
  0
APPID
  2
ACAD_DSTYLE_DIMTALN
 70
     0
  0
APPID
  2
ACDBATTR
 70
     0
  0
ENDTAB
  0
TABLE
  2
DIMSTYLE
 70
     1
  0
DIMSTYLE
  2
STANDARD
 70
     0
  3

  4

  5

  6

  7

 40
1.0
 41
0.1875
 42
0.0625
 43
0.38
 44
0.125
 45
0.0
 46
0.0
 47
0.01
 48
0.01
140
0.15625
141
0.09
142
0.0
143
25.3999999999999986
144
1.0
145
0.0
146
1.0
147
0.09
 71
     1
 72
     0
 73
     1
 74
     1
 75
     0
 76
     0
 77
     0
 78
     4
170
     0
171
     2
172
     0
173
     0
174
     0
175
     0
176
     0
177
     0
178
     0
  0
ENDTAB
  0
ENDSEC
  0
SECTION
  2
BLOCKS
  0
BLOCK
  8
0
  2
$MODEL_SPACE
 70
     0
 10
0.0
 20
0.0
 30
0.0
  3
$MODEL_SPACE
  1

  0
ENDBLK
  5
21
  8
0
  0
BLOCK
 67
     1
  8
0
  2
$PAPER_SPACE
 70
     0
 10
0.0
 20
0.0
 30
0.0
  3
$PAPER_SPACE
  1

  0
ENDBLK
  5
1D
 67
     1
  8
0
  0
ENDSEC
  0
SECTION
  2
ENTITIES
  0
ATTDEF
  5
FDB2
  8
DEFPOINTS
 10
4347.7727176951848378
 20
117.2795047528390029
 30
0.0
 40
0.001
  1
K-78799K-TF
  3

  2
MODELNUMBER
 70
     0
1001
ACDBATTR
1070
     0
1070
     1
  0
ATTDEF
  5
FDB3
  8
DEFPOINTS
 10
4347.7727176951848378
 20
117.2778380861722951
 30
0.0
 40
0.001
  1

  3

  2
TRADENAME
 70
     0
1001
ACDBATTR
1070
     0
1070
     1
  0
ATTDEF
  5
FDB4
  8
DEFPOINTS
 10
4347.7727176951848378
 20
117.2761714195056015
 30
0.0
 40
0.001
  1
TOILET
  3

  2
PRODUCT
 70
     0
1001
ACDBATTR
1070
     0
1070
     1
  0
LINE
  5
11560
  8
0
 10
4341.6438183287536958
 20
148.1927555718802125
 30
0.0
 11
4347.6758823686232063
 21
148.1927555718802125
 31
0.0
  0
LINE
  5
11561
  8
0
 10
4341.6566643953237872
 20
147.8974808407301964
 30
0.0
 11
4347.688005257583427
 21
147.8974808407301964
 31
0.0
  0
LINE
  5
11562
  8
0
 10
4341.7017687813749944
 20
147.661184032879504
 30
0.0
 11
4347.6568463368294033
 21
147.661184032879504
 31
0.0
  0
LINE
  5
11563
  8
0
 10
4341.7724223706709381
 20
134.8105243161205067
 30
0.0
 11
4347.5698954224171757
 21
134.8105243161205067
 31
0.0
  0
LINE
  5
11564
  8
0
 10
4322.1006773657491067
 20
134.4836578094021036
 30
0.0
 11
4339.2293731161526011
 21
134.4836578094021036
 31
0.0
  0
ARC
  5
11565
  8
0
 10
4347.6565628911130261
 20
148.0739662418791909
 30
0.0
 40
0.120350102340286
 50
0.3232977925363365
 51
80.7624958325529434
  0
LINE
  5
11566
  8
0
 10
4347.7769110775416266
 20
148.0746453270801908
 30
0.0
 11
4347.7769110747422019
 21
148.0155911431218101
 31
0.0
  0
ARC
  5
11567
  8
0
 10
4347.6582394061479135
 20
148.0156328053666925
 30
0.0
 40
0.1186716762415543
 50
275.3641871638063776
 51
359.9794316090417965
  0
ARC
  5
11568
  8
0
 10
4347.6833764959746986
 20
147.8185661171170864
 30
0.0
 40
0.0790503576016584
 50
359.5076128813461196
 51
86.6431487778264682
  0
ARC
  5
11569
  8
0
 10
-1229.3195024871670284
 20
201.7479335001283971
 30
0.0
 40
5577.3426704801313463
 50
359.3129387678791886
 51
359.445970527226109
  0
ARC
  5
1156A
  8
0
 10
4347.655129459993077
 20
147.7510268531889892
 30
0.0
 40
0.0898592233843011
 50
271.0947766841860016
 51
303.3008472631047994
  0
ARC
  5
1156B
  8
0
 10
4347.520701388296402
 20
147.8772650111779967
 30
0.0
 40
0.2725948672085194
 50
312.386503314319782
 51
332.1340485514934926
  0
ARC
  5
1156C
  8
0
 10
4347.5625495279364259
 20
134.8697112198364039
 30
0.0
 40
0.0596410239449275
 50
277.0750002954422939
 51
359.2584020062599848
  0
ARC
  5
1156D
  8
0
 10
4339.2293731161498727
 20
134.4049176518927879
 30
0.0
 40
0.0787401575092943
 50
1.000000014505753
 51
89.9999999983324841
  0
ARC
  5
1156E
  8
0
 10
4586.4601691607431349
 20
138.6036728780341036
 30
0.0
 40
247.1877073481863931
 50
180.9729600989917913
 51
181.0570557939030891
  0
ARC
  5
1156F
  8
0
 10
4338.8491960002329506
 20
133.8471585589599897
 30
0.0
 40
0.519484106860862
 50
0.9157885044854041
 51
11.2781454062857005
  0
ARC
  5
11570
  8
0
 10
4392.6682951137408963
 20
135.2445862651593131
 30
0.0
 40
53.317780348004348
 50
181.4929353581269993
 51
181.9348060586852114
  0
ARC
  5
11571
  8
0
 10
4341.77275926661423
 20
134.8698829353307076
 30
0.0
 40
0.0593599675691182
 50
180.6407967828766061
 51
269.7143871427992963
  0
ARC
  5
11572
  8
0
 10
5800.2407406660031484
 20
151.182088944168413
 30
0.0
 40
1458.618560285500962
 50
180.1414157490712
 51
180.6407967828766061
  0
ARC
  5
11573
  8
0
 10
4341.7057386488258999
 20
147.5821680395802957
 30
0.0
 40
0.0791156561284627
 50
92.8761969411678052
 51
180.1409642615109874
  0
ARC
  5
11574
  8
0
 10
4341.955266474607015
 20
147.8185217756955865
 30
0.0
 40
0.0792069698793268
 50
94.5343159176746326
 51
174.8710266845097863
  0
ARC
  5
11575
  8
0
 10
4341.6567684581150388
 20
148.0289633086395042
 30
0.0
 40
0.1314825090900057
 50
185.8375271753126015
 51
269.9546528326881116
  0
LINE
  5
11576
  8
0
 10
4341.5259677770427515
 20
148.0155904993802096
 30
0.0
 11
4341.5259677799431302
 21
148.0746423638321971
 31
0.0
  0
ARC
  5
11577
  8
0
 10
4341.64407809180193
 20
148.0746455761322125
 30
0.0
 40
0.1181103119044086
 50
123.3472729941940003
 51
180.0015582994371073
  0
ARC
  5
11578
  8
0
 10
4341.6440779892045612
 20
148.0746457320423133
 30
0.0
 40
0.1181101252648477
 50
90.125962612203935
 51
123.3472729941940003
  0
ARC
  5
11579
  8
0
 10
4510.8281917546692057
 20
133.0158544950517125
 30
0.0
 40
169.5996594061936946
 50
174.9904489584652936
 51
175.0095432083921878
  0
ARC
  5
1157A
  8
0
 10
4341.7510809787354447
 20
147.7806741053368
 30
0.0
 40
0.1209060245991746
 50
278.7773355507043789
 51
354.6007797554173067
  0
ARC
  5
1157B
  8
0
 10
4341.9751463041666284
 20
134.6911135086579918
 30
0.0
 40
0.1209169707899909
 50
99.0527780458198777
 51
178.3464271889147881
  0
ARC
  5
1157C
  8
0
 10
4330.6132558121162219
 20
1020.0912211800909972
 30
0.0
 40
886.7145431247625993
 50
269.4594061991356853
 51
269.7650456453382048
  0
ARC
  5
1157D
  8
0
 10
4328.6693540706037311
 20
574.3590795561989353
 30
0.0
 40
440.9781930889583919
 50
269.780125790125112
 51
270.6188091013535768
  0
ARC
  5
1157E
  8
0
 10
4340.6705539707727439
 20
-536.7935615734131716
 30
0.0
 40
670.2392566877972513
 50
90.1102458585622088
 51
90.6188091013536337
  0
ARC
  5
1157F
  8
0
 10
4339.3467756033796832
 20
151.1852963276948003
 30
0.0
 40
17.7408747899067905
 50
270.110245858562223
 51
276.0348087442200722
  0
ARC
  5
11580
  8
0
 10
4341.0183798817733987
 20
135.3734557131226097
 30
0.0
 40
1.8409199319780309
 50
276.0348087442200722
 51
290.733955720532208
  0
ARC
  5
11581
  8
0
 10
4339.5938467232772382
 20
134.556104441583102
 30
0.0
 40
2.2646719312723769
 50
336.4640059789508086
 51
3.5061686803975611
  0
ARC
  5
11582
  8
0
 10
4322.1007026049974229
 20
134.4048952885644042
 30
0.0
 40
0.0787625248816331
 50
90.0183602842867003
 51
178.5154222950341989
  0
ARC
  5
11583
  8
0
 10
4322.0976963226266889
 20
134.2873388523258882
 30
0.0
 40
0.0787703747001747
 50
178.5471051353090104
 51
250.9882030773682118
  0
ARC
  5
11584
  8
0
 10
4321.9308317533295849
 20
133.8030528967229884
 30
0.0
 40
0.4334567929518626
 50
32.748668375525007
 51
70.9882030773679418
  0
ARC
  5
11585
  8
0
 10
4322.3548771143468912
 20
134.0757941056355094
 30
0.0
 40
0.0707279303780129
 50
212.7486683755236072
 51
266.9706095281434273
  0
ARC
  5
11586
  8
0
 10
4315.7501077106653611
 20
6581.9134624347207136
 30
0.0
 40
6447.9116763159099719
 50
270.0586564043911153
 51
270.1065747716368151
  0
LINE
  5
11587
  8
0
 10
4327.7437366300182475
 20
134.0129406806528891
 30
0.0
 11
4335.004688687125963
 21
134.0127884352216086
 31
0.0
  0
ARC
  5
11588
  8
0
 10
4334.9351119133707471
 20
178.3082652268518018
 30
0.0
 40
44.2955314351831717
 50
270.0899968235697202
 51
274.457559840471788
  0
ARC
  5
11589
  8
0
 10
4336.0537425599595736
 20
163.725197878100488
 30
0.0
 40
29.6679568080340914
 50
275.1114977387924796
 51
276.1210669104065119
  0
ARC
  5
1158A
  8
0
 10
4339.2733728520197474
 20
133.7028356682461947
 30
0.0
 40
0.5265501738200581
 50
85.8789331186154641
 51
96.1210669104064692
  0
ARC
  5
1158B
  8
0
 10
4322.0919381876537955
 20
133.9036791569870104
 30
0.0
 40
0.0824474379760235
 50
89.0145748860844748
 51
166.175947355122787
  0
LINE
  5
1158C
  8
0
 10
4322.0118789173429832
 20
133.9233792398802052
 30
0.0
 11
4322.0091738132550745
 21
133.8089008562398874
 31
0.0
  0
ARC
  5
1158D
  8
0
 10
4322.0878118177261058
 20
133.8070426540139124
 30
0.0
 40
0.0786599559030485
 50
178.6463627044842895
 51
253.3337441101695902
  0
ARC
  5
1158E
  8
0
 10
4321.952619889527341
 20
133.3554583824474946
 30
0.0
 40
0.3927265222402597
 50
35.62116889027822
 51
73.3337441101695617
  0
ARC
  5
1158F
  8
0
 10
4322.3292862280322879
 20
133.6253355463472872
 30
0.0
 40
0.0706428921128343
 50
215.6211688902795913
 51
267.6679182624765758
  0
ARC
  5
11590
  8
0
 10
4323.0286725566829773
 20
231.5744833342679954
 30
0.0
 40
98.0222478076837973
 50
269.5895122841254192
 51
270.9020549154224113
  0
ARC
  5
11591
  8
0
 10
4326.8044283114677455
 20
402.2136220544292087
 30
0.0
 40
268.6585150791726733
 50
269.5238619411990157
 51
270.2164579892269103
  0
ARC
  5
11592
  8
0
 10
4333.2177777292954488
 20
10639.9092617824608169
 30
0.0
 40
10506.3536244888200599
 50
269.9705602214310147
 51
270.0108880953869743
  0
ARC
  5
11593
  8
0
 10
4336.1379073287471329
 20
192.9502388441829908
 30
0.0
 40
59.401592135846407
 50
269.109130710624413
 51
270.5577678292202108
  0
ARC
  5
11594
  8
0
 10
4336.3380405169882579
 20
154.6704860872399081
 30
0.0
 40
21.1224095158619711
 50
271.0257420710207157
 51
273.9126134342614023
  0
ARC
  5
11595
  8
0
 10
4336.1527216583635891
 20
156.5686071980539111
 30
0.0
 40
23.02881842127778
 50
274.0503712835655961
 51
274.9389061438242834
  0
ARC
  5
11596
  8
0
 10
4337.5416210840403437
 20
131.4284025943345
 30
0.0
 40
2.2757076991154621
 50
62.2567126259514296
 51
74.8765507883245931
  0
ARC
  5
11597
  8
0
 10
4340.325173528212872
 20
109.8758665773162022
 30
0.0
 40
24.2446556090915486
 50
95.2307487363431449
 51
96.035908872849177
  0
ARC
  5
11598
  8
0
 10
4338.000940524755606
 20
135.0261563506120979
 30
0.0
 40
1.0130240514481159
 50
276.4568696403022159
 51
287.8315157904108901
  0
ARC
  5
11599
  8
0
 10
4338.1716591955691911
 20
134.4404770740752895
 30
0.0
 40
0.4035539022346764
 50
290.2214968096420193
 51
314.8021400212355161
  0
ARC
  5
1159A
  8
0
 10
4338.8564392472999316
 20
133.8599736116935901
 30
0.0
 40
0.4934997944743827
 50
8.9174606649051071
 51
47.4948063289048008
  0
ARC
  5
1159B
  8
0
 10
4338.8523859777205871
 20
133.8646112594962858
 30
0.0
 40
0.4968125002155256
 50
329.2924061383899925
 51
8.3166093906337366
  0
ARC
  5
1159C
  8
0
 10
4338.7745545473362654
 20
133.9459086394070937
 30
0.0
 40
0.6059964724488778
 50
304.0629816806634835
 51
326.4403137731694073
  0
ARC
  5
1159D
  8
0
 10
4323.9083044419794533
 20
129.3017625967941058
 30
0.0
 40
4.2936149921336249
 50
72.3445312193801016
 51
82.8930317392832023
  0
ARC
  5
1159E
  8
0
 10
4327.5449250668016248
 20
131.7679856636621025
 30
0.0
 40
1.804095676013979
 50
97.7584633375823273
 51
116.3156162068902972
  0
ARC
  5
1159F
  8
0
 10
4325.8774134012246577
 20
127.2976033954552975
 30
0.0
 40
6.226469875934967
 50
94.1030563849985384
 51
97.4055374518884918
  0
ARC
  5
115A0
  8
0
 10
4326.0589863930254069
 20
124.7664228954176053
 30
0.0
 40
8.764154544116268
 50
91.6352552434722156
 51
94.1030563849985384
  0
ARC
  5
115A1
  8
0
 10
4326.0647967464547037
 20
124.5628960555195022
 30
0.0
 40
8.967764305095125
 50
86.8229060939535202
 51
91.6352552434722156
  0
ARC
  5
115A2
  8
0
 10
4325.9863175651544225
 20
123.1490516938663973
 30
0.0
 40
10.3837850891501606
 50
85.3622437416235442
 51
86.8229060939535202
  0
ARC
  5
115A3
  8
0
 10
4326.8156088359846763
 20
133.3718987089376924
 30
0.0
 40
0.1273566120715252
 50
64.6636955640634312
 51
85.3622437416235442
  0
ARC
  5
115A4
  8
0
 10
4326.8502051873110759
 20
133.4449679882864075
 30
0.0
 40
0.0465109126832476
 50
37.226583027605777
 51
64.6636955640630902
  0
ARC
  5
115A5
  8
0
 10
4326.8771444674830491
 20
133.4654357217044947
 30
0.0
 40
0.0126781929061351
 50
335.0484920362310959
 51
37.2265830276398901
  0
ARC
  5
115A6
  8
0
 10
4326.8521824911604199
 20
133.4770499723088903
 30
0.0
 40
0.0402098306906977
 50
297.4518099290660871
 51
335.0484920362325738
  0
ARC
  5
115A7
  8
0
 10
4325.1079986879485659
 20
133.4867619705086099
 30
0.0
 40
0.0608536109680004
 50
214.2413329834421063
 51
244.1608519094963015
  0
ARC
  5
115A8
  8
0
 10
4325.0661073354185646
 20
133.458248437375488
 30
0.0
 40
0.0101790908572857
 50
120.0960132460112959
 51
214.2413329834367062
  0
ARC
  5
115A9
  8
0
 10
4325.0787452177428349
 20
133.44009467474541
 30
0.0
 40
0.0322747252683088
 50
96.8876395682062252
 51
123.3480841626421949
  0
ARC
  5
115AA
  8
0
 10
4322.2654492640322133
 20
133.177234551435987
 30
0.0
 40
0.23961513093125
 50
94.3912897556758708
 51
179.600144203823902
  0
ARC
  5
115AB
  8
0
 10
4306.9036473527394264
 20
132.4541943621557039
 30
0.0
 40
15.1395481294092704
 50
359.9931950697081788
 51
2.7437302483045851
  0
ARC
  5
115AC
  8
0
 10
4324.0034293671978958
 20
132.4521634477295891
 30
0.0
 40
1.9602340056543199
 50
179.9931950697080936
 51
231.8622398439758001
  0
ARC
  5
115AD
  8
0
 10
2984.2169775579582165
 20
-1097.4864478742510983
 30
0.0
 40
1816.7950404284611068
 50
42.374294631455939
 51
42.5422710249156992
  0
ARC
  5
115AE
  8
0
 10
4323.0175365739842164
 20
123.4754811540660029
 30
0.0
 40
4.8631334298360951
 50
19.0454439074009301
 51
46.1192928433762006
  0
ARC
  5
115AF
  8
0
 10
4320.1818080618932072
 20
123.172321866380301
 30
0.0
 40
7.6692098253098147
 50
356.8515832296454846
 51
14.2676208462877199
  0
ARC
  5
115B0
  8
0
 10
3393.437090279331187
 20
145.0431920943387922
 30
0.0
 40
934.6682256595589706
 50
358.3047461453555798
 51
358.6333509972330944
  0
ARC
  5
115B1
  8
0
 10
4327.8110196611751235
 20
117.3902356345789002
 30
0.0
 40
0.1148168720202578
 50
178.8767336521788138
 51
270.257914468562376
  0
ARC
  5
115B2
  8
0
 10
4330.2572657143982724
 20
126.0607375698218959
 30
0.0
 40
7.6057149288166661
 50
74.6627016961774927
 51
80.2133094268802154
  0
ARC
  5
115B3
  8
0
 10
4332.2545695847238676
 20
133.4427273819212871
 30
0.0
 40
0.0417039566246707
 50
209.049842182575901
 51
255.3044736045947047
  0
ARC
  5
115B4
  8
0
 10
4332.2371986813850526
 20
133.426479709570998
 30
0.0
 40
0.0195017543884309
 50
117.4328911370007944
 51
191.8435168440693133
  0
ARC
  5
115B5
  8
0
 10
4332.9580860103878877
 20
129.8858365932713923
 30
0.0
 40
3.6320428068194661
 50
93.9443272533242464
 51
101.5927267666423006
  0
ARC
  5
115B6
  8
0
 10
4333.1782579314967734
 20
127.2496238555983012
 30
0.0
 40
6.2772732217897644
 50
83.1718213298259883
 51
94.2940301437868982
  0
ARC
  5
115B7
  8
0
 10
4333.6585782117699637
 20
130.7168705259834951
 30
0.0
 40
2.778265911832507
 50
79.6555218090641546
 51
84.5059209418765818
  0
ARC
  5
115B8
  8
0
 10
4334.1395601837994036
 20
133.3786929120244906
 30
0.0
 40
0.0734984279830576
 50
58.4672450976067068
 51
75.9044034948821036
  0
ARC
  5
115B9
  8
0
 10
4334.1610708441639872
 20
133.4137501173833869
 30
0.0
 40
0.0323679507558057
 50
33.6421333833408909
 51
58.4672450976067068
  0
ARC
  5
115BA
  8
0
 10
4334.1792589008364303
 20
133.4258535216669088
 30
0.0
 40
0.0105208044713187
 50
315.2531115093808012
 51
33.6421333833571481
  0
ARC
  5
115BB
  8
0
 10
4334.1722052055129097
 20
133.4328451694688056
 30
0.0
 40
0.0204524587495893
 50
294.772888351803374
 51
315.2531115093843255
  0
ARC
  5
115BC
  8
0
 10
4334.9732647371556595
 20
131.4565021415581043
 30
0.0
 40
2.1120874737098938
 50
96.3214596436295807
 51
112.0376775706128001
  0
CIRCLE
  5
115BD
  8
0
 10
4337.7779419629196127
 20
118.4565214265801956
 30
0.0
 40
0.5649961883250807
  0
LINE
  5
115BE
  8
0
 10
4347.6209787981179034
 20
134.6924243438884901
 30
0.0
 11
4347.6209828662385917
 21
117.3903199528458003
 31
0.0
  0
ARC
  5
115BF
  8
0
 10
4347.5028787981182177
 20
134.6924243161205084
 30
0.0
 40
0.1181
 50
0.0000134715513021
 51
90.0
  0
LINE
  5
115C0
  8
0
 10
4347.5060828662390122
 20
117.2754199258302066
 30
0.0
 11
4327.8115365026033032
 21
117.2754199258302066
 31
0.0
  0
ARC
  5
115C1
  8
0
 10
4347.5060828662390122
 20
117.3903199258301981
 30
0.0
 40
0.1149
 50
270.0
 51
0.0000134715521164
  0
ARC
  5
115C2
  8
0
 10
4323.6758144042260028
 20
133.009625160271014
 30
0.0
 40
0.7003982067322209
 50
33.8198452758771708
 51
51.5593505658721867
  0
ARC
  5
115C3
  8
0
 10
4337.1261857932368002
 20
131.680125186346686
 30
0.0
 40
1.9699344623637769
 50
108.3597326297893062
 51
117.2811435972276968
  0
ARC
  5
115C4
  8
0
 10
4339.8191034682376994
 20
133.4614472338201949
 30
0.0
 40
1.4851707398820999
 50
176.1758688101378993
 51
180.7648312282701113
  0
LINE
  5
115C5
  8
0
 10
4322.0431953723082188
 20
132.451958024154294
 30
0.0
 11
4347.6209793249017821
 21
132.451958024154294
 31
0.0
  0
LINE
  5
115C6
  8
0
 10
4337.7758058663557676
 20
133.9861144011802025
 30
0.0
 11
4322.093356124040838
 21
133.9861144011802025
 31
0.0
  0
ARC
  5
115C8
  8
0
 10
4362.376438012573999
 20
-132.7736820597197038
 30
0.0
 40
267.9970823990042277
 50
95.0685919321617945
 51
95.137614371938966
  0
ARC
  5
115C9
  8
0
 10
4338.8610260581899638
 20
133.8497798859233967
 30
0.0
 40
0.5073699020110897
 50
11.2491143231747603
 51
26.8032202078891189
  0
LINE
  5
115CA
  8
0
 10
4322.0219665179529329
 20
134.4069358578020967
 30
0.0
 11
4322.0189512719516642
 21
134.2893360816021016
 31
0.0
  0
ENDSEC
  0
EOF
