  0
SECTION
  2
HEADER
  9
$ACADVER
  1
AC1009
  9
$INSBASE
 10
4346.2950795033148097
 20
110.2118535202055938
 30
0.0
  9
$EXTMIN
 10
4338.5160371100573684
 20
110.2024609775648969
 30
-0.0000000349181948
  9
$EXTMAX
 10
4354.1298527757116972
 20
141.1378827588669083
 30
0.0000000814935746
  9
$LIMMIN
 10
0.0
 20
0.0
  9
$LIMMAX
 10
11.6929133858000007
 20
8.2677165353999982
  9
$ORTHOMODE
 70
     0
  9
$REGENMODE
 70
     1
  9
$FILLMODE
 70
     1
  9
$QTEXTMODE
 70
     0
  9
$MIRRTEXT
 70
     0
  9
$DRAGMODE
 70
     2
  9
$LTSCALE
 40
0.6431102362
  9
$OSMODE
 70
  4095
  9
$ATTMODE
 70
     1
  9
$TEXTSIZE
 40
0.2
  9
$TRACEWID
 40
0.05
  9
$TEXTSTYLE
  7
STANDARD
  9
$CLAYER
  8
0
  9
$CELTYPE
  6
BYLAYER
  9
$CECOLOR
 62
   256
  9
$DIMSCALE
 40
1.0
  9
$DIMASZ
 40
0.1875
  9
$DIMEXO
 40
0.0625
  9
$DIMDLI
 40
0.4443307087
  9
$DIMRND
 40
0.0
  9
$DIMDLE
 40
0.0
  9
$DIMEXE
 40
0.125
  9
$DIMTP
 40
0.01
  9
$DIMTM
 40
0.01
  9
$DIMTXT
 40
2.0
  9
$DIMCEN
 40
0.1052362205
  9
$DIMTSZ
 40
0.0
  9
$DIMTOL
 70
     1
  9
$DIMLIM
 70
     0
  9
$DIMTIH
 70
     1
  9
$DIMTOH
 70
     1
  9
$DIMSE1
 70
     0
  9
$DIMSE2
 70
     0
  9
$DIMTAD
 70
     0
  9
$DIMZIN
 70
     0
  9
$DIMBLK
  1

  9
$DIMASO
 70
     1
  9
$DIMSHO
 70
     1
  9
$DIMPOST
  1
\X
  9
$DIMAPOST
  1

  9
$DIMALT
 70
     1
  9
$DIMALTD
 70
     2
  9
$DIMALTF
 40
25.3999999999999986
  9
$DIMLFAC
 40
1.0
  9
$DIMTOFL
 70
     0
  9
$DIMTVP
 40
0.0
  9
$DIMTIX
 70
     0
  9
$DIMSOXD
 70
     0
  9
$DIMSAH
 70
     0
  9
$DIMBLK1
  1

  9
$DIMBLK2
  1

  9
$DIMSTYLE
  2
STANDARD
  9
$DIMCLRD
 70
     0
  9
$DIMCLRE
 70
     0
  9
$DIMCLRT
 70
     0
  9
$DIMTFAC
 40
1.0
  9
$DIMGAP
 40
0.09
  9
$LUNITS
 70
     2
  9
$LUPREC
 70
     4
  9
$SKETCHINC
 40
0.1
  9
$FILLETRAD
 40
0.0
  9
$AUNITS
 70
     0
  9
$AUPREC
 70
     0
  9
$MENU
  1
.
  9
$ELEVATION
 40
0.0
  9
$PELEVATION
 40
0.0
  9
$THICKNESS
 40
0.0
  9
$LIMCHECK
 70
     0
  9
$BLIPMODE
 70
     0
  9
$CHAMFERA
 40
0.0
  9
$CHAMFERB
 40
0.0
  9
$SKPOLY
 70
     0
  9
$TDCREATE
 40
2458060.468368056230247
  9
$TDUPDATE
 40
2459776.8320023152045906
  9
$TDINDWG
 40
0.404046412
  9
$TDUSRTIMER
 40
0.404046412
  9
$USRTIMER
 70
     1
  9
$ANGBASE
 50
0.0
  9
$ANGDIR
 70
     0
  9
$PDMODE
 70
     0
  9
$PDSIZE
 40
0.3125
  9
$PLINEWID
 40
0.0
  9
$COORDS
 70
     1
  9
$SPLFRAME
 70
     0
  9
$SPLINETYPE
 70
     6
  9
$SPLINESEGS
 70
     8
  9
$ATTDIA
 70
     1
  9
$ATTREQ
 70
     1
  9
$HANDLING
 70
     1
  9
$HANDSEED
  5
1188E
  9
$SURFTAB1
 70
     6
  9
$SURFTAB2
 70
     6
  9
$SURFTYPE
 70
     6
  9
$SURFU
 70
     6
  9
$SURFV
 70
     6
  9
$UCSNAME
  2

  9
$UCSORG
 10
0.0
 20
0.0
 30
0.0
  9
$UCSXDIR
 10
1.0
 20
0.0
 30
0.0
  9
$UCSYDIR
 10
0.0
 20
1.0
 30
0.0
  9
$PUCSNAME
  2

  9
$PUCSORG
 10
0.0
 20
0.0
 30
0.0
  9
$PUCSXDIR
 10
1.0
 20
0.0
 30
0.0
  9
$PUCSYDIR
 10
0.0
 20
1.0
 30
0.0
  9
$USERI1
 70
     0
  9
$USERI2
 70
     0
  9
$USERI3
 70
     0
  9
$USERI4
 70
     0
  9
$USERI5
 70
     0
  9
$USERR1
 40
0.0
  9
$USERR2
 40
0.0
  9
$USERR3
 40
0.0
  9
$USERR4
 40
0.0
  9
$USERR5
 40
0.0
  9
$WORLDVIEW
 70
     1
  9
$SHADEDGE
 70
     3
  9
$SHADEDIF
 70
    70
  9
$TILEMODE
 70
     1
  9
$MAXACTVP
 70
    64
  9
$PLIMCHECK
 70
     0
  9
$PEXTMIN
 10
1.0000000000000000E+20
 20
1.0000000000000000E+20
 30
1.0000000000000000E+20
  9
$PEXTMAX
 10
-1.0000000000000000E+20
 20
-1.0000000000000000E+20
 30
-1.0000000000000000E+20
  9
$PLIMMIN
 10
0.0
 20
0.0
  9
$PLIMMAX
 10
12.0
 20
9.0
  9
$UNITMODE
 70
     0
  9
$VISRETAIN
 70
     1
  9
$PLINEGEN
 70
     0
  9
$PSLTSCALE
 70
     1
  0
ENDSEC
  0
SECTION
  2
TABLES
  0
TABLE
  2
VPORT
 70
     1
  0
VPORT
  2
*ACTIVE
 70
     0
 10
0.0
 20
0.0
 11
1.0
 21
1.0
 12
81.3165972866345328
 22
21.3661595696319715
 13
0.0
 23
0.0
 14
1.0
 24
1.0
 15
0.0
 25
0.0
 16
0.0
 26
0.0
 36
122.0237731519760018
 17
4265.00634765625
 27
104.3040122985839986
 37
0.0
 40
31.1291718133352191
 41
2.005224660397074
 42
50.0
 43
0.0
 44
0.0
 50
0.0
 51
0.0
 71
     0
 72
   100
 73
     1
 74
     1
 75
     0
 76
     0
 77
     0
 78
     0
  0
ENDTAB
  0
TABLE
  2
LTYPE
 70
     2
  0
LTYPE
  2
CONTINUOUS
 70
     0
  3
Solid line
 72
    65
 73
     0
 40
0.0
  0
LTYPE
  2
PHANTOM2
 70
     0
  3
___ _ _ ___ _ _ ___ _ _ ___ _ _
 72
    65
 73
     6
 40
1.25
 49
0.625
 49
-0.125
 49
0.125
 49
-0.125
 49
0.125
 49
-0.125
  0
ENDTAB
  0
TABLE
  2
LAYER
 70
     2
  0
LAYER
  2
0
 70
     0
 62
   255
  6
CONTINUOUS
  0
LAYER
  2
DEFPOINTS
 70
     0
 62
     7
  6
CONTINUOUS
  0
ENDTAB
  0
TABLE
  2
STYLE
 70
     1
  0
STYLE
  2
STANDARD
 70
     0
 40
0.0
 41
0.8
 50
0.0
 71
     0
 42
0.2
  3
txt
  4

  0
ENDTAB
  0
TABLE
  2
VIEW
 70
     0
  0
ENDTAB
  0
TABLE
  2
UCS
 70
     0
  0
ENDTAB
  0
TABLE
  2
APPID
 70
     9
  0
APPID
  2
ACAD
 70
     0
  0
APPID
  2
ACAD_MLEADERVER
 70
     0
  0
APPID
  2
ACAD_EXEMPT_FROM_CAD_STANDARDS
 70
     0
  0
APPID
  2
ACAD_NAV_VCDISPLAY
 70
     0
  0
APPID
  2
ACAECLAYERSTANDARD
 70
     0
  0
APPID
  2
ACCMTRANSPARENCY
 70
     0
  0
APPID
  2
ACAD_DSTYLE_DIMJAG
 70
     0
  0
APPID
  2
ACAD_DSTYLE_DIMTALN
 70
     0
  0
APPID
  2
ACDBATTR
 70
     0
  0
ENDTAB
  0
TABLE
  2
DIMSTYLE
 70
     1
  0
DIMSTYLE
  2
STANDARD
 70
     0
  3

  4

  5

  6

  7

 40
1.0
 41
0.1875
 42
0.0625
 43
0.38
 44
0.125
 45
0.0
 46
0.0
 47
0.01
 48
0.01
140
0.15625
141
0.09
142
0.0
143
25.3999999999999986
144
1.0
145
0.0
146
1.0
147
0.09
 71
     1
 72
     0
 73
     1
 74
     1
 75
     0
 76
     0
 77
     0
 78
     4
170
     0
171
     2
172
     0
173
     0
174
     0
175
     0
176
     0
177
     0
178
     0
  0
ENDTAB
  0
ENDSEC
  0
SECTION
  2
BLOCKS
  0
BLOCK
  8
0
  2
$MODEL_SPACE
 70
     0
 10
0.0
 20
0.0
 30
0.0
  3
$MODEL_SPACE
  1

  0
ENDBLK
  5
21
  8
0
  0
BLOCK
 67
     1
  8
0
  2
$PAPER_SPACE
 70
     0
 10
0.0
 20
0.0
 30
0.0
  3
$PAPER_SPACE
  1

  0
ENDBLK
  5
1D
 67
     1
  8
0
  0
ENDSEC
  0
SECTION
  2
ENTITIES
  0
ATTDEF
  5
FDB2
  8
DEFPOINTS
 10
4346.289833476921558
 20
110.2097693666704998
 30
0.0
 40
0.001
  1
K-78799K
  3

  2
MODELNUMBER
 70
     0
1001
ACDBATTR
1070
     0
1070
     1
  0
ATTDEF
  5
FDB3
  8
DEFPOINTS
 10
4346.289833476921558
 20
110.2081027000038063
 30
0.0
 40
0.001
  1

  3

  2
TRADENAME
 70
     0
1001
ACDBATTR
1070
     0
1070
     1
  0
ATTDEF
  5
FDB4
  8
DEFPOINTS
 10
4346.289833476921558
 20
110.2064360333370985
 30
0.0
 40
0.001
  1
TOILET
  3

  2
PRODUCT
 70
     0
1001
ACDBATTR
1070
     0
1070
     1
  0
LINE
  5
116FE
  8
0
 10
4341.3363013147536549
 20
110.2118535202055938
 30
0.0
 11
4346.2950795033148097
 21
110.2118535202055938
 31
0.0
  0
LINE
  5
116FF
  8
0
 10
4338.6499852442830161
 20
141.1291891662555997
 30
0.0
 11
4353.9401737623447843
 21
141.1291891662555997
 31
0.0
  0
LINE
  5
11700
  8
0
 10
4338.6482268782219762
 20
140.833914435105612
 30
0.0
 11
4353.9419321284076432
 21
140.833914435105612
 31
0.0
  0
LINE
  5
11701
  8
0
 10
4338.6728470589960125
 20
140.5976176272548912
 30
0.0
 11
4353.9173119476336069
 21
140.5976176272548912
 31
0.0
  0
LINE
  5
11702
  8
0
 10
4339.1632744225871647
 20
127.7469572996556053
 30
0.0
 11
4353.4268959968030686
 21
127.7469602442385934
 31
0.0
  0
ARC
  5
11703
  8
0
 10
4338.6572330843164309
 20
141.0097056530827899
 30
0.0
 40
0.1197031374077525
 50
93.4712941641869008
 51
155.6512789073447038
  0
ARC
  5
11704
  8
0
 10
4338.6548353808775573
 20
141.0107020811454106
 30
0.0
 40
0.1171079137473185
 50
155.6117722074554024
 51
179.8152024248128953
  0
ARC
  5
11705
  8
0
 10
4338.6566990631326917
 20
140.9525846985779935
 30
0.0
 40
0.1189723049695504
 50
180.2697040449851045
 51
265.9164307680733259
  0
ARC
  5
11706
  8
0
 10
4338.9157903583018197
 20
140.7545337478755982
 30
0.0
 40
0.0799243605453465
 50
96.6867262926156741
 51
174.6353676457179063
  0
ARC
  5
11707
  8
0
 10
4342.9456908189358728
 20
140.376105663658393
 30
0.0
 40
4.1275539801551204
 50
174.6353676457179063
 51
175.4240769471317094
  0
ARC
  5
11708
  8
0
 10
4338.7143727723396296
 20
140.7147598872095102
 30
0.0
 40
0.1172945559620964
 50
272.8361570865919248
 51
355.4240769471325052
  0
ARC
  5
11709
  8
0
 10
4338.6753098985400356
 20
140.5193842418732117
 30
0.0
 40
0.0782721417038803
 50
91.8031141512428377
 51
182.7696155804507043
  0
ARC
  5
1170A
  8
0
 10
103600.331960313997115
 20
4200.2023011793880869
 30
0.0
 40
99344.7183184872701531
 50
182.342023860453196
 51
182.3493614951597124
  0
ARC
  5
1170B
  8
0
 10
4339.1784054754407407
 20
127.8056265778170939
 30
0.0
 40
0.0605890498391395
 50
181.9228948668502994
 51
255.5383185046902099
  0
ARC
  5
1170C
  8
0
 10
4339.3562034127871812
 20
127.6217895535839943
 30
0.0
 40
0.1261003972457204
 50
96.9727976312532149
 51
147.3626369694802065
  0
ARC
  5
1170D
  8
0
 10
4339.3405036808962905
 20
127.631842640471902
 30
0.0
 40
0.1074578079701716
 50
147.3618549304235046
 51
180.5815983619235965
  0
ARC
  5
1170E
  8
0
 10
4370.0920452182353984
 20
126.2436584198821947
 30
0.0
 40
30.8901525922289686
 50
177.4263211139576981
 51
177.5290956586736115
  0
ARC
  5
1170F
  8
0
 10
4345.1939399843931824
 20
127.0334745792993942
 30
0.0
 40
5.9879001643163914
 50
174.8074673676630084
 51
178.3049351417801063
  0
ARC
  5
11710
  8
0
 10
4369.9272707659010848
 20
127.1103848530672025
 30
0.0
 40
30.7187741712371611
 50
179.8130858127778993
 51
180.4989878759014914
  0
ARC
  5
11711
  8
0
 10
4345.6010222389786577
 20
-549.8503291566735243
 30
0.0
 40
676.2032652115567544
 50
89.9411914124087843
 51
90.3478243406494954
  0
ARC
  5
11712
  8
0
 10
4344.5833085281456079
 20
-395.6955053277694105
 30
0.0
 40
522.0451101640794604
 50
90.3388382296068215
 51
90.5419455424450064
  0
ARC
  5
11713
  8
0
 10
4339.5964774751855657
 20
131.50848291453201
 30
0.0
 40
5.1824628084834474
 50
268.9050805365425845
 51
270.5419455424450916
  0
ARC
  5
11714
  8
0
 10
4428.0820572532047663
 20
125.1891109287609964
 30
0.0
 40
88.8877809507470715
 50
178.9339565621540089
 51
179.5775997063340981
  0
ARC
  5
11715
  8
0
 10
4292.8086861219298953
 20
129.0542836809318885
 30
0.0
 40
46.4989286086512408
 50
355.4793437809810257
 51
356.0416597378120969
  0
ARC
  5
11716
  8
0
 10
4341.7996468311148419
 20
125.1265568189404007
 30
0.0
 40
2.6497505367652039
 50
174.3091576812504968
 51
204.0267288224058007
  0
ARC
  5
11717
  8
0
 10
4339.6945946687856122
 20
126.1416979800891056
 30
0.0
 40
0.500893976072592
 50
139.9587562930217075
 51
170.6995644654330135
  0
ARC
  5
11718
  8
0
 10
4341.9916386037712073
 20
131.7371020486453119
 30
0.0
 40
5.909120789939962
 50
244.2301560698784044
 51
246.3067546115252071
  0
ARC
  5
11719
  8
0
 10
4338.7790583022278952
 20
125.0826245866934983
 30
0.0
 40
1.4802460628756999
 50
64.2301560698784328
 51
68.9341276501850331
  0
ARC
  5
1171A
  8
0
 10
4339.4895700508113805
 20
126.9272294313446992
 30
0.0
 40
0.4964668595753938
 50
241.3637110800804919
 51
248.9341276501851041
  0
ARC
  5
1171B
  8
0
 10
4339.2947154117200625
 20
126.5703786967695947
 30
0.0
 40
0.0898825790847173
 50
182.8074816567942946
 51
241.3637110800804919
  0
ARC
  5
1171C
  8
0
 10
4276.2114410680133005
 20
78.4791445737505455
 30
0.0
 40
79.6312864791240855
 50
36.9331991157535313
 51
36.9838874588612612
  0
ARC
  5
1171D
  8
0
 10
4339.9076255966374447
 20
126.5923558483106035
 30
0.0
 40
0.2250156406292253
 50
238.2722688793097916
 51
247.4373259111604
  0
ARC
  5
1171E
  8
0
 10
4339.8000133826653837
 20
126.4193239689446955
 30
0.0
 40
0.0212574954607167
 50
182.9187997122554918
 51
239.7162994378784902
  0
ARC
  5
1171F
  8
0
 10
4339.8300961059367182
 20
126.3914871583626933
 30
0.0
 40
0.0578686723741524
 50
113.4663950974615005
 51
152.4625039697191085
  0
ARC
  5
11720
  8
0
 10
4339.9103189264405955
 20
126.2014106095763992
 30
0.0
 40
0.2641786983283824
 50
94.2598303039006851
 51
113.0103506260950041
  0
ARC
  5
11721
  8
0
 10
4339.8672469677758272
 20
124.1255694505392029
 30
0.0
 40
2.3394075739180571
 50
83.4263186069976115
 51
89.4256905002459064
  0
ARC
  5
11722
  8
0
 10
4339.2440090122463516
 20
118.2674884884733046
 30
0.0
 40
8.2304842415644117
 50
81.715666104122235
 51
83.7848165780953877
  0
ARC
  5
11723
  8
0
 10
4340.3672513475248707
 20
126.0073397210992994
 30
0.0
 40
0.4095700796978686
 50
66.0251888607294433
 51
81.2008794888221246
  0
ARC
  5
11724
  8
0
 10
4340.4478533129868083
 20
126.2695870418768038
 30
0.0
 40
0.1410894247248605
 50
27.2568931544666384
 51
52.5353690854235396
  0
ARC
  5
11725
  8
0
 10
4339.8891293949800456
 20
126.0330596407945052
 30
0.0
 40
0.4318027030117195
 50
89.7921482024013642
 51
101.2334731308714026
  0
ARC
  5
11726
  8
0
 10
4339.8165576200190117
 20
126.3984533917931969
 30
0.0
 40
0.0592718240367266
 50
101.2334731308714026
 51
129.308955959839011
  0
LINE
  5
11727
  8
0
 10
4339.779008811343374
 20
126.4443144438055953
 30
0.0
 11
4339.7787834644868781
 21
126.4182415237980024
 31
0.0
  0
ARC
  5
11728
  8
0
 10
4342.1220235213413616
 20
125.359088837566901
 30
0.0
 40
1.6567488007807769
 50
136.9097919613587919
 51
143.8769407622953906
  0
ARC
  5
11729
  8
0
 10
4342.5761801539820226
 20
132.5478415659169968
 30
0.0
 40
6.2813731187803166
 50
254.6379503357094904
 51
261.1563635138375048
  0
LINE
  5
1172A
  8
0
 10
4353.3374257825007589
 20
126.490895086852106
 30
0.0
 11
4339.2526727747235782
 21
126.490895086852106
 31
0.0
  0
ARC
  5
1172B
  8
0
 10
4339.4863179748854236
 20
126.0064074150148059
 30
0.0
 40
0.3207520791297759
 50
88.0116468314218565
 51
141.0749737349136126
  0
ARC
  5
1172C
  8
0
 10
4339.3746186136277174
 20
126.0965684546413996
 30
0.0
 40
0.1772050217571139
 50
141.0625057550099086
 51
171.9359447968008112
  0
ARC
  5
1172D
  8
0
 10
4341.3254280338996978
 20
110.3266323564260034
 30
0.0
 40
0.115292712174979
 50
177.9008674936505088
 51
275.4116199849586906
  0
ARC
  5
1172E
  8
0
 10
3651.8931278437257788
 20
133.0588989486192872
 30
0.0
 40
689.6916756238616699
 50
358.1115376207562235
 51
358.557729506538692
  0
ARC
  5
1172F
  8
0
 10
4324.6045587497283123
 20
116.6851869869695975
 30
0.0
 40
16.7906988744485197
 50
356.6347560384500071
 51
6.4728116510140579
  0
ARC
  5
11730
  8
0
 10
4329.2384422768318473
 20
116.3237915777853999
 30
0.0
 40
12.2588275579855992
 50
10.5962529729479193
 51
23.1124665011688002
  0
ARC
  5
11731
  8
0
 10
4199.4952251425220311
 20
68.3729289519510246
 30
0.0
 40
150.5565773281153952
 50
21.1190850875987692
 51
21.7028433079856917
  0
ARC
  5
11732
  8
0
 10
5983.8350492983981894
 20
757.5753083176457494
 30
0.0
 40
1762.2603317857578986
 50
201.1190850875979947
 51
201.1708086819587891
  0
ARC
  5
11733
  8
0
 10
4338.9668200602664001
 20
124.3031650311835961
 30
0.0
 40
2.260719356678301
 50
68.9226969289713338
 51
75.4011263684471942
  0
LINE
  5
11734
  8
0
 10
4338.5377280762513692
 20
141.0110797917056118
 30
0.0
 11
4338.5377280762513692
 21
140.95202467140561
 31
0.0
  0
ARC
  5
11735
  8
0
 10
4335.9518068085053528
 20
111.390169223332407
 30
0.0
 40
5.460631429568962
 50
354.3604139314152803
 51
5.697138430925123
  0
ARC
  5
11736
  8
0
 10
4343.4203867896776501
 20
111.3939202365922938
 30
0.0
 40
2.1049226271039578
 50
165.1821890512090931
 51
194.8753633111253976
  0
LINE
  5
11737
  8
0
 10
4339.2908493770519271
 20
126.9225601893363944
 30
0.0
 11
4350.5865264064150324
 21
126.9225601893363944
 31
0.0
  0
ARC
  5
11738
  8
0
 10
4339.2908686107211906
 20
126.8413388956388985
 30
0.0
 40
0.0812212959747199
 50
90.0135679697676352
 51
178.9278156539621989
  0
LINE
  5
11739
  8
0
 10
4351.253857691875055
 20
110.2118535202055938
 30
0.0
 11
4346.2950795033148097
 21
110.2118535202055938
 31
0.0
  0
ARC
  5
1173A
  8
0
 10
4353.9329259223131885
 20
141.0097056530827899
 30
0.0
 40
0.1197031374077525
 50
24.3487210926552997
 51
86.5287058358130849
  0
ARC
  5
1173B
  8
0
 10
4353.9353236257502431
 20
141.0107020811454106
 30
0.0
 40
0.1171079137473185
 50
0.1847975751871024
 51
24.3882277925445408
  0
ARC
  5
1173C
  8
0
 10
4353.9334599434978372
 20
140.9525846985779935
 30
0.0
 40
0.1189723049695504
 50
274.0835692319266741
 51
359.7302959550140145
  0
ARC
  5
1173D
  8
0
 10
4353.6743686483268903
 20
140.7545337478755982
 30
0.0
 40
0.0799243605453465
 50
5.3646323542820351
 51
83.3132737073843259
  0
ARC
  5
1173E
  8
0
 10
4349.6444681876928371
 20
140.376105663658393
 30
0.0
 40
4.1275539801551204
 50
4.5759230528682844
 51
5.3646323542820351
  0
ARC
  5
1173F
  8
0
 10
4353.8757862342890803
 20
140.7147598872095102
 30
0.0
 40
0.1172945559620964
 50
184.5759230528674095
 51
267.1638429134080752
  0
ARC
  5
11740
  8
0
 10
4353.9148491080886743
 20
140.5193842418732117
 30
0.0
 40
0.0782721417038803
 50
357.2303844195492957
 51
88.1968858487571623
  0
ARC
  5
11741
  8
0
 10
-94907.7418013073765906
 20
4200.2023011793880869
 30
0.0
 40
99344.7183184872701531
 50
357.6506385048393781
 51
357.657976139546804
  0
ARC
  5
11742
  8
0
 10
4399.7814728846997241
 20
129.0542836809318885
 30
0.0
 40
46.4989286086512408
 50
183.9583402621877894
 51
184.5206562190190027
  0
ARC
  5
11743
  8
0
 10
4350.7905121755147775
 20
125.1265568189404007
 30
0.0
 40
2.6497505367652039
 50
335.9732711775940857
 51
5.6908423187495281
  0
ARC
  5
11744
  8
0
 10
4351.2647309727299216
 20
110.3266323564260034
 30
0.0
 40
0.115292712174979
 50
264.5883800150413094
 51
2.0991325063495099
  0
ARC
  5
11745
  8
0
 10
5040.6970311629038406
 20
133.0588989486192872
 30
0.0
 40
689.6916756238616699
 50
181.4422704934605122
 51
181.8884623792436912
  0
ARC
  5
11746
  8
0
 10
4367.9856002569031261
 20
116.6851869869695975
 30
0.0
 40
16.7906988744485197
 50
173.5271883489859022
 51
183.3652439615499077
  0
ARC
  5
11747
  8
0
 10
4363.3517167297968626
 20
116.3237915777853999
 30
0.0
 40
12.2588275579855992
 50
156.8875334988312034
 51
169.4037470270519918
  0
ARC
  5
11748
  8
0
 10
4493.0949338641075883
 20
68.3729289519510246
 30
0.0
 40
150.5565773281153952
 50
158.2971566920143118
 51
158.8809149124020053
  0
ARC
  5
11749
  8
0
 10
2708.7551097082341585
 20
757.5753083176457494
 30
0.0
 40
1762.2603317857578986
 50
338.8291913180411825
 51
338.880914912401181
  0
LINE
  5
1174A
  8
0
 10
4354.0524309303782502
 20
141.0110797917056118
 30
0.0
 11
4354.0524309303782502
 21
140.95202467140561
 31
0.0
  0
ARC
  5
1174B
  8
0
 10
4356.6383521981251761
 20
111.390169223332407
 30
0.0
 40
5.460631429568962
 50
174.3028615690749064
 51
185.6395860685846912
  0
ARC
  5
1174C
  8
0
 10
4349.1697722169519693
 20
111.3939202365922938
 30
0.0
 40
2.1049226271039578
 50
345.1246366888746024
 51
14.8178109487908891
  0
LINE
  5
1174E
  8
0
 10
4353.3811892272296973
 20
126.9415986078754059
 30
0.0
 11
4339.2089824933564159
 21
126.9415986078754059
 31
0.0
  0
LINE
  5
1174F
  8
0
 10
4353.2993096295786017
 20
126.922560189314197
 30
0.0
 11
4339.2908493770519271
 21
126.922560189314197
 31
0.0
  0
LINE
  5
11750
  8
0
 10
4339.2943644378146928
 20
127.4200914037754018
 30
0.0
 11
4353.2957945688149266
 21
127.4200914037754018
 31
0.0
  0
ARC
  5
11751
  8
0
 10
4339.2966930657939884
 20
127.3369949077329011
 30
0.0
 40
0.0831291174186753
 50
91.6051897861185864
 51
172.3039514606444982
  0
LINE
  5
11752
  8
0
 10
4339.7721276346137529
 20
126.9225601261140071
 30
0.0
 11
4339.5621788588969139
 21
126.9415986078754059
 31
0.0
  0
LINE
  5
11753
  8
0
 10
4340.7654153660050724
 20
126.9225601893363944
 30
0.0
 11
4340.7879209626280499
 21
126.9415997023055951
 31
0.0
  0
ARC
  5
11754
  8
0
 10
4342.0747860069450326
 20
127.1849222770555059
 30
0.0
 40
0.2718394238763949
 50
243.520854968629493
 51
254.8261965108958123
  0
LINE
  5
11755
  8
0
 10
4342.5942921019150162
 20
126.9415997023055951
 30
0.0
 11
4342.5942926552052086
 21
126.9225601893363944
 31
0.0
  0
LINE
  5
11756
  8
0
 10
4342.5549220232142034
 20
126.9415997023055951
 30
0.0
 11
4342.5549220232142034
 21
126.9225601893363944
 31
0.0
  0
LINE
  5
11757
  8
0
 10
4342.0036326002136775
 20
126.922560189314197
 30
0.0
 11
4342.0036326002136775
 21
126.9415997023055951
 31
0.0
  0
LINE
  5
11758
  8
0
 10
4342.0211126917138245
 20
126.9225601893363944
 30
0.0
 11
4342.0211126917138245
 21
126.9415997023055951
 31
0.0
  0
ARC
  5
11759
  8
0
 10
4353.4117535311888787
 20
127.8056265778170939
 30
0.0
 40
0.0605890498391395
 50
284.4728273538348731
 51
358.0771051331504964
  0
ARC
  5
1175A
  8
0
 10
4353.2339555938433477
 20
127.6217895535839943
 30
0.0
 40
0.1261003972457204
 50
32.6373630305197722
 51
83.0272023687468135
  0
ARC
  5
1175B
  8
0
 10
4353.2496553257342384
 20
127.631842640471902
 30
0.0
 40
0.1074578079701716
 50
359.4184016380764888
 51
32.6381450695764883
  0
ARC
  5
1175C
  8
0
 10
4322.4981137883951305
 20
126.2436584198821947
 30
0.0
 40
30.8901525922289686
 50
2.4709043413255252
 51
2.573678886042309
  0
ARC
  5
1175D
  8
0
 10
4347.3962190222373465
 20
127.0334745792993942
 30
0.0
 40
5.9879001643163914
 50
1.6950648582198911
 51
5.1925326323369401
  0
ARC
  5
1175E
  8
0
 10
4322.6628882407276251
 20
127.1103848530672025
 30
0.0
 40
30.7187741712371611
 50
359.5010121240985086
 51
0.1869141872221064
  0
ARC
  5
1175F
  8
0
 10
4346.9891367676500522
 20
-549.8503291566735243
 30
0.0
 40
676.2032652115567544
 50
89.652175659350533
 51
90.0588085875912014
  0
ARC
  5
11760
  8
0
 10
4348.006850478484921
 20
-395.6955053277694105
 30
0.0
 40
522.0451101640794604
 50
89.4580544575549794
 51
89.6611617703931643
  0
ARC
  5
11761
  8
0
 10
4352.9936815314440537
 20
131.50848291453201
 30
0.0
 40
5.1824628084834474
 50
269.4580544575550221
 51
271.0949194634574155
  0
ARC
  5
11762
  8
0
 10
4264.5081017534257626
 20
125.1891109287609964
 30
0.0
 40
88.8877809507470715
 50
0.4224002936658556
 51
1.0660434378460231
  0
ARC
  5
11763
  8
0
 10
4352.8955643378430977
 20
126.1416979800891056
 30
0.0
 40
0.500893976072592
 50
9.3004355345678054
 51
40.0412437069782925
  0
ARC
  5
11764
  8
0
 10
4350.5985204028584121
 20
131.7371020486453119
 30
0.0
 40
5.909120789939962
 50
293.6932453884746792
 51
295.769843930121624
  0
ARC
  5
11765
  8
0
 10
4353.8111007044008147
 20
125.0826245866934983
 30
0.0
 40
1.4802460628756999
 50
111.0658723498148959
 51
115.7698439301214961
  0
ARC
  5
11766
  8
0
 10
4353.1005889558191484
 20
126.9272294313446992
 30
0.0
 40
0.4964668595753938
 50
291.0658723498149243
 51
298.6362889199194228
  0
ARC
  5
11767
  8
0
 10
4353.2954435949086474
 20
126.5703786967695947
 30
0.0
 40
0.0898825790847173
 50
298.6362889199194228
 51
357.192518343205677
  0
ARC
  5
11768
  8
0
 10
4416.3787179386181379
 20
78.4791445737505455
 30
0.0
 40
79.6312864791240855
 50
143.0161125411387104
 51
143.0668008842465042
  0
ARC
  5
11769
  8
0
 10
4352.6825334099921747
 20
126.5923558483106035
 30
0.0
 40
0.2250156406292253
 50
292.5626740888395716
 51
301.72773112069018
  0
ARC
  5
1176A
  8
0
 10
4352.7901456239651452
 20
126.4193239689446955
 30
0.0
 40
0.0212574954607167
 50
300.2837005621215098
 51
357.0812002877444797
  0
ARC
  5
1176B
  8
0
 10
4352.7600629006929012
 20
126.3914871583626933
 30
0.0
 40
0.0578686723741524
 50
27.5374960302808915
 51
66.5336049025384852
  0
ARC
  5
1176C
  8
0
 10
4352.6798400801872049
 20
126.2014106095763992
 30
0.0
 40
0.2641786983283824
 50
66.9896493739049248
 51
85.7401696960993291
  0
ARC
  5
1176D
  8
0
 10
4352.7229120388537922
 20
124.1255694505392029
 30
0.0
 40
2.3394075739180571
 50
90.5743094997540936
 51
96.5736813930024027
  0
ARC
  5
1176E
  8
0
 10
4353.3461499943823583
 20
118.2674884884733046
 30
0.0
 40
8.2304842415644117
 50
96.2151834219046265
 51
98.2843338958777508
  0
ARC
  5
1176F
  8
0
 10
4352.2229076591038393
 20
126.0073397210992994
 30
0.0
 40
0.4095700796978686
 50
98.7991205111778612
 51
113.9748111392702015
  0
ARC
  5
11770
  8
0
 10
4352.1423056936419016
 20
126.2695870418768038
 30
0.0
 40
0.1410894247248605
 50
127.4646309145764036
 51
152.7431068455339869
  0
ARC
  5
11771
  8
0
 10
4352.7010296116486643
 20
126.0330596407945052
 30
0.0
 40
0.4318027030117195
 50
78.7665268691285405
 51
90.2078517975986642
  0
ARC
  5
11772
  8
0
 10
4352.7736013866096982
 20
126.3984533917931969
 30
0.0
 40
0.0592718240367266
 50
50.6910440401610103
 51
78.7665268691285405
  0
LINE
  5
11773
  8
0
 10
4352.8111501952862454
 20
126.4443144438055953
 30
0.0
 11
4352.8113755421418318
 21
126.4182415237980024
 31
0.0
  0
ARC
  5
11774
  8
0
 10
4350.4681354852882578
 20
125.359088837566901
 30
0.0
 40
1.6567488007807769
 50
36.1230592377045525
 51
43.0902080386412081
  0
ARC
  5
11775
  8
0
 10
4350.0139788526494158
 20
132.5478415659169968
 30
0.0
 40
6.2813731187803166
 50
278.8436364861623815
 51
285.3620496642906232
  0
ARC
  5
11776
  8
0
 10
4353.1038410317451053
 20
126.0064074150148059
 30
0.0
 40
0.3207520791297733
 50
38.9250262650863732
 51
91.9883531685781293
  0
ARC
  5
11777
  8
0
 10
4353.2155403930009925
 20
126.0965684546413996
 30
0.0
 40
0.1772050217571139
 50
8.0640552031992119
 51
38.9374942449900487
  0
ARC
  5
11778
  8
0
 10
4353.6233389463641288
 20
124.3031650311835961
 30
0.0
 40
2.260719356678301
 50
104.5988736315528058
 51
111.0773030710285951
  0
ARC
  5
11779
  8
0
 10
4353.2992903959084288
 20
126.8413388956388985
 30
0.0
 40
0.0812212959747204
 50
1.072184346037816
 51
89.9864320302323648
  0
ARC
  5
1177A
  8
0
 10
4353.2928485564725634
 20
127.3363081386479934
 30
0.0
 40
0.0838350434134092
 50
8.1046804860694195
 51
87.9861782671715247
  0
LINE
  5
1177B
  8
0
 10
4352.8180806093632782
 20
126.922560189314197
 30
0.0
 11
4353.0279680822768569
 21
126.9415986078754059
 31
0.0
  0
LINE
  5
1177C
  8
0
 10
4351.8235123977137846
 20
126.9236018087055982
 30
0.0
 11
4351.80223804400066
 21
126.9415997023055951
 31
0.0
  0
ARC
  5
1177D
  8
0
 10
4350.5153730005658872
 20
127.1849222750404067
 30
0.0
 40
0.2718394216790922
 50
285.1738034219897031
 51
296.4786276952683011
  0
LINE
  5
1177E
  8
0
 10
4349.9958669047136937
 20
126.9415997023055951
 30
0.0
 11
4349.9958663526022065
 21
126.922600744027207
 31
0.0
  0
LINE
  5
1177F
  8
0
 10
4350.035236983415416
 20
126.9415997023055951
 30
0.0
 11
4350.035236983415416
 21
126.9225488570055944
 31
0.0
  0
LINE
  5
11780
  8
0
 10
4350.5865264064150324
 20
126.9225601893363944
 30
0.0
 11
4350.5865264064150324
 21
126.9415997023055951
 31
0.0
  0
LINE
  5
11781
  8
0
 10
4350.5690463149148854
 20
126.9225490899837041
 30
0.0
 11
4350.5690463149148854
 21
126.9415997023055951
 31
0.0
  0
ENDSEC
  0
EOF
