  0
SECTION
  2
HEADER
  9
$ACADVER
  1
AC1009
  9
$INSBASE
 10
3667.9440124798920806
 20
98.4502976366231053
 30
0.0
  9
$EXTMIN
 10
3659.8555655397981354
 20
98.4427580073818262
 30
-0.0015258207003583
  9
$EXTMAX
 10
3675.7393834500489902
 20
129.3472416088409034
 30
0.0000000349246037
  9
$LIMMIN
 10
0.0
 20
0.0
  9
$LIMMAX
 10
11.6929133858000007
 20
8.2677165353999982
  9
$ORTHOMODE
 70
     0
  9
$REGENMODE
 70
     1
  9
$FILLMODE
 70
     1
  9
$QTEXTMODE
 70
     0
  9
$MIRRTEXT
 70
     0
  9
$DRAGMODE
 70
     2
  9
$LTSCALE
 40
0.6431102362
  9
$OSMODE
 70
     7
  9
$ATTMODE
 70
     1
  9
$TEXTSIZE
 40
0.2
  9
$TRACEWID
 40
0.05
  9
$TEXTSTYLE
  7
STANDARD
  9
$CLAYER
  8
0
  9
$CELTYPE
  6
BYLAYER
  9
$CECOLOR
 62
   256
  9
$DIMSCALE
 40
1.0
  9
$DIMASZ
 40
0.1875
  9
$DIMEXO
 40
0.0625
  9
$DIMDLI
 40
0.4443307087
  9
$DIMRND
 40
0.0
  9
$DIMDLE
 40
0.0
  9
$DIMEXE
 40
0.125
  9
$DIMTP
 40
0.01
  9
$DIMTM
 40
0.01
  9
$DIMTXT
 40
2.0
  9
$DIMCEN
 40
0.1052362205
  9
$DIMTSZ
 40
0.0
  9
$DIMTOL
 70
     1
  9
$DIMLIM
 70
     0
  9
$DIMTIH
 70
     1
  9
$DIMTOH
 70
     1
  9
$DIMSE1
 70
     0
  9
$DIMSE2
 70
     0
  9
$DIMTAD
 70
     0
  9
$DIMZIN
 70
     0
  9
$DIMBLK
  1

  9
$DIMASO
 70
     1
  9
$DIMSHO
 70
     1
  9
$DIMPOST
  1
\X
  9
$DIMAPOST
  1

  9
$DIMALT
 70
     1
  9
$DIMALTD
 70
     2
  9
$DIMALTF
 40
25.3999999999999986
  9
$DIMLFAC
 40
1.0
  9
$DIMTOFL
 70
     0
  9
$DIMTVP
 40
0.0
  9
$DIMTIX
 70
     0
  9
$DIMSOXD
 70
     0
  9
$DIMSAH
 70
     0
  9
$DIMBLK1
  1

  9
$DIMBLK2
  1

  9
$DIMSTYLE
  2
STANDARD
  9
$DIMCLRD
 70
     0
  9
$DIMCLRE
 70
     0
  9
$DIMCLRT
 70
     0
  9
$DIMTFAC
 40
1.0
  9
$DIMGAP
 40
0.09
  9
$LUNITS
 70
     2
  9
$LUPREC
 70
     4
  9
$SKETCHINC
 40
0.1
  9
$FILLETRAD
 40
0.0
  9
$AUNITS
 70
     0
  9
$AUPREC
 70
     0
  9
$MENU
  1
.
  9
$ELEVATION
 40
0.0
  9
$PELEVATION
 40
0.0
  9
$THICKNESS
 40
0.0
  9
$LIMCHECK
 70
     0
  9
$BLIPMODE
 70
     0
  9
$CHAMFERA
 40
0.0
  9
$CHAMFERB
 40
0.0
  9
$SKPOLY
 70
     0
  9
$TDCREATE
 40
2458060.468368056230247
  9
$TDUPDATE
 40
2459576.5106481481343508
  9
$TDINDWG
 40
0.4256204861
  9
$TDUSRTIMER
 40
0.4256204861
  9
$USRTIMER
 70
     1
  9
$ANGBASE
 50
0.0
  9
$ANGDIR
 70
     0
  9
$PDMODE
 70
     0
  9
$PDSIZE
 40
0.3125
  9
$PLINEWID
 40
0.0
  9
$COORDS
 70
     1
  9
$SPLFRAME
 70
     0
  9
$SPLINETYPE
 70
     6
  9
$SPLINESEGS
 70
     8
  9
$ATTDIA
 70
     1
  9
$ATTREQ
 70
     1
  9
$HANDLING
 70
     1
  9
$HANDSEED
  5
17D90
  9
$SURFTAB1
 70
     6
  9
$SURFTAB2
 70
     6
  9
$SURFTYPE
 70
     6
  9
$SURFU
 70
     6
  9
$SURFV
 70
     6
  9
$UCSNAME
  2

  9
$UCSORG
 10
0.0
 20
0.0
 30
0.0
  9
$UCSXDIR
 10
1.0
 20
0.0
 30
0.0
  9
$UCSYDIR
 10
0.0
 20
1.0
 30
0.0
  9
$PUCSNAME
  2

  9
$PUCSORG
 10
0.0
 20
0.0
 30
0.0
  9
$PUCSXDIR
 10
1.0
 20
0.0
 30
0.0
  9
$PUCSYDIR
 10
0.0
 20
1.0
 30
0.0
  9
$USERI1
 70
     0
  9
$USERI2
 70
     0
  9
$USERI3
 70
     0
  9
$USERI4
 70
     0
  9
$USERI5
 70
     0
  9
$USERR1
 40
0.0
  9
$USERR2
 40
0.0
  9
$USERR3
 40
0.0
  9
$USERR4
 40
0.0
  9
$USERR5
 40
0.0
  9
$WORLDVIEW
 70
     1
  9
$SHADEDGE
 70
     3
  9
$SHADEDIF
 70
    70
  9
$TILEMODE
 70
     1
  9
$MAXACTVP
 70
    64
  9
$PLIMCHECK
 70
     0
  9
$PEXTMIN
 10
1.0000000000000000E+20
 20
1.0000000000000000E+20
 30
1.0000000000000000E+20
  9
$PEXTMAX
 10
-1.0000000000000000E+20
 20
-1.0000000000000000E+20
 30
-1.0000000000000000E+20
  9
$PLIMMIN
 10
0.0
 20
0.0
  9
$PLIMMAX
 10
12.0
 20
9.0
  9
$UNITMODE
 70
     0
  9
$VISRETAIN
 70
     1
  9
$PLINEGEN
 70
     0
  9
$PSLTSCALE
 70
     1
  0
ENDSEC
  0
SECTION
  2
TABLES
  0
TABLE
  2
VPORT
 70
     1
  0
VPORT
  2
*ACTIVE
 70
     0
 10
0.0
 20
0.0
 11
1.0
 21
1.0
 12
-597.2088731613266646
 22
9.590987509527368
 13
0.0
 23
0.0
 14
1.0
 24
1.0
 15
0.0
 25
0.0
 16
0.0
 26
0.0
 36
122.0237731519760018
 17
4265.00634765625
 27
104.3040122985839986
 37
0.0
 40
31.1257567537367983
 41
2.2831541218637992
 42
50.0
 43
0.0
 44
0.0
 50
0.0
 51
0.0
 71
     0
 72
   100
 73
     1
 74
     1
 75
     0
 76
     0
 77
     0
 78
     0
  0
ENDTAB
  0
TABLE
  2
LTYPE
 70
     2
  0
LTYPE
  2
CONTINUOUS
 70
     0
  3
Solid line
 72
    65
 73
     0
 40
0.0
  0
LTYPE
  2
PHANTOM2
 70
     0
  3
___ _ _ ___ _ _ ___ _ _ ___ _ _
 72
    65
 73
     6
 40
1.25
 49
0.625
 49
-0.125
 49
0.125
 49
-0.125
 49
0.125
 49
-0.125
  0
ENDTAB
  0
TABLE
  2
LAYER
 70
     2
  0
LAYER
  2
0
 70
     0
 62
   255
  6
CONTINUOUS
  0
LAYER
  2
DEFPOINTS
 70
     0
 62
     7
  6
CONTINUOUS
  0
ENDTAB
  0
TABLE
  2
STYLE
 70
     1
  0
STYLE
  2
STANDARD
 70
     0
 40
0.0
 41
0.8
 50
0.0
 71
     0
 42
0.2
  3
txt
  4

  0
ENDTAB
  0
TABLE
  2
VIEW
 70
     0
  0
ENDTAB
  0
TABLE
  2
UCS
 70
     0
  0
ENDTAB
  0
TABLE
  2
APPID
 70
     9
  0
APPID
  2
ACAD
 70
     0
  0
APPID
  2
ACAD_MLEADERVER
 70
     0
  0
APPID
  2
ACAD_EXEMPT_FROM_CAD_STANDARDS
 70
     0
  0
APPID
  2
ACAD_NAV_VCDISPLAY
 70
     0
  0
APPID
  2
ACAECLAYERSTANDARD
 70
     0
  0
APPID
  2
ACCMTRANSPARENCY
 70
     0
  0
APPID
  2
ACAD_DSTYLE_DIMJAG
 70
     0
  0
APPID
  2
ACAD_DSTYLE_DIMTALN
 70
     0
  0
APPID
  2
ACDBATTR
 70
     0
  0
ENDTAB
  0
TABLE
  2
DIMSTYLE
 70
     1
  0
DIMSTYLE
  2
STANDARD
 70
     0
  3

  4

  5

  6

  7

 40
1.0
 41
0.1875
 42
0.0625
 43
0.38
 44
0.125
 45
0.0
 46
0.0
 47
0.01
 48
0.01
140
0.15625
141
0.09
142
0.0
143
25.3999999999999986
144
1.0
145
0.0
146
1.0
147
0.09
 71
     1
 72
     0
 73
     1
 74
     1
 75
     0
 76
     0
 77
     0
 78
     4
170
     0
171
     2
172
     0
173
     0
174
     0
175
     0
176
     0
177
     0
178
     0
  0
ENDTAB
  0
ENDSEC
  0
SECTION
  2
BLOCKS
  0
BLOCK
  8
0
  2
$MODEL_SPACE
 70
     0
 10
0.0
 20
0.0
 30
0.0
  3
$MODEL_SPACE
  1

  0
ENDBLK
  5
21
  8
0
  0
BLOCK
 67
     1
  8
0
  2
$PAPER_SPACE
 70
     0
 10
0.0
 20
0.0
 30
0.0
  3
$PAPER_SPACE
  1

  0
ENDBLK
  5
1D
 67
     1
  8
0
  0
ENDSEC
  0
SECTION
  2
ENTITIES
  0
ATTDEF
  5
171C1
  8
DEFPOINTS
 10
3667.9440090783250525
 20
98.4536390259046641
 30
0.0
 40
0.001
  1
K-78800K-TF
  3

  2
MODELNUMBER
 70
     0
1001
ACDBATTR
1070
     0
1070
     1
  0
ATTDEF
  5
171C2
  8
DEFPOINTS
 10
3667.9440090783250525
 20
98.4519723592379989
 30
0.0
 40
0.001
  1
MODERNLIFE
  3

  2
TRADENAME
 70
     0
1001
ACDBATTR
1070
     0
1070
     1
  0
ATTDEF
  5
171C3
  8
DEFPOINTS
 10
3667.9440090783250525
 20
98.4503056925713338
 30
0.0
 40
0.001
  1
TOILET
  3

  2
PRODUCT
 70
     0
1001
ACDBATTR
1070
     0
1070
     1
  0
LINE
  5
17B45
  8
0
 10
3662.9728859190909134
 20
98.4502976366231053
 30
0.0
 11
3672.9151390406918836
 21
98.4502976366231053
 31
0.0
  0
LINE
  5
17B46
  8
0
 10
3674.9463354134909423
 20
115.6817014774231041
 30
0.0
 11
3660.9416895462909451
 21
115.6817014774231041
 31
0.0
  0
LINE
  5
17B47
  8
0
 10
3674.8463326349301497
 20
115.0186853097230966
 30
0.0
 11
3661.0416923248521925
 21
115.0186853097230966
 31
0.0
  0
LINE
  5
17B48
  8
0
 10
3674.8475302963629474
 20
114.5806853097230942
 30
0.0
 11
3661.0404946634198495
 21
114.5806853097230942
 31
0.0
  0
LINE
  5
17B49
  8
0
 10
3670.7163360181989447
 20
115.2029614719393038
 30
0.0
 11
3665.1716889415811238
 21
115.2029614719392043
 31
0.0
  0
LINE
  5
17B4A
  8
0
 10
3660.4468168932908156
 20
129.3455646939391954
 30
0.0
 11
3675.4412080664910718
 21
129.3455646939391954
 31
0.0
  0
LINE
  5
17B4B
  8
0
 10
3663.0642642139027885
 20
128.7672955939231088
 30
0.0
 11
3672.8237607458800085
 21
128.7672955939231088
 31
0.0
  0
ARC
  5
17B4C
  8
0
 10
3660.4627573780521743
 20
123.4939419880322049
 30
0.0
 40
5.8516444177120919
 50
90.1560798238085965
 51
91.3374646608400127
  0
ARC
  5
17B4D
  8
0
 10
3660.3349018405619972
 20
128.8780269390732087
 30
0.0
 40
0.4660469830059018
 50
91.0730751095183564
 51
94.5326929148324666
  0
ARC
  5
17B4E
  8
0
 10
3660.3080398293991493
 20
129.2168691686007946
 30
0.0
 40
0.1261416665499957
 50
94.5326929148324666
 51
121.2201548921247962
  0
ARC
  5
17B4F
  8
0
 10
3660.3053674092839174
 20
129.2239484604573931
 30
0.0
 40
0.118710461800392
 50
121.8881542266178002
 51
179.8029344786365016
  0
LINE
  5
17B50
  8
0
 10
3660.1866576496408925
 20
129.224356757422612
 30
0.0
 11
3660.1866576496408925
 21
129.1646800176231125
 31
0.0
  0
ARC
  5
17B51
  8
0
 10
3660.3060733020861335
 20
129.1659125211168089
 30
0.0
 40
0.1194220126836092
 50
180.5913357221332092
 51
228.6293852272173979
  0
ARC
  5
17B52
  8
0
 10
3660.3523799944077837
 20
129.1356214435492973
 30
0.0
 40
0.1385784671140884
 50
205.3487556810387957
 51
253.0373031568512943
  0
ARC
  5
17B53
  8
0
 10
3660.4581102675088005
 20
129.4822565915802102
 30
0.0
 40
0.5009799247554059
 50
253.0373031568512943
 51
265.4352269412956957
  0
ARC
  5
17B54
  8
0
 10
3660.8091786338768543
 20
133.6046756565069984
 30
0.0
 40
4.6383143679755348
 50
265.1651008093328983
 51
268.5933249271495242
  0
LINE
  5
17B55
  8
0
 10
3660.483680620091036
 20
128.9774152427231115
 30
0.0
 11
3660.4802524454908053
 21
128.9380219167231019
 31
0.0
  0
ARC
  5
17B56
  8
0
 10
3660.3628767585641981
 20
128.9481435863079923
 30
0.0
 40
0.1178112901079314
 50
277.8270360174773828
 51
355.0713996692520027
  0
ARC
  5
17B57
  8
0
 10
3660.3925532078701508
 20
126.627775726057294
 30
0.0
 40
2.203696303959167
 50
90.3544464871880564
 51
91.7936595402840823
  0
ARC
  5
17B58
  8
0
 10
3660.3246430702329235
 20
128.7514264797742953
 30
0.0
 40
0.078972999087208
 50
90.7733389377112445
 51
182.3723753497239102
  0
LINE
  5
17B59
  8
0
 10
3660.2457377585919858
 20
128.7481574769230974
 30
0.0
 11
3660.2653258773921152
 21
128.2726363190230927
 31
0.0
  0
LINE
  5
17B5A
  8
0
 10
3660.2653258773921152
 20
128.2726363190110135
 30
0.0
 11
3660.2121421993911099
 21
128.2706594043231121
 31
0.0
  0
ARC
  5
17B5B
  8
0
 10
3709.081104918318033
 20
129.2400140062800915
 30
0.0
 40
48.8785757317883593
 50
181.13635816991669
 51
183.1209011829762119
  0
LINE
  5
17B5C
  8
0
 10
3660.2750221637920731
 20
126.578914285023103
 30
0.0
 11
3660.3349619252899174
 21
126.5811423331668948
 31
0.0
  0
LINE
  5
17B5D
  8
0
 10
3660.2121421993911099
 20
128.2706594043231121
 30
0.0
 11
3660.0147282604921202
 21
127.7572565629231036
 31
0.0
  0
ARC
  5
17B5E
  8
0
 10
3680.2116202890920249
 20
128.1670278803352971
 30
0.0
 40
20.2010484912918393
 50
181.1623048894921055
 51
183.0952699237521983
  0
LINE
  5
17B5F
  8
0
 10
3660.0400424726908568
 20
127.0762444259230932
 30
0.0
 11
3660.2750221637920731
 21
126.578914285023103
 31
0.0
  0
LINE
  5
17B60
  8
0
 10
3660.3349619252921912
 20
126.5811423331229975
 30
0.0
 11
3660.7668405763920418
 21
116.0354682420231001
 31
0.0
  0
ARC
  5
17B61
  8
0
 10
3660.9417473420089664
 20
115.6029026923065004
 30
0.0
 40
0.0787988063119457
 50
90.0420241260842573
 51
178.9578484061869119
  0
LINE
  5
17B62
  8
0
 10
3660.8629615701920557
 20
115.6043358829230954
 30
0.0
 11
3660.8575356014907811
 21
115.2933346255231015
 31
0.0
  0
ARC
  5
17B63
  8
0
 10
3660.929697508297977
 20
115.2821634613002004
 30
0.0
 40
0.071338572684653
 50
196.8222127045324896
 51
265.8204861883252761
  0
ARC
  5
17B64
  8
0
 10
3661.038062083981913
 20
437.0007480489322802
 30
0.0
 40
321.7897534815987228
 50
269.9797795638580737
 51
270.0202204361419263
  0
ARC
  5
17B65
  8
0
 10
3661.2385275804390403
 20
115.6420685821508982
 30
0.0
 40
0.4397265366121942
 50
258.6017979314077024
 51
266.9584697318572921
  0
ARC
  5
17B66
  8
0
 10
3660.1759717590780383
 20
102.7834415350152995
 30
0.0
 40
12.4629234947485692
 50
83.6877965554420911
 51
85.2168230065818193
  0
ARC
  5
17B67
  8
0
 10
3765.2264359009991495
 20
113.4899071214123012
 30
0.0
 40
104.3793383737394009
 50
179.0286596687801079
 51
179.497017892713302
  0
ARC
  5
17B68
  8
0
 10
3661.0417654327688979
 20
114.9186097273070999
 30
0.0
 40
0.1000756091195875
 50
90.0418561007645337
 51
179.9567271796958039
  0
LINE
  5
17B69
  8
0
 10
3660.9416898521922121
 20
114.6806853097231027
 30
0.0
 11
3660.9416898521922121
 21
114.9186853097236991
 31
0.0
  0
ARC
  5
17B6A
  8
0
 10
3661.0417789989701305
 20
114.6807662486477994
 30
0.0
 40
0.1000891795043704
 50
180.0463332731208936
 51
269.2647654178765038
  0
ARC
  5
17B6B
  8
0
 10
3660.6721214075269017
 20
114.4118262807423037
 30
0.0
 40
0.1790862144588697
 50
354.6956086758935953
 51
358.2027403751799852
  0
ARC
  5
17B6C
  8
0
 10
3661.2017262930398829
 20
114.3702857630973995
 30
0.0
 40
0.3521729567949996
 50
175.9317918022615004
 51
177.1500149740853942
  0
ARC
  5
17B6D
  8
0
 10
3657.5043614347991934
 20
114.3214868884690958
 30
0.0
 40
3.3462845403791239
 50
356.8520986236459862
 51
1.1354360367784491
  0
ARC
  5
17B6E
  8
0
 10
3604.2417017982397738
 20
118.8735136002195958
 30
0.0
 40
56.8016599433286018
 50
354.7008743857360855
 51
355.2174682963798205
  0
ARC
  5
17B6F
  8
0
 10
3663.2642361612388413
 20
113.3828570498394015
 30
0.0
 40
2.4757628363156332
 50
174.3273081677737935
 51
196.7299419834926084
  0
ARC
  5
17B70
  8
0
 10
3665.4928098700288501
 20
114.076201174396104
 30
0.0
 40
4.809645179653792
 50
196.9977028568935111
 51
202.181295580686708
  0
ARC
  5
17B71
  8
0
 10
3592.4478414126460848
 20
83.9175961231173915
 30
0.0
 40
74.2164061382492122
 50
20.0852262216411397
 51
22.4510329072348114
  0
LINE
  5
17B72
  8
0
 10
3662.1506160511908092
 20
109.4048115019231062
 30
0.0
 11
3662.364177083791219
 21
108.8291616590231001
 31
0.0
  0
ARC
  5
17B73
  8
0
 10
3586.8584807317938612
 20
83.1133798792461533
 30
0.0
 40
79.7647266286622454
 50
17.9506477247493592
 51
18.8078511730896594
  0
ARC
  5
17B74
  8
0
 10
3656.0545914265849206
 20
105.7284107954609027
 30
0.0
 40
6.9695596388529246
 50
2.6673016274039769
 51
16.4040877219900487
  0
ARC
  5
17B75
  8
0
 10
3638.7610252852900885
 20
105.038689186023106
 30
0.0
 40
24.2767632154632516
 50
357.6060132191709044
 51
2.3939867808291071
  0
ARC
  5
17B76
  8
0
 10
3878.0626123667630054
 20
96.9101718585331326
 30
0.0
 40
215.1636652642555134
 50
178.1051507496227941
 51
178.866704451008502
  0
ARC
  5
17B77
  8
0
 10
3506.0594691544079069
 20
104.8086288456308068
 30
0.0
 40
156.9238552487194056
 50
357.7211133706466057
 51
358.6698078734518162
  0
ARC
  5
17B78
  8
0
 10
3662.9733384171281614
 20
98.5644993575878203
 30
0.0
 40
0.1142026174208814
 50
177.8553075574849913
 51
269.7729798479616079
  0
LINE
  5
17B79
  8
0
 10
3662.0239283981918561
 20
109.5580132337231021
 30
0.0
 11
3662.0862733637241035
 21
109.5800927957448039
 31
0.0
  0
ARC
  5
17B7A
  8
0
 10
3662.0172517097189484
 20
109.5768658685318968
 30
0.0
 40
0.0200000002050573
 50
209.3772190737903998
 51
289.5016752251883076
  0
ARC
  5
17B7B
  8
0
 10
3666.4773910051699204
 20
112.0876893237466021
 30
0.0
 40
5.1383080173218652
 50
207.1115998178146924
 51
209.3772190737903998
  0
LINE
  5
17B7C
  8
0
 10
3661.903677400387096
 20
109.7460332554255018
 30
0.0
 11
3661.4524762984910922
 21
111.0198040494231009
 31
0.0
  0
ARC
  5
17B7D
  8
0
 10
3661.4619026169120843
 20
111.0231423936789952
 30
0.0
 40
0.0100000010674628
 50
191.8978438705167946
 51
199.5016733851932997
  0
ARC
  5
17B7E
  8
0
 10
3666.4468866788652122
 20
112.0735091883770025
 30
0.0
 40
5.1044417272352502
 50
189.6180171539332946
 51
191.8985227435912861
  0
ARC
  5
17B7F
  8
0
 10
3661.4339333671368877
 20
111.224010052249497
 30
0.0
 40
0.0200194701987102
 50
109.5562116027885935
 51
189.6180171539328967
  0
LINE
  5
17B80
  8
0
 10
3661.4272322197921312
 20
111.2428746702231024
 30
0.0
 11
3661.4478741842917771
 21
111.2501850526230953
 31
0.0
  0
LINE
  5
17B81
  8
0
 10
3661.4530672237810904
 20
111.0094047296548041
 30
0.0
 11
3661.4558152561030511
 21
111.0103779494638019
 31
0.0
  0
ARC
  5
17B82
  8
0
 10
3661.4556958415059853
 20
111.0019824325026008
 30
0.0
 40
0.0078740159460298
 50
109.5016765089645929
 51
192.1033717837499069
  0
ARC
  5
17B83
  8
0
 10
3666.4446890352878654
 20
112.0718369922263946
 30
0.0
 40
5.1102893132891252
 50
192.1033717837499069
 51
195.9313696767137003
  0
LINE
  5
17B84
  8
0
 10
3661.530679947291901
 20
110.669135474223097
 30
0.0
 11
3661.7432339518918525
 21
110.0689559767231032
 31
0.0
  0
ARC
  5
17B85
  8
0
 10
3666.4455032436922011
 20
112.0720116646227069
 30
0.0
 40
5.1111220471992587
 50
203.0728594945034047
 51
206.8999785669039113
  0
ARC
  5
17B86
  8
0
 10
3661.8944383924958856
 20
109.7631268273803045
 30
0.0
 40
0.0078740156581381
 50
206.8999785669039113
 51
289.5016763316211836
  0
LINE
  5
17B87
  8
0
 10
3661.8970670101020914
 20
109.7557045303911991
 30
0.0
 11
3661.8998966230160477
 21
109.7567066420239996
 31
0.0
  0
ARC
  5
17B88
  8
0
 10
3661.0007559779919575
 20
115.8672947881231039
 30
0.0
 40
0.1181086377000017
 50
142.8854477205173907
 51
174.2842213935115865
  0
ARC
  5
17B89
  8
0
 10
3661.0811990989418518
 20
115.816743350532704
 30
0.0
 40
0.2075404428083611
 50
162.527292557417212
 51
165.9724698689896059
  0
LINE
  5
17B8A
  8
0
 10
3660.8798476422912245
 20
115.867048681323098
 30
0.0
 11
3660.8811241681328283
 21
115.8362566669705984
 31
0.0
  0
ARC
  5
17B8B
  8
0
 10
3728.859436597821059
 20
113.027795961071206
 30
0.0
 40
68.0363021652755435
 50
177.6342235967831868
 51
177.7978737414636043
  0
ARC
  5
17B8C
  8
0
 10
3660.8266590650860053
 20
116.0382629939835937
 30
0.0
 40
0.0598837392634173
 50
182.6749444652367913
 51
223.7699252906485015
  0
ARC
  5
17B8D
  8
0
 10
3660.849640177413221
 20
116.0171587487247962
 30
0.0
 40
0.0691130295627848
 50
197.3203342847590989
 51
245.6413817994647957
  0
ARC
  5
17B8E
  8
0
 10
3660.9092065011450359
 20
116.1983749752626949
 30
0.0
 40
0.259574673699456
 50
250.166220892085903
 51
265.6257604737267002
  0
ARC
  5
17B8F
  8
0
 10
3661.3172518191840936
 20
123.181458782769198
 30
0.0
 40
7.2545296134894981
 50
266.6189611573742013
 51
269.3639004250277935
  0
LINE
  5
17B90
  8
0
 10
3662.5158592995940126
 20
115.9180280918989041
 30
0.0
 11
3673.3721656601887844
 21
115.9180280918989041
 31
0.0
  0
ARC
  5
17B91
  8
0
 10
3661.1021338162158827
 20
114.3617813728932049
 30
0.0
 40
0.2549157580073287
 50
115.0525924623213001
 51
169.9628924843158018
  0
ARC
  5
17B92
  8
0
 10
3661.5277832250508254
 20
115.2044478049090941
 30
0.0
 40
0.0203276963509885
 50
235.6957627590207096
 51
255.9907142442118015
  0
ARC
  5
17B93
  8
0
 10
3661.5381865021799968
 20
115.2483145562461004
 30
0.0
 40
0.0654102236352627
 50
256.4509219058159033
 51
260.8184689008872965
  0
ARC
  5
17B94
  8
0
 10
3661.5973803000078988
 20
114.4488826477738996
 30
0.0
 40
0.7432063657545849
 50
91.9273116716894947
 51
96.2610863185467025
  0
ARC
  5
17B95
  8
0
 10
3661.6715668680672024
 20
112.1763994194331957
 30
0.0
 40
3.0168999217124108
 50
89.7232045232247941
 51
91.8839609262264645
  0
ARC
  5
17B96
  8
0
 10
3661.6492197014608792
 20
104.5026376897154989
 30
0.0
 40
10.6906902038187308
 50
88.4708606653056933
 51
89.8021209576028241
  0
ARC
  5
17B97
  8
0
 10
3661.4271186661171669
 20
94.6092652628892239
 30
0.0
 40
20.5865090882769088
 50
88.1775742933837421
 51
88.5877153746983765
  0
ARC
  5
17B98
  8
0
 10
3662.0692130046018065
 20
114.5454342540949995
 30
0.0
 40
0.6400512025229009
 50
78.3885121053073703
 51
88.872264352080748
  0
ARC
  5
17B99
  8
0
 10
3663.4453120520379343
 20
117.6293493608795018
 30
0.0
 40
2.755422948818766
 50
243.0854448892382891
 51
244.8642273547191053
  0
ARC
  5
17B9A
  8
0
 10
3662.2498476483287959
 20
115.1492222639050027
 30
0.0
 40
0.0288847652668584
 50
289.5064251580756718
 51
330.1709200202221837
  0
ARC
  5
17B9B
  8
0
 10
3662.2353579939272095
 20
115.1859583537940068
 30
0.0
 40
0.0683647901645933
 50
281.2273067270227784
 51
290.6725933469544998
  0
ARC
  5
17B9C
  8
0
 10
3662.2638340440230422
 20
115.0774505535862033
 30
0.0
 40
0.0441384202634765
 50
110.0954431020686002
 51
139.699483553141107
  0
ARC
  5
17B9D
  8
0
 10
3663.6800873171760031
 20
114.1009308529936987
 30
0.0
 40
1.764204816611697
 50
145.2706599310716911
 51
148.1569129818043962
  0
ARC
  5
17B9E
  8
0
 10
3662.1395994629519919
 20
115.0576857023086035
 30
0.0
 40
0.0492125848983336
 50
307.5813510190230886
 51
328.1496431170646133
  0
ARC
  5
17B9F
  8
0
 10
3661.5065707863168427
 20
115.1338382172012018
 30
0.0
 40
0.0542121924234195
 50
37.2829841422351009
 51
67.0042775448142578
  0
ARC
  5
17BA0
  8
0
 10
3661.5124748700218333
 20
115.1373950003685991
 30
0.0
 40
0.0473659410952657
 50
28.9698057519768604
 51
38.1859514607689832
  0
ARC
  5
17BA1
  8
0
 10
3666.1124382128919024
 20
117.723586269685498
 30
0.0
 40
5.2297600650977074
 50
209.3489673266390128
 51
210.9716225694112097
  0
ARC
  5
17BA2
  8
0
 10
3661.6692195126001934
 20
115.056752438573298
 30
0.0
 40
0.0476567592801417
 50
210.8964325415645931
 51
233.0134839245004059
  0
ARC
  5
17BA3
  8
0
 10
3662.2405262196089097
 20
115.8670192421495955
 30
0.0
 40
0.7592719329100125
 50
269.340227355947718
 51
272.499878714205181
  0
ARC
  5
17BA4
  8
0
 10
3662.2608371602250372
 20
115.4017996217309019
 30
0.0
 40
0.2936091476982295
 50
272.499878714205181
 51
279.6792462995646815
  0
ARC
  5
17BA5
  8
0
 10
3662.2958761659579068
 20
115.2127758345241944
 30
0.0
 40
0.1014225702560082
 50
278.1203248083024278
 51
313.5829676827630124
  0
ARC
  5
17BA6
  8
0
 10
3662.9917394692038215
 20
114.5101083354853984
 30
0.0
 40
0.8875220489721206
 50
128.2408376662540093
 51
134.85131352902971
  0
LINE
  5
17BA7
  8
0
 10
3663.6694760502250574
 20
115.2046845307681053
 30
0.0
 11
3663.6710992407920457
 21
115.0186853097230966
 31
0.0
  0
LINE
  5
17BA8
  8
0
 10
3664.1870456787178227
 20
115.2044159543352038
 30
0.0
 11
3664.1854248318918508
 21
115.0186853097230966
 31
0.0
  0
LINE
  5
17BA9
  8
0
 10
3664.1940100678921226
 20
115.2044183896737053
 30
0.0
 11
3664.1940100678921226
 21
115.0186853097230966
 31
0.0
  0
ARC
  5
17BAA
  8
0
 10
3664.5670242573951327
 20
616.9511878973811463
 30
0.0
 40
488.1862052458084804
 50
269.5733351865877125
 51
269.8236288875606874
  0
ARC
  5
17BAB
  8
0
 10
3661.0375424658109296
 20
141.6481006990140941
 30
0.0
 40
12.8700177144399692
 50
267.6129322435987206
 51
269.5287023604889782
  0
ARC
  5
17BAC
  8
0
 10
3660.5676198678320361
 20
129.842170609915712
 30
0.0
 40
1.0549934844641959
 50
259.781430803144076
 51
266.4069730109542888
  0
ARC
  5
17BAD
  8
0
 10
3660.3822717573380032
 20
128.8178149687117866
 30
0.0
 40
0.0140212405812699
 50
103.8276129229847982
 51
262.5762405465052893
  0
ARC
  5
17BAE
  8
0
 10
3662.0337094837591394
 20
184.8040993746745073
 30
0.0
 40
55.8523786081320068
 50
268.6268850454442827
 51
269.9002089543873808
  0
ARC
  5
17BAF
  8
0
 10
3664.4778052158590071
 20
734.0399594608660436
 30
0.0
 40
605.0934908460767474
 50
269.7593589008748722
 51
269.9443361675790243
  0
ARC
  5
17BB0
  8
0
 10
3672.315357101292193
 20
118.3991438246227972
 30
0.0
 40
10.9009663788584898
 50
87.9319137768833485
 51
92.071532803408445
  0
ARC
  5
17BB1
  8
0
 10
3672.3146942650400888
 20
140.4370576762856047
 30
0.0
 40
11.1510122784819892
 50
267.9783458941499816
 51
272.0251006861595897
  0
ARC
  5
17BB2
  8
0
 10
3660.9716509997338107
 20
115.2910923343447962
 30
0.0
 40
0.1141374258768672
 50
178.8743211490873932
 51
195.0174231829819007
  0
LINE
  5
17BB3
  8
0
 10
3660.2653258773921152
 20
128.2726363190230927
 30
0.0
 11
3660.3349619252899174
 21
126.5811423331668948
 31
0.0
  0
ARC
  5
17BB4
  8
0
 10
3662.5268226409980343
 20
110.3838563351179971
 30
0.0
 40
4.8240648670410566
 50
90.0478619817644557
 51
91.0028473384607253
  0
ARC
  5
17BB5
  8
0
 10
3662.5938140902098894
 20
77.4180787812785809
 30
0.0
 40
37.7899074753937967
 50
89.5279195793127229
 51
90.1076800460339058
  0
ARC
  5
17BB6
  8
0
 10
3664.0849437042520549
 20
417.1457082726225849
 30
0.0
 40
301.9413095812673191
 50
269.7761289036150174
 51
270.0272066760550729
  0
ARC
  5
17BB7
  8
0
 10
3664.2580378279558317
 20
-168.1843900695540981
 30
0.0
 40
283.388824359852606
 50
89.8152769659705825
 51
90.0060085067204483
  0
ARC
  5
17BB8
  8
0
 10
3664.2636880998820743
 20
114.8151299372508021
 30
0.0
 40
14.4899643709200507
 50
88.9128948946472235
 51
89.4137312938652968
  0
ARC
  5
17BB9
  8
0
 10
3664.3339630610989843
 20
118.5185211566448942
 30
0.0
 40
10.7859064483088005
 50
88.2306441614956753
 51
88.9128948946472235
  0
ARC
  5
17BBA
  8
0
 10
3664.6344041717679829
 20
128.2443970456857869
 30
0.0
 40
1.0553912168317909
 50
83.490183671932769
 51
88.2306441614956753
  0
ARC
  5
17BBB
  8
0
 10
3664.2636880998820743
 20
143.7708423963956932
 30
0.0
 40
14.4899643709200507
 50
270.5862687061347174
 51
271.0871051053528049
  0
ARC
  5
17BBC
  8
0
 10
3664.3339630610989843
 20
140.0674511770016011
 30
0.0
 40
10.7859064483088005
 50
271.0871051053528049
 51
271.769355838504282
  0
ARC
  5
17BBD
  8
0
 10
3664.6344041717679829
 20
130.3415752879606941
 30
0.0
 40
1.0553912168317909
 50
271.769355838504282
 51
276.509816328067302
  0
ARC
  5
17BBE
  8
0
 10
3663.5993032676838084
 20
118.5185211566448942
 30
0.0
 40
10.7859064483088005
 50
91.0871051053527623
 51
91.7693558385043389
  0
ARC
  5
17BBF
  8
0
 10
3663.298862157016174
 20
128.2443970456857869
 30
0.0
 40
1.0553912168317909
 50
91.7693558385043389
 51
96.5098163280672452
  0
ARC
  5
17BC0
  8
0
 10
3663.5993032676838084
 20
140.0674511770016011
 30
0.0
 40
10.7859064483088005
 50
268.230644161495718
 51
268.9128948946473088
  0
ARC
  5
17BC1
  8
0
 10
3663.298862157016174
 20
130.3415752879606941
 30
0.0
 40
1.0553912168317909
 50
263.4901836719328116
 51
268.230644161495718
  0
ARC
  5
17BC2
  8
0
 10
3663.2686959644938725
 20
129.266301097385707
 30
0.0
 40
0.0286755046157999
 50
95.8366056481155937
 51
111.473400640361703
  0
ARC
  5
17BC3
  8
0
 10
3663.3697945746321238
 20
128.0126497023964021
 30
0.0
 40
1.2863903383684001
 50
91.9276306714191236
 51
94.6378730757602966
  0
ARC
  5
17BC4
  8
0
 10
3663.6397725290830749
 20
119.5877038415885067
 30
0.0
 40
9.7156593746591842
 50
90.7151629961312835
 51
91.8476281793018643
  0
ARC
  5
17BC5
  8
0
 10
3663.2686959644938725
 20
129.3196712362604899
 30
0.0
 40
0.0286755046154618
 50
248.5265993594979079
 51
264.1633943519368017
  0
ARC
  5
17BC6
  8
0
 10
3663.3697945746321238
 20
130.5733226312501074
 30
0.0
 40
1.2863903383684001
 50
265.3621269242397034
 51
268.072369328580919
  0
ARC
  5
17BC7
  8
0
 10
3663.6397725290830749
 20
138.9982684920580027
 30
0.0
 40
9.7156593746591842
 50
268.1523718206980789
 51
269.284837003868688
  0
ARC
  5
17BC8
  8
0
 10
3664.6645703642889202
 20
129.266301097385707
 30
0.0
 40
0.0286755046157999
 50
68.5265993596382117
 51
84.1633943518844205
  0
ARC
  5
17BC9
  8
0
 10
3664.5634717541511236
 20
128.0126497023964021
 30
0.0
 40
1.2863903383684001
 50
85.3621269242397318
 51
88.0723693285808906
  0
ARC
  5
17BCA
  8
0
 10
3664.2934937997001725
 20
119.5877038415885067
 30
0.0
 40
9.7156593746591842
 50
88.15237182072417
 51
89.2848370038687023
  0
ARC
  5
17BCB
  8
0
 10
3664.6645703642889202
 20
129.3196712362604899
 30
0.0
 40
0.0286755046154618
 50
275.8366056480631983
 51
291.4734006405021205
  0
ARC
  5
17BCC
  8
0
 10
3664.5634717541511236
 20
130.5733226312501074
 30
0.0
 40
1.2863903383684001
 50
271.9276306714191946
 51
274.6378730757602966
  0
ARC
  5
17BCD
  8
0
 10
3664.2934937997001725
 20
138.9982684920580027
 30
0.0
 40
9.7156593746591842
 50
270.715162996131312
 51
271.8476281792757732
  0
ARC
  5
17BCE
  8
0
 10
3663.9741946737881335
 20
90.3154717638003035
 30
0.0
 40
38.9913214307090712
 50
89.3567249850713381
 51
90.8516158782570926
  0
ARC
  5
17BCF
  8
0
 10
3663.9666331643920785
 20
93.639365899188391
 30
0.0
 40
35.6660558545749424
 50
89.2800855172753813
 51
90.7199144827246329
  0
ARC
  5
17BD0
  8
0
 10
3663.9666331643920785
 20
165.5909484808142906
 30
0.0
 40
36.3103479410156709
 50
269.2928603595780146
 51
270.7071396404220991
  0
ARC
  5
17BD1
  8
0
 10
3663.9733126863179677
 20
167.785390705976198
 30
0.0
 40
38.5062525630450097
 50
269.1389678983734939
 51
270.6526912383056924
  0
ARC
  5
17BD2
  8
0
 10
3672.3150294458919234
 20
120.4706741328289041
 30
0.0
 40
8.827933133359906
 50
87.955242842841173
 51
92.0447571571588128
  0
ARC
  5
17BD3
  8
0
 10
3672.3150294458919234
 20
138.2443835846175091
 30
0.0
 40
8.9569375047192512
 50
267.984705172292081
 51
272.015294827707919
  0
ARC
  5
17BD4
  8
0
 10
3675.4252675817319869
 20
123.4939419880322049
 30
0.0
 40
5.8516444177120919
 50
88.6625353391599873
 51
89.8439201761914035
  0
ARC
  5
17BD5
  8
0
 10
3675.5531231192207997
 20
128.8780269390732087
 30
0.0
 40
0.4660469830059018
 50
85.4673070851675192
 51
88.9269248904816436
  0
ARC
  5
17BD6
  8
0
 10
3675.5799851303850119
 20
129.2168691686007946
 30
0.0
 40
0.1261416665499957
 50
58.7798451078751327
 51
85.4673070851675192
  0
ARC
  5
17BD7
  8
0
 10
3675.5826575504988796
 20
129.2239484604573931
 30
0.0
 40
0.118710461800392
 50
0.1970655213635144
 51
58.1118457733822069
  0
LINE
  5
17BD8
  8
0
 10
3675.7013673101419045
 20
129.224356757422612
 30
0.0
 11
3675.7013673101419045
 21
129.1646800176231125
 31
0.0
  0
ARC
  5
17BD9
  8
0
 10
3675.5819516576980277
 20
129.1659125211168089
 30
0.0
 40
0.1194220126836092
 50
311.3706147727825737
 51
359.4086642778667056
  0
ARC
  5
17BDA
  8
0
 10
3675.5356449653750133
 20
129.1356214435492973
 30
0.0
 40
0.1385784671140884
 50
286.9626968431487057
 51
334.6512443189612895
  0
ARC
  5
17BDB
  8
0
 10
3675.429914692273087
 20
129.4822565915802102
 30
0.0
 40
0.5009799247554059
 50
274.5647730587041906
 51
286.9626968431487057
  0
ARC
  5
17BDC
  8
0
 10
3675.0788463259068521
 20
133.6046756565069984
 30
0.0
 40
4.6383143679755348
 50
271.4066750728504189
 51
274.8348991906671017
  0
LINE
  5
17BDD
  8
0
 10
3675.4043443396922157
 20
128.9774152427231115
 30
0.0
 11
3675.4077725142910822
 21
128.9380219167231019
 31
0.0
  0
ARC
  5
17BDE
  8
0
 10
3675.5251482012190536
 20
128.9481435863079923
 30
0.0
 40
0.1178112901079314
 50
184.928600330748111
 51
262.1729639825226172
  0
ARC
  5
17BDF
  8
0
 10
3675.4954717519140104
 20
126.627775726057294
 30
0.0
 40
2.203696303959167
 50
88.2063404597159177
 51
89.6455535128119578
  0
ARC
  5
17BE0
  8
0
 10
3675.5633818895507829
 20
128.7514264797742953
 30
0.0
 40
0.078972999087208
 50
357.6276246502760046
 51
89.2266610622887697
  0
LINE
  5
17BE1
  8
0
 10
3675.6422872011908112
 20
128.7481574769230974
 30
0.0
 11
3675.622699082392046
 21
128.2726363190230927
 31
0.0
  0
LINE
  5
17BE2
  8
0
 10
3675.55306303449197
 20
126.5811423331229975
 30
0.0
 11
3675.1211843833912098
 21
116.0354682420231001
 31
0.0
  0
ARC
  5
17BE3
  8
0
 10
3674.9462776177738306
 20
115.6029026923065004
 30
0.0
 40
0.0787988063119457
 50
1.042151593813071
 51
89.9579758739157427
  0
LINE
  5
17BE4
  8
0
 10
3675.025063389591196
 20
115.6043358829230954
 30
0.0
 11
3675.0304893582920158
 21
115.2933346255231015
 31
0.0
  0
ARC
  5
17BE5
  8
0
 10
3674.9583274514848199
 20
115.2821634613002004
 30
0.0
 40
0.071338572684653
 50
274.1795138116746102
 51
343.1777872954675104
  0
ARC
  5
17BE6
  8
0
 10
3674.8499628758008839
 20
437.0007480489322802
 30
0.0
 40
321.7897534815987228
 50
269.9797795638580737
 51
270.0202204361419263
  0
ARC
  5
17BE7
  8
0
 10
3674.6494973793451209
 20
115.6420685821508982
 30
0.0
 40
0.4397265366121942
 50
273.0415302681427079
 51
281.3982020685922976
  0
ARC
  5
17BE8
  8
0
 10
3675.7120532007052134
 20
102.7834415350152995
 30
0.0
 40
12.4629234947485692
 50
94.7831769934181807
 51
96.3122034445579231
  0
ARC
  5
17BE9
  8
0
 10
3570.6615890587841022
 20
113.4899071214123012
 30
0.0
 40
104.3793383737394009
 50
0.5029821072866589
 51
0.9713403312198474
  0
ARC
  5
17BEA
  8
0
 10
3674.8462595270138991
 20
114.9186097273070999
 30
0.0
 40
0.1000756091195875
 50
0.043272820304153
 51
89.9581438992354947
  0
LINE
  5
17BEB
  8
0
 10
3674.9463351075919491
 20
114.6806853097231027
 30
0.0
 11
3674.9463351075919491
 21
114.9186853097236991
 31
0.0
  0
ARC
  5
17BEC
  8
0
 10
3674.8462459608131212
 20
114.6807662486477994
 30
0.0
 40
0.1000891795043704
 50
270.7352345821234962
 51
359.9536667268790211
  0
ARC
  5
17BED
  8
0
 10
3675.2159035522568047
 20
114.4118262807423037
 30
0.0
 40
0.1790862144588697
 50
181.7972596248199864
 51
185.3043913241064047
  0
ARC
  5
17BEE
  8
0
 10
3674.6862986667438236
 20
114.3702857630973995
 30
0.0
 40
0.3521729567949996
 50
2.8499850259145951
 51
4.0682081977384437
  0
ARC
  5
17BEF
  8
0
 10
3678.3836635249840583
 20
114.3214868884690958
 30
0.0
 40
3.3462845403791239
 50
178.8645639632215136
 51
183.1479013763539001
  0
ARC
  5
17BF0
  8
0
 10
3731.6463231615439327
 20
118.8735136002195958
 30
0.0
 40
56.8016599433286018
 50
184.782531703620208
 51
185.2991256142634029
  0
ARC
  5
17BF1
  8
0
 10
3672.6237887985439556
 20
113.3828570498394015
 30
0.0
 40
2.4757628363156332
 50
343.2700580165072779
 51
5.6726918322261541
  0
ARC
  5
17BF2
  8
0
 10
3670.3952150897539468
 20
114.076201174396104
 30
0.0
 40
4.809645179653792
 50
337.8187044193128941
 51
343.0022971431064889
  0
ARC
  5
17BF3
  8
0
 10
3743.4401835471371669
 20
83.9175961231173915
 30
0.0
 40
74.2164061382492122
 50
157.5489670927651957
 51
159.9147737783588923
  0
LINE
  5
17BF4
  8
0
 10
3673.7374089085919877
 20
109.4048115019231062
 30
0.0
 11
3673.5238478759920326
 21
108.8291616590231001
 31
0.0
  0
ARC
  5
17BF5
  8
0
 10
3749.0295442279889357
 20
83.1133798792461533
 30
0.0
 40
79.7647266286622454
 50
161.1921488269103122
 51
162.0493522752510103
  0
ARC
  5
17BF6
  8
0
 10
3679.8334335331987859
 20
105.7284107954609027
 30
0.0
 40
6.9695596388529246
 50
163.5959122780099051
 51
177.3326983725960133
  0
ARC
  5
17BF7
  8
0
 10
3697.1269996744931632
 20
105.038689186023106
 30
0.0
 40
24.2767632154632516
 50
177.6060132191709044
 51
182.3939867808290956
  0
ARC
  5
17BF8
  8
0
 10
3457.8254125930197915
 20
96.9101718585331326
 30
0.0
 40
215.1636652642555134
 50
1.1332955489915051
 51
1.8948492503772101
  0
ARC
  5
17BF9
  8
0
 10
3829.8285558053757995
 20
104.8086288456308068
 30
0.0
 40
156.9238552487194056
 50
181.3301921265482122
 51
182.278886629353309
  0
ARC
  5
17BFA
  8
0
 10
3672.9146865426550903
 20
98.5644993575878203
 30
0.0
 40
0.1142026174208814
 50
270.2270201520383921
 51
2.1446924425149509
  0
ARC
  5
17BFB
  8
0
 10
3674.872904536472106
 20
115.8592454179485998
 30
0.0
 40
0.1344391723449336
 50
1.554147972248239
 51
36.1560874729021222
  0
ARC
  5
17BFC
  8
0
 10
3607.0285883619631022
 20
113.027795961071206
 30
0.0
 40
68.0363021652755435
 50
2.2021262585364361
 51
2.3694774396749101
  0
ARC
  5
17BFD
  8
0
 10
3675.0613658946981559
 20
116.0382629939835937
 30
0.0
 40
0.0598837392634173
 50
316.230074709351527
 51
357.3250555347631234
  0
ARC
  5
17BFE
  8
0
 10
3675.0383847823709402
 20
116.0171587487247962
 30
0.0
 40
0.0691130295627848
 50
294.3586182005350906
 51
342.6796657152405032
  0
ARC
  5
17BFF
  8
0
 10
3674.9788184586391253
 20
116.1983749752626949
 30
0.0
 40
0.259574673699456
 50
274.3742395262731861
 51
289.833779107914097
  0
ARC
  5
17C00
  8
0
 10
3674.5707731405991581
 20
123.181458782769198
 30
0.0
 40
7.2545296134894981
 50
270.6360995749723202
 51
273.381038842625685
  0
ARC
  5
17C01
  8
0
 10
3674.7858911435678237
 20
114.3617813728932049
 30
0.0
 40
0.2549157580073287
 50
10.0371075156841894
 51
64.9474075376786715
  0
ARC
  5
17C02
  8
0
 10
3674.3602417347319715
 20
115.2044478049090941
 30
0.0
 40
0.0203276963509885
 50
284.0092857557881985
 51
304.3042372409793188
  0
ARC
  5
17C03
  8
0
 10
3674.3498384576028002
 20
115.2483145562461004
 30
0.0
 40
0.0654102236352627
 50
279.1815310991127035
 51
283.5490780941840967
  0
ARC
  5
17C04
  8
0
 10
3674.2906446597739887
 20
114.4488826477738996
 30
0.0
 40
0.7432063657545849
 50
83.7389136814533117
 51
88.0726883283105053
  0
ARC
  5
17C05
  8
0
 10
3674.2164580917160492
 20
112.1763994194331957
 30
0.0
 40
3.0168999217124108
 50
88.1160390737735497
 51
90.2767954767752201
  0
ARC
  5
17C06
  8
0
 10
3674.2388052583228273
 20
104.5026376897154989
 30
0.0
 40
10.6906902038187308
 50
90.1978790423971617
 51
91.5291393346943352
  0
ARC
  5
17C07
  8
0
 10
3674.4609062936660848
 20
94.6092652628892239
 30
0.0
 40
20.5865090882769088
 50
91.4122846253016235
 51
91.8224257066162579
  0
ARC
  5
17C08
  8
0
 10
3673.8188119551809905
 20
114.5454342540949995
 30
0.0
 40
0.6400512025229009
 50
91.1277356479192662
 51
101.6114878946925018
  0
ARC
  5
17C09
  8
0
 10
3672.4427129077448626
 20
117.6293493608795018
 30
0.0
 40
2.755422948818766
 50
295.1357726452808947
 51
296.9145551107616825
  0
ARC
  5
17C0A
  8
0
 10
3673.638177311454001
 20
115.1492222639050027
 30
0.0
 40
0.0288847652668584
 50
209.8290799797779016
 51
250.4935748419241861
  0
ARC
  5
17C0B
  8
0
 10
3673.6526669658569517
 20
115.1859583537940068
 30
0.0
 40
0.0683647901645933
 50
249.3274066530455002
 51
258.7726932729772216
  0
ARC
  5
17C0C
  8
0
 10
3673.624190915761119
 20
115.0774505535862033
 30
0.0
 40
0.0441384202634765
 50
40.3005164468589214
 51
69.9045568979314282
  0
ARC
  5
17C0D
  8
0
 10
3672.2079376426067938
 20
114.1009308529936987
 30
0.0
 40
1.764204816611697
 50
31.8430870181956109
 51
34.7293400689282379
  0
ARC
  5
17C0E
  8
0
 10
3673.7484254968321693
 20
115.0576857023086035
 30
0.0
 40
0.0492125848983336
 50
211.8503568829353867
 51
232.4186489809767977
  0
ARC
  5
17C0F
  8
0
 10
3674.3814541734668637
 20
115.1338382172012018
 30
0.0
 40
0.0542121924234195
 50
112.9957224551856996
 51
142.717015857764892
  0
ARC
  5
17C10
  8
0
 10
3674.3755500897618731
 20
115.1373950003685991
 30
0.0
 40
0.0473659410952657
 50
141.8140485392312939
 51
151.0301942480230935
  0
ARC
  5
17C11
  8
0
 10
3669.7755867468908946
 20
117.723586269685498
 30
0.0
 40
5.2297600650977074
 50
329.028377430588705
 51
330.6510326733609872
  0
ARC
  5
17C12
  8
0
 10
3674.2188054471830583
 20
115.056752438573298
 30
0.0
 40
0.0476567592801417
 50
306.9865160754995941
 51
329.1035674584354069
  0
ARC
  5
17C13
  8
0
 10
3673.6474987401738872
 20
115.8670192421495955
 30
0.0
 40
0.7592719329100125
 50
267.5001212857687278
 51
270.6597726440522251
  0
ARC
  5
17C14
  8
0
 10
3673.6271877995582145
 20
115.4017996217309019
 30
0.0
 40
0.2936091476982295
 50
260.3207537004353185
 51
267.5001212857687278
  0
ARC
  5
17C15
  8
0
 10
3673.5921487938248902
 20
115.2127758345241944
 30
0.0
 40
0.1014225702560082
 50
226.4170323172371013
 51
261.8796751916975722
  0
ARC
  5
17C16
  8
0
 10
3672.8962854905798849
 20
114.5101083354853984
 30
0.0
 40
0.8875220489721206
 50
45.14868647097029
 51
51.7591623337460334
  0
LINE
  5
17C17
  8
0
 10
3672.2185489095581943
 20
115.2046845307681053
 30
0.0
 11
3672.2169257189921154
 21
115.0186853097230966
 31
0.0
  0
LINE
  5
17C18
  8
0
 10
3671.7009792810649742
 20
115.2044159543352038
 30
0.0
 11
3671.7026001278918557
 21
115.0186853097230966
 31
0.0
  0
LINE
  5
17C19
  8
0
 10
3671.6940148918920386
 20
115.2044183896737053
 30
0.0
 11
3671.6940148918920386
 21
115.0186853097230966
 31
0.0
  0
ARC
  5
17C1A
  8
0
 10
3671.321000702388119
 20
616.9511878973811463
 30
0.0
 40
488.1862052458084804
 50
270.1763711124391989
 51
270.4266648134122875
  0
ARC
  5
17C1B
  8
0
 10
3674.8504824939718674
 20
141.6481006990140941
 30
0.0
 40
12.8700177144399692
 50
270.4712976395110218
 51
272.3870677564013931
  0
ARC
  5
17C1C
  8
0
 10
3675.3204050919521251
 20
129.842170609915712
 30
0.0
 40
1.0549934844641959
 50
273.5930269890455975
 51
280.2185691968558103
  0
ARC
  5
17C1D
  8
0
 10
3675.505753202446158
 20
128.8178149687117866
 30
0.0
 40
0.0140212405812699
 50
277.4237594534947107
 51
76.1723870770152018
  0
ARC
  5
17C1E
  8
0
 10
3673.8543154760241123
 20
184.8040993746745073
 30
0.0
 40
55.8523786081320068
 50
270.0997910456125055
 51
271.373114954529683
  0
ARC
  5
17C1F
  8
0
 10
3671.410219743925154
 20
734.0399594608660436
 30
0.0
 40
605.0934908460767474
 50
270.0556638324209757
 51
270.2406410991251278
  0
ARC
  5
17C20
  8
0
 10
3674.9163739600489862
 20
115.2910923343447962
 30
0.0
 40
0.1141374258768672
 50
344.9825768170181277
 51
1.1256788509125391
  0
LINE
  5
17C21
  8
0
 10
3675.622699082392046
 20
128.2726363190230927
 30
0.0
 11
3675.553063034493789
 21
126.5811423331668948
 31
0.0
  0
ARC
  5
17C22
  8
0
 10
3673.3612023187852174
 20
110.3838563351179971
 30
0.0
 40
4.8240648670410566
 50
88.9971526615392889
 51
89.9521380182355443
  0
ARC
  5
17C23
  8
0
 10
3673.294210869573817
 20
77.4180787812785809
 30
0.0
 40
37.7899074753937967
 50
89.8923199539660942
 51
90.4720804206873055
  0
ARC
  5
17C24
  8
0
 10
3671.8030812555311968
 20
417.1457082726225849
 30
0.0
 40
301.9413095812673191
 50
269.9727933239449271
 51
270.2238710963849826
  0
ARC
  5
17C25
  8
0
 10
3671.6299871318278747
 20
-168.1843900695540981
 30
0.0
 40
283.388824359852606
 50
89.9939914932795659
 51
90.1847230340294175
  0
ARC
  5
17C26
  8
0
 10
3667.9440124798879879
 20
5335.4001220907148308
 30
0.0
 40
5206.4549462912327726
 50
269.9553859794539221
 51
270.044614020546021
  0
ARC
  5
17C27
  8
0
 10
3662.978088707588995
 20
266.686822768548609
 30
0.0
 40
150.7695032301803906
 50
269.3382237861519002
 51
269.8243422232897046
  0
ARC
  5
17C28
  8
0
 10
3672.9099362521951662
 20
266.686822768548609
 30
0.0
 40
150.7695032301803906
 50
270.1756577767102954
 51
270.6617762138479861
  0
ARC
  5
17C29
  8
0
 10
3670.4401572187907732
 20
99.6313999988230847
 30
0.0
 40
2.5000000000000209
 50
347.8925747012020793
 51
12.1074252987978497
  0
ARC
  5
17C2A
  8
0
 10
3672.8646373894989665
 20
100.1521010461824943
 30
0.0
 40
0.0202439838148522
 50
10.4222171499812806
 51
67.4568574473306199
  0
LINE
  5
17C2B
  8
0
 10
3672.8723985074921075
 20
100.1707982098231042
 30
0.0
 11
3672.8620208605921107
 21
100.1751353709231012
 31
0.0
  0
ARC
  5
17C2C
  8
0
 10
3674.1685071874671848
 20
100.080708096720798
 30
0.0
 40
1.309894282919172
 50
175.866092992284905
 51
178.9853984366519057
  0
ARC
  5
17C2D
  8
0
 10
3709.1231166740180925
 20
99.6197113833172239
 30
0.0
 40
36.2675306504919206
 50
179.2350474085824032
 51
180.6285480527313894
  0
ARC
  5
17C2E
  8
0
 10
3676.0993313104017943
 20
99.2574182288105646
 30
0.0
 40
3.2417580467819729
 50
180.6285480527313894
 51
183.0016476440075905
  0
LINE
  5
17C2F
  8
0
 10
3672.8620208605921107
 20
99.0876646267231109
 30
0.0
 11
3672.8723985074921075
 21
99.0920017878230794
 31
0.0
  0
ARC
  5
17C30
  8
0
 10
3672.8645572986579282
 20
99.1107636679279125
 30
0.0
 40
0.0203345199366305
 50
292.6816596184493733
 51
349.4392657842060999
  0
LINE
  5
17C31
  8
0
 10
3672.855992408318798
 20
99.7913999988230955
 30
0.0
 11
3672.8232407307191352
 21
99.7913999988230955
 31
0.0
  0
LINE
  5
17C32
  8
0
 10
3672.8328091224288983
 20
99.4713999988231024
 30
0.0
 11
3672.8558892749238112
 21
99.4713999988231024
 31
0.0
  0
ARC
  5
17C33
  8
0
 10
3672.6127050939630863
 20
99.4737351815513051
 30
0.0
 40
0.229099232783286
 50
350.1516369197087215
 51
359.4159804465850812
  0
ARC
  5
17C34
  8
0
 10
3673.064253798541813
 20
99.4878241637643157
 30
0.0
 40
0.2320243964802018
 50
184.0591549882664992
 51
193.2739271970606012
  0
ARC
  5
17C35
  8
0
 10
3676.9093164191749565
 20
99.7534373146524445
 30
0.0
 40
4.0862498612663698
 50
179.4676945986975056
 51
183.9577623558037942
  0
ARC
  5
17C36
  8
0
 10
3673.0599714522090835
 20
99.7888027651763565
 30
0.0
 40
0.2367427943783847
 50
170.4082647798425114
 51
179.3714127098774895
  0
ARC
  5
17C37
  8
0
 10
3672.5998826655218181
 20
99.7751833544032252
 30
0.0
 40
0.2327850689042828
 50
3.994665378147304
 51
13.1773403379377392
  0
LINE
  5
17C38
  8
0
 10
3675.0072942539918586
 20
115.8628916332231
 30
0.0
 11
3675.0067192365449955
 21
115.8406477386839981
 31
0.0
  0
ARC
  5
17C3A
  8
0
 10
3665.4478677409920238
 20
99.6313999988230847
 30
0.0
 40
2.5000000000000209
 50
167.8925747012021077
 51
192.107425298797807
  0
ARC
  5
17C3B
  8
0
 10
3663.0233875702838304
 20
100.1521010461824943
 30
0.0
 40
0.0202439838148522
 50
112.5431425526693943
 51
169.577782850018707
  0
LINE
  5
17C3C
  8
0
 10
3663.0156264522920537
 20
100.1707982098231042
 30
0.0
 11
3663.026004099191141
 21
100.1751353709231012
 31
0.0
  0
ARC
  5
17C3D
  8
0
 10
3661.7195177723169763
 20
100.080708096720798
 30
0.0
 40
1.309894282919172
 50
1.014601563348021
 51
4.1339070077150453
  0
ARC
  5
17C3E
  8
0
 10
3626.7649082857651592
 20
99.6197113833172239
 30
0.0
 40
36.2675306504919206
 50
359.3714519472686106
 51
0.7649525914175618
  0
ARC
  5
17C3F
  8
0
 10
3659.7886936493810026
 20
99.2574182288105646
 30
0.0
 40
3.2417580467819729
 50
356.998352355992381
 51
359.3714519472686106
  0
LINE
  5
17C40
  8
0
 10
3663.026004099191141
 20
99.0876646267231109
 30
0.0
 11
3663.0156264522920537
 21
99.0920017878230794
 31
0.0
  0
ARC
  5
17C41
  8
0
 10
3663.0234676611257782
 20
99.1107636679279125
 30
0.0
 40
0.0203345199366305
 50
190.5607342157939001
 51
247.3183403815505983
  0
LINE
  5
17C42
  8
0
 10
3663.0320325514649085
 20
99.7913999988230955
 30
0.0
 11
3663.064784229065026
 21
99.7913999988230955
 31
0.0
  0
LINE
  5
17C43
  8
0
 10
3663.0552158373548082
 20
99.4713999988231024
 30
0.0
 11
3663.0321356848589858
 21
99.4713999988231024
 31
0.0
  0
ARC
  5
17C44
  8
0
 10
3663.2753198658210749
 20
99.4737351815513051
 30
0.0
 40
0.229099232783286
 50
180.5840195534148904
 51
189.8483630802913069
  0
ARC
  5
17C45
  8
0
 10
3662.8237711612409839
 20
99.4878241637643157
 30
0.0
 40
0.2320243964802018
 50
346.7260728029394272
 51
355.9408450117334723
  0
ARC
  5
17C46
  8
0
 10
3658.9787085406092046
 20
99.7534373146524445
 30
0.0
 40
4.0862498612663698
 50
356.0422376441961774
 51
0.5323054013025145
  0
ARC
  5
17C47
  8
0
 10
3662.8280535075750777
 20
99.7888027651763565
 30
0.0
 40
0.2367427943783847
 50
0.6285872901225098
 51
9.5917352201575206
  0
ARC
  5
17C48
  8
0
 10
3663.2881422942600693
 20
99.7751833544032252
 30
0.0
 40
0.2327850689042828
 50
166.8226596620621933
 51
176.0053346218527111
  0
ENDSEC
  0
EOF
