  0
SECTION
  2
HEADER
  9
$ACADVER
  1
AC1009
  9
$INSBASE
 10
3621.1918615376871458
 20
99.8336511275930576
 30
0.0
  9
$EXTMIN
 10
3613.3785303261151967
 20
99.8318608803853635
 30
-0.0000000349181948
  9
$EXTMAX
 10
3629.1603733533452214
 20
130.9394109433135895
 30
0.0000000814935746
  9
$LIMMIN
 10
0.0
 20
0.0
  9
$LIMMAX
 10
11.6929133858000007
 20
8.2677165353999982
  9
$ORTHOMODE
 70
     0
  9
$REGENMODE
 70
     1
  9
$FILLMODE
 70
     1
  9
$QTEXTMODE
 70
     0
  9
$MIRRTEXT
 70
     0
  9
$DRAGMODE
 70
     2
  9
$LTSCALE
 40
0.6431102362
  9
$OSMODE
 70
  4095
  9
$ATTMODE
 70
     1
  9
$TEXTSIZE
 40
0.2
  9
$TRACEWID
 40
0.05
  9
$TEXTSTYLE
  7
STANDARD
  9
$CLAYER
  8
0
  9
$CELTYPE
  6
BYLAYER
  9
$CECOLOR
 62
   256
  9
$DIMSCALE
 40
1.0
  9
$DIMASZ
 40
0.1875
  9
$DIMEXO
 40
0.0625
  9
$DIMDLI
 40
0.4443307087
  9
$DIMRND
 40
0.0
  9
$DIMDLE
 40
0.0
  9
$DIMEXE
 40
0.125
  9
$DIMTP
 40
0.01
  9
$DIMTM
 40
0.01
  9
$DIMTXT
 40
2.0
  9
$DIMCEN
 40
0.1052362205
  9
$DIMTSZ
 40
0.0
  9
$DIMTOL
 70
     1
  9
$DIMLIM
 70
     0
  9
$DIMTIH
 70
     1
  9
$DIMTOH
 70
     1
  9
$DIMSE1
 70
     0
  9
$DIMSE2
 70
     0
  9
$DIMTAD
 70
     0
  9
$DIMZIN
 70
     0
  9
$DIMBLK
  1

  9
$DIMASO
 70
     1
  9
$DIMSHO
 70
     1
  9
$DIMPOST
  1
\X
  9
$DIMAPOST
  1

  9
$DIMALT
 70
     1
  9
$DIMALTD
 70
     2
  9
$DIMALTF
 40
25.3999999999999986
  9
$DIMLFAC
 40
1.0
  9
$DIMTOFL
 70
     0
  9
$DIMTVP
 40
0.0
  9
$DIMTIX
 70
     0
  9
$DIMSOXD
 70
     0
  9
$DIMSAH
 70
     0
  9
$DIMBLK1
  1

  9
$DIMBLK2
  1

  9
$DIMSTYLE
  2
STANDARD
  9
$DIMCLRD
 70
     0
  9
$DIMCLRE
 70
     0
  9
$DIMCLRT
 70
     0
  9
$DIMTFAC
 40
1.0
  9
$DIMGAP
 40
0.09
  9
$LUNITS
 70
     2
  9
$LUPREC
 70
     4
  9
$SKETCHINC
 40
0.1
  9
$FILLETRAD
 40
0.0
  9
$AUNITS
 70
     0
  9
$AUPREC
 70
     0
  9
$MENU
  1
.
  9
$ELEVATION
 40
0.0
  9
$PELEVATION
 40
0.0
  9
$THICKNESS
 40
0.0
  9
$LIMCHECK
 70
     0
  9
$BLIPMODE
 70
     0
  9
$CHAMFERA
 40
0.0
  9
$CHAMFERB
 40
0.0
  9
$SKPOLY
 70
     0
  9
$TDCREATE
 40
2458060.468368056230247
  9
$TDUPDATE
 40
2459432.6592592601664364
  9
$TDINDWG
 40
0.4141853009
  9
$TDUSRTIMER
 40
0.4141853009
  9
$USRTIMER
 70
     1
  9
$ANGBASE
 50
0.0
  9
$ANGDIR
 70
     0
  9
$PDMODE
 70
     0
  9
$PDSIZE
 40
0.3125
  9
$PLINEWID
 40
0.0
  9
$COORDS
 70
     1
  9
$SPLFRAME
 70
     0
  9
$SPLINETYPE
 70
     6
  9
$SPLINESEGS
 70
     8
  9
$ATTDIA
 70
     1
  9
$ATTREQ
 70
     1
  9
$HANDLING
 70
     1
  9
$HANDSEED
  5
177B1
  9
$SURFTAB1
 70
     6
  9
$SURFTAB2
 70
     6
  9
$SURFTYPE
 70
     6
  9
$SURFU
 70
     6
  9
$SURFV
 70
     6
  9
$UCSNAME
  2

  9
$UCSORG
 10
0.0
 20
0.0
 30
0.0
  9
$UCSXDIR
 10
1.0
 20
0.0
 30
0.0
  9
$UCSYDIR
 10
0.0
 20
1.0
 30
0.0
  9
$PUCSNAME
  2

  9
$PUCSORG
 10
0.0
 20
0.0
 30
0.0
  9
$PUCSXDIR
 10
1.0
 20
0.0
 30
0.0
  9
$PUCSYDIR
 10
0.0
 20
1.0
 30
0.0
  9
$USERI1
 70
     0
  9
$USERI2
 70
     0
  9
$USERI3
 70
     0
  9
$USERI4
 70
     0
  9
$USERI5
 70
     0
  9
$USERR1
 40
0.0
  9
$USERR2
 40
0.0
  9
$USERR3
 40
0.0
  9
$USERR4
 40
0.0
  9
$USERR5
 40
0.0
  9
$WORLDVIEW
 70
     1
  9
$SHADEDGE
 70
     3
  9
$SHADEDIF
 70
    70
  9
$TILEMODE
 70
     1
  9
$MAXACTVP
 70
    64
  9
$PLIMCHECK
 70
     0
  9
$PEXTMIN
 10
1.0000000000000000E+20
 20
1.0000000000000000E+20
 30
1.0000000000000000E+20
  9
$PEXTMAX
 10
-1.0000000000000000E+20
 20
-1.0000000000000000E+20
 30
-1.0000000000000000E+20
  9
$PLIMMIN
 10
0.0
 20
0.0
  9
$PLIMMAX
 10
12.0
 20
9.0
  9
$UNITMODE
 70
     0
  9
$VISRETAIN
 70
     1
  9
$PLINEGEN
 70
     0
  9
$PSLTSCALE
 70
     1
  0
ENDSEC
  0
SECTION
  2
TABLES
  0
TABLE
  2
VPORT
 70
     1
  0
VPORT
  2
*ACTIVE
 70
     0
 10
0.0
 20
0.0
 11
1.0
 21
1.0
 12
-643.7368958165205868
 22
11.0816236132654904
 13
0.0
 23
0.0
 14
1.0
 24
1.0
 15
0.0
 25
0.0
 16
0.0
 26
0.0
 36
122.0237731519760018
 17
4265.00634765625
 27
104.3040122985839986
 37
0.0
 40
31.3541092444045404
 41
2.0410052910052912
 42
50.0
 43
0.0
 44
0.0
 50
0.0
 51
0.0
 71
     0
 72
   100
 73
     1
 74
     1
 75
     0
 76
     0
 77
     0
 78
     0
  0
ENDTAB
  0
TABLE
  2
LTYPE
 70
     2
  0
LTYPE
  2
CONTINUOUS
 70
     0
  3
Solid line
 72
    65
 73
     0
 40
0.0
  0
LTYPE
  2
PHANTOM2
 70
     0
  3
___ _ _ ___ _ _ ___ _ _ ___ _ _
 72
    65
 73
     6
 40
1.25
 49
0.625
 49
-0.125
 49
0.125
 49
-0.125
 49
0.125
 49
-0.125
  0
ENDTAB
  0
TABLE
  2
LAYER
 70
     2
  0
LAYER
  2
0
 70
     0
 62
   255
  6
CONTINUOUS
  0
LAYER
  2
DEFPOINTS
 70
     0
 62
     7
  6
CONTINUOUS
  0
ENDTAB
  0
TABLE
  2
STYLE
 70
     1
  0
STYLE
  2
STANDARD
 70
     0
 40
0.0
 41
0.8
 50
0.0
 71
     0
 42
0.2
  3
txt
  4

  0
ENDTAB
  0
TABLE
  2
VIEW
 70
     0
  0
ENDTAB
  0
TABLE
  2
UCS
 70
     0
  0
ENDTAB
  0
TABLE
  2
APPID
 70
     9
  0
APPID
  2
ACAD
 70
     0
  0
APPID
  2
ACAD_MLEADERVER
 70
     0
  0
APPID
  2
ACAD_EXEMPT_FROM_CAD_STANDARDS
 70
     0
  0
APPID
  2
ACAD_NAV_VCDISPLAY
 70
     0
  0
APPID
  2
ACAECLAYERSTANDARD
 70
     0
  0
APPID
  2
ACCMTRANSPARENCY
 70
     0
  0
APPID
  2
ACAD_DSTYLE_DIMJAG
 70
     0
  0
APPID
  2
ACAD_DSTYLE_DIMTALN
 70
     0
  0
APPID
  2
ACDBATTR
 70
     0
  0
ENDTAB
  0
TABLE
  2
DIMSTYLE
 70
     1
  0
DIMSTYLE
  2
STANDARD
 70
     0
  3

  4

  5

  6

  7

 40
1.0
 41
0.1875
 42
0.0625
 43
0.38
 44
0.125
 45
0.0
 46
0.0
 47
0.01
 48
0.01
140
0.15625
141
0.09
142
0.0
143
25.3999999999999986
144
1.0
145
0.0
146
1.0
147
0.09
 71
     1
 72
     0
 73
     1
 74
     1
 75
     0
 76
     0
 77
     0
 78
     4
170
     0
171
     2
172
     0
173
     0
174
     0
175
     0
176
     0
177
     0
178
     0
  0
ENDTAB
  0
ENDSEC
  0
SECTION
  2
BLOCKS
  0
BLOCK
  8
0
  2
$MODEL_SPACE
 70
     0
 10
0.0
 20
0.0
 30
0.0
  3
$MODEL_SPACE
  1

  0
ENDBLK
  5
21
  8
0
  0
BLOCK
 67
     1
  8
0
  2
$PAPER_SPACE
 70
     0
 10
0.0
 20
0.0
 30
0.0
  3
$PAPER_SPACE
  1

  0
ENDBLK
  5
1D
 67
     1
  8
0
  0
BLOCK
  8
0
  2
_FILLED
 70
     0
 10
0.0
 20
0.0
 30
0.0
  3
_FILLED
  1

  0
SOLID
  5
1751C
  8
0
  6
BYBLOCK
 62
     0
 10
0.0
 20
0.0
 30
0.0
 11
-1.0
 21
0.1666666667
 31
0.0
 12
-1.0
 22
-0.1666666667
 32
0.0
 13
-1.0
 23
-0.1666666667
 33
0.0
  0
ENDBLK
  5
1751D
  8
0
  6
BYBLOCK
 62
     0
  0
ENDSEC
  0
SECTION
  2
ENTITIES
  0
ATTDEF
  5
171C1
  8
DEFPOINTS
 10
3621.1927046592950319
 20
99.8382438121329869
 30
0.0
 40
0.001
  1
K-78800K
  3

  2
MODELNUMBER
 70
     0
1001
ACDBATTR
1070
     0
1070
     1
  0
ATTDEF
  5
171C2
  8
DEFPOINTS
 10
3621.1927046592950319
 20
99.8365771454663218
 30
0.0
 40
0.001
  1
MODERNLIFE
  3

  2
TRADENAME
 70
     0
1001
ACDBATTR
1070
     0
1070
     1
  0
ATTDEF
  5
171C3
  8
DEFPOINTS
 10
3621.1927046592950319
 20
99.8349104787996566
 30
0.0
 40
0.001
  1
TOILET
  3

  2
PRODUCT
 70
     0
1001
ACDBATTR
1070
     0
1070
     1
  0
LINE
  5
175E5
  8
0
 10
3616.2330833491269004
 20
99.8336511275930576
 30
0.0
 11
3626.1506397262492101
 21
99.8336511275930576
 31
0.0
  0
LINE
  5
175E6
  8
0
 10
3613.5467672786580806
 20
130.7509876350929972
 30
0.0
 11
3628.8369557967180299
 21
130.7509876350929972
 31
0.0
  0
LINE
  5
175E7
  8
0
 10
3613.5450089125952218
 20
130.4557120424931043
 30
0.0
 11
3628.8387141627808887
 21
130.4557120424931043
 31
0.0
  0
LINE
  5
175E8
  8
0
 10
3613.5696290933688033
 20
130.2194152346422982
 30
0.0
 11
3628.8140939820068525
 21
130.2194152346422982
 31
0.0
  0
LINE
  5
175E9
  8
0
 10
3614.0600564569599555
 20
117.3687563793333055
 30
0.0
 11
3628.3236666184147907
 21
117.3687563793333055
 31
0.0
  0
LINE
  5
175EA
  8
0
 10
3614.1895097582169001
 20
117.2278262022930022
 30
0.0
 11
3628.1942133171601199
 21
117.2278262022930022
 31
0.0
  0
LINE
  5
175EB
  8
0
 10
3614.1833208932112029
 20
116.5662065022929994
 30
0.0
 11
3615.4066222680339706
 21
116.5662065022929994
 31
0.0
  0
ARC
  5
175EC
  8
0
 10
3613.5540175023338634
 20
130.6315012678761036
 30
0.0
 40
0.1197061305616791
 50
93.472350258721761
 51
155.6508803902974876
  0
ARC
  5
175ED
  8
0
 10
3613.5516174152508029
 20
130.6324996885329028
 30
0.0
 40
0.1171079137473185
 50
155.6117722074438916
 51
179.815202424813009
  0
ARC
  5
175EE
  8
0
 10
3613.5534810975050277
 20
130.5743823059655142
 30
0.0
 40
0.1189723049695504
 50
180.2697040449849908
 51
265.916430768099417
  0
ARC
  5
175EF
  8
0
 10
3613.8125723926750652
 20
130.3763313552630905
 30
0.0
 40
0.0799243605453465
 50
96.6867262925897109
 51
174.6353676457146946
  0
ARC
  5
175F0
  8
0
 10
3617.8424728533100279
 20
129.9979032710459137
 30
0.0
 40
4.1275539801551204
 50
174.635367645713103
 51
175.4240769471300894
  0
ARC
  5
175F1
  8
0
 10
3613.6111548067137846
 20
130.3365574945968888
 30
0.0
 40
0.1172945559620964
 50
272.8361570866177885
 51
355.4240769471301178
  0
ARC
  5
175F2
  8
0
 10
3613.5720919329128265
 20
130.1411818492605903
 30
0.0
 40
0.0782721417038803
 50
91.8031141512428377
 51
182.7696155804495106
  0
ARC
  5
175F3
  8
0
 10
102875.2287423483940074
 20
4189.8240987867739022
 30
0.0
 40
99344.7183184872701531
 50
182.3420238604541908
 51
182.3493614951580923
  0
ARC
  5
175F4
  8
0
 10
3614.0751839761678639
 20
117.4274228762076007
 30
0.0
 40
0.0605854742728177
 50
181.921769775165501
 51
255.540897530672396
  0
ARC
  5
175F5
  8
0
 10
3614.2529910047451267
 20
117.2435815576208
 30
0.0
 40
0.1261080993045977
 50
96.9749134974024969
 51
147.3618549304283079
  0
ARC
  5
175F6
  8
0
 10
3614.2372857152690813
 20
117.2536402478592947
 30
0.0
 40
0.1074578079701716
 50
147.3618549304283079
 51
180.5815983619235965
  0
ARC
  5
175F7
  8
0
 10
3644.9888272526081892
 20
115.8654560272697012
 30
0.0
 40
30.8901525922289686
 50
177.4263211139557086
 51
177.5290956586732989
  0
ARC
  5
175F8
  8
0
 10
3614.1900139847248283
 20
117.1485109731041945
 30
0.0
 40
0.0793168319188478
 50
90.3642385195530551
 51
142.13688081641709
  0
ARC
  5
175F9
  8
0
 10
3614.1897720683291482
 20
117.1486990499145975
 30
0.0
 40
0.0790104066769812
 50
142.13688081641709
 51
178.7224948559791926
  0
ARC
  5
175FA
  8
0
 10
3642.9613262067309734
 20
116.5070828456580045
 30
0.0
 40
28.8577177941289094
 50
178.7224948559791926
 51
179.354092470164602
  0
ARC
  5
175FB
  8
0
 10
3614.1800267050248294
 20
116.8315543123615043
 30
0.0
 40
0.0745893550649374
 50
179.354092470164602
 51
264.0284316390873869
  0
ARC
  5
175FC
  8
0
 10
3615.5049741338380045
 20
784.6148257684849341
 30
0.0
 40
667.8587857678841146
 50
269.885666614663478
 51
269.905264588208297
  0
ARC
  5
175FD
  8
0
 10
3613.2151293394881577
 20
103.7825745526053964
 30
0.0
 40
13.0284338432938291
 50
83.0306365342279378
 51
84.778904562369874
  0
ARC
  5
175FE
  8
0
 10
3636.3334805605741167
 20
129.278564853683605
 30
0.0
 40
24.9341829517455409
 50
210.2569930274520118
 51
210.6033801193833028
  0
ARC
  5
175FF
  8
0
 10
3614.9262934191619934
 20
116.611343648239199
 30
0.0
 40
0.0601527107938383
 50
206.2200832660832077
 51
228.6229520897782947
  0
ARC
  5
17600
  8
0
 10
3615.8777075829129899
 20
-223.724805559523702
 30
0.0
 40
340.4783480813380265
 50
89.7661009197267248
 51
90.2372206168790711
  0
ARC
  5
17601
  8
0
 10
3619.4394525895959305
 20
648.7532850036683385
 30
0.0
 40
532.0070125639199432
 50
269.7661009197266822
 51
270.1887302533835964
  0
LINE
  5
17602
  8
0
 10
3617.4516723184160583
 20
116.7499860037649029
 30
0.0
 11
3617.4516845166240273
 21
116.5662065022929994
 31
0.0
  0
LINE
  5
17603
  8
0
 10
3617.434861119458219
 20
116.7500490828470987
 30
0.0
 11
3617.432979989902833
 21
116.5662065022929994
 31
0.0
  0
LINE
  5
17604
  8
0
 10
3617.4516723184160583
 20
116.6362907691929962
 30
0.0
 11
3617.4336971120478665
 21
116.6362907691929962
 31
0.0
  0
ARC
  5
17605
  8
0
 10
3615.4069455260269024
 20
116.5933705146946977
 30
0.0
 40
0.0271659357558344
 50
269.3181992333322228
 51
325.1366938041779804
  0
ARC
  5
17606
  8
0
 10
3616.572947160134845
 20
115.8750085291983964
 30
0.0
 40
1.342404832729853
 50
144.5442530372910142
 51
148.4284507049198965
  0
ARC
  5
17607
  8
0
 10
3616.0813215289381333
 20
116.2308385799964014
 30
0.0
 40
0.6523556679156006
 50
126.7573026354397001
 51
136.0386436871866067
  0
ARC
  5
17608
  8
0
 10
3615.5434385055468738
 20
116.7601197048398944
 30
0.0
 40
0.1025114979128289
 50
280.2817416700713125
 51
311.7886432610603151
  0
ARC
  5
17609
  8
0
 10
3615.4908009659438903
 20
117.0980925837372979
 30
0.0
 40
0.4445342879048738
 50
268.5397601692367857
 51
279.1819833590399753
  0
ARC
  5
1760A
  8
0
 10
3614.2031016629148326
 20
116.4725100443944967
 30
0.0
 40
0.0957617098469305
 50
101.9209764341805027
 51
174.8121675068780974
  0
ARC
  5
1760B
  8
0
 10
3603.3794698344800054
 20
116.7733842110674942
 30
0.0
 40
10.7334450009393407
 50
358.5143999437083266
 51
0.1370949121291724
  0
LINE
  5
1760C
  8
0
 10
3616.9173112864909854
 20
116.7519553748112031
 30
0.0
 11
3616.9192503099020541
 21
116.5683848865600964
 31
0.0
  0
LINE
  5
1760D
  8
0
 10
3616.897299106231003
 20
116.7520158913972068
 30
0.0
 11
3616.8994793672159176
 21
116.5705179432929981
 31
0.0
  0
ARC
  5
1760E
  8
0
 10
3616.9514200741768946
 20
116.9592542927199048
 30
0.0
 40
0.3921910075528266
 50
262.3895442922957955
 51
265.2949841534634174
  0
ARC
  5
1760F
  8
0
 10
3616.9913314298078149
 20
117.7592636985735055
 30
0.0
 40
1.193058268798969
 50
266.5362457681438855
 51
269.9231738210503977
  0
LINE
  5
17610
  8
0
 10
3616.9897316945161947
 20
116.5662065022929994
 30
0.0
 11
3626.9777224497088355
 21
116.5662065022929994
 31
0.0
  0
ARC
  5
17611
  8
0
 10
3526.4851491925292066
 20
502.6041036000517011
 30
0.0
 40
396.0920872490896727
 50
282.9823090013700266
 51
283.057554251618626
  0
LINE
  5
17612
  8
0
 10
3616.8986101294171931
 20
116.6362907691929962
 30
0.0
 11
3616.9185330317732223
 21
116.6362907691929962
 31
0.0
  0
ARC
  5
17613
  8
0
 10
3620.7795184326091658
 20
-625.7976298747632882
 30
0.0
 40
741.7728746356964393
 50
89.9681523843294144
 51
90.3388382296328842
  0
ARC
  5
17614
  8
0
 10
3619.4800905625179439
 20
-406.0737077203817762
 30
0.0
 40
522.0451101640794604
 50
90.3388382296328842
 51
90.5419455424710833
  0
ARC
  5
17615
  8
0
 10
3614.4932595095588113
 20
121.1302805219194028
 30
0.0
 40
5.1824628084834474
 50
268.905080536516607
 51
270.5419455424711259
  0
ARC
  5
17616
  8
0
 10
3680.5232006033629659
 20
115.0405747588352057
 30
0.0
 40
66.4310902906523921
 50
178.7574125936870075
 51
179.6328955890712962
  0
ARC
  5
17617
  8
0
 10
3567.7054681563040504
 20
118.676081288319395
 30
0.0
 40
46.4989286086512408
 50
355.4793437809810257
 51
356.0416597378105052
  0
ARC
  5
17618
  8
0
 10
3616.6964288654880875
 20
114.7483544263277935
 30
0.0
 40
2.6497505367652039
 50
174.3091576812504968
 51
204.0267288224058007
  0
ARC
  5
17619
  8
0
 10
3614.5913767031588577
 20
115.7634955874764984
 30
0.0
 40
0.500893976072592
 50
139.9587562930267097
 51
171.643557679665804
  0
ARC
  5
1761A
  8
0
 10
3616.8884206381439981
 20
121.3588996560328042
 30
0.0
 40
5.909120789939962
 50
244.2301560698527965
 51
246.3067546115235871
  0
ARC
  5
1761B
  8
0
 10
3613.6758403366011407
 20
114.7044221940810047
 30
0.0
 40
1.4802460628756999
 50
64.2301560698528533
 51
68.934127650159553
  0
ARC
  5
1761C
  8
0
 10
3614.3863520851841713
 20
116.5490270387321061
 30
0.0
 40
0.4964668595753938
 50
241.3637110800825099
 51
248.9341276501596099
  0
ARC
  5
1761D
  8
0
 10
3614.1914974460928534
 20
116.1921763041571012
 30
0.0
 40
0.0898825790847173
 50
179.8530081827778133
 51
241.3637110800825099
  0
ARC
  5
1761E
  8
0
 10
3551.1082231023851818
 20
68.1009421811379951
 30
0.0
 40
79.6312864791240855
 50
36.9331991157333235
 51
36.9838874588834372
  0
ARC
  5
1761F
  8
0
 10
3614.804407631011145
 20
116.2141534556979963
 30
0.0
 40
0.2250156406292253
 50
238.2722688792858889
 51
247.4373259111353889
  0
ARC
  5
17620
  8
0
 10
3614.6967954170368102
 20
116.0411215763321024
 30
0.0
 40
0.0212574954607167
 50
182.9187997122554918
 51
239.7162994378801102
  0
ARC
  5
17621
  8
0
 10
3614.7268781403099638
 20
116.0132847657501003
 30
0.0
 40
0.0578686723741524
 50
113.4663950974634048
 51
152.462503969737611
  0
ARC
  5
17622
  8
0
 10
3614.8071009608152053
 20
115.8232082169638062
 30
0.0
 40
0.2641786983283824
 50
94.2598303038746081
 51
113.0103506260969937
  0
ARC
  5
17623
  8
0
 10
3614.7640290021490728
 20
113.7473670579265956
 30
0.0
 40
2.3394075739180571
 50
83.4263186069976115
 51
89.4256905002198437
  0
ARC
  5
17624
  8
0
 10
3614.1407910466200519
 20
107.8892860958606974
 30
0.0
 40
8.2304842415644117
 50
81.7156661041481129
 51
83.7848165780953877
  0
ARC
  5
17625
  8
0
 10
3615.2640333818981162
 20
115.6291373284867063
 30
0.0
 40
0.4095700796978686
 50
66.0251888607307649
 51
81.2008794888480168
  0
ARC
  5
17626
  8
0
 10
3615.3446353473609634
 20
115.8913846492641966
 30
0.0
 40
0.1410894247248605
 50
27.256893154448921
 51
52.5353690854003688
  0
ARC
  5
17627
  8
0
 10
3614.7859114293528364
 20
115.6548572481819974
 30
0.0
 40
0.4318027030117195
 50
89.7921482023752731
 51
101.2334731308455957
  0
ARC
  5
17628
  8
0
 10
3614.7133396543918025
 20
116.0202509991806039
 30
0.0
 40
0.0592718240367266
 50
101.2334731308455957
 51
129.3089559598188032
  0
LINE
  5
17629
  8
0
 10
3614.6757908457170743
 20
116.0661120511930022
 30
0.0
 11
3614.6755654988601236
 21
116.0400391311854946
 31
0.0
  0
ARC
  5
1762A
  8
0
 10
3617.0188055557141524
 20
114.9808864449542938
 30
0.0
 40
1.6567488007807769
 50
136.9097919613373904
 51
143.8769407622775134
  0
ARC
  5
1762B
  8
0
 10
3617.4729621883548134
 20
122.1696391733045033
 30
0.0
 40
6.2813731187803166
 50
254.6379503357348142
 51
261.1563635138375048
  0
LINE
  5
1762C
  8
0
 10
3628.2342078168740045
 20
116.1126926942395983
 30
0.0
 11
3614.1494548090968237
 21
116.1126926942395983
 31
0.0
  0
ARC
  5
1762D
  8
0
 10
3614.3831000092582144
 20
115.6282050224022981
 30
0.0
 40
0.3207520791297453
 50
88.0116468313958222
 51
141.0749737349212012
  0
ARC
  5
1762E
  8
0
 10
3614.2714006480000535
 20
115.7183660620288066
 30
0.0
 40
0.1772050217571139
 50
141.0625057550313954
 51
177.2691234372148017
  0
ARC
  5
1762F
  8
0
 10
3616.2453622529969834
 20
99.9488263674239619
 30
0.0
 40
0.1158279212899828
 50
177.4377877226982037
 51
263.9146469058342745
  0
ARC
  5
17630
  8
0
 10
3076.9074439304317821
 20
124.0835908315887934
 30
0.0
 40
539.7618221034721273
 50
357.4377877226964983
 51
358.0077356863541809
  0
ARC
  5
17631
  8
0
 10
3598.7981011221991139
 20
105.9293152114775012
 30
0.0
 40
17.5555067573768184
 50
358.0077356863541809
 51
7.4414398421520049
  0
ARC
  5
17632
  8
0
 10
3602.2039863675031484
 20
105.2433995775029985
 30
0.0
 40
14.3111326598267503
 50
11.9350379882504907
 51
22.6630451848592003
  0
ARC
  5
17633
  8
0
 10
3474.3920071768948219
 20
57.9947265593384671
 30
0.0
 40
150.5565773281153952
 50
21.1190850875949714
 51
21.7028433079909888
  0
ARC
  5
17634
  8
0
 10
5258.731831332769616
 20
747.1971059250334974
 30
0.0
 40
1762.2603317857578986
 50
201.1190850875941862
 51
201.1708086819720052
  0
ARC
  5
17635
  8
0
 10
3613.8636020946391909
 20
113.924962638571003
 30
0.0
 40
2.260719356678301
 50
68.9226969289725133
 51
75.4011263684476205
  0
LINE
  5
17636
  8
0
 10
3613.4345101106250695
 20
130.6328773990929903
 30
0.0
 11
3613.4345101106250695
 21
130.5738222787929885
 31
0.0
  0
ARC
  5
17637
  8
0
 10
3628.8297055730417924
 20
130.6315012678761036
 30
0.0
 40
0.1197061305616791
 50
24.3491196097024982
 51
86.5276497412782533
  0
ARC
  5
17638
  8
0
 10
3628.8321056601248529
 20
130.6324996885329028
 30
0.0
 40
0.1171079137473185
 50
0.1847975751870184
 51
24.3882277925560409
  0
ARC
  5
17639
  8
0
 10
3628.8302419778701733
 20
130.5743823059655142
 30
0.0
 40
0.1189723049695504
 50
274.083569231900583
 51
359.730295955014185
  0
ARC
  5
1763A
  8
0
 10
3628.5711506827001358
 20
130.3763313552630905
 30
0.0
 40
0.0799243605453465
 50
5.3646323542852814
 51
83.3132737074103176
  0
ARC
  5
1763B
  8
0
 10
3624.5412502220660826
 20
129.9979032710459137
 30
0.0
 40
4.1275539801551204
 50
4.5759230528699071
 51
5.3646323542852814
  0
ARC
  5
1763C
  8
0
 10
3628.7725682686627806
 20
130.3365574945968888
 30
0.0
 40
0.1172945559620964
 50
184.5759230528690864
 51
267.1638429133820978
  0
ARC
  5
1763D
  8
0
 10
3628.8116311424619198
 20
130.1411818492605903
 30
0.0
 40
0.0782721417038803
 50
357.2303844195504894
 51
88.1968858487571623
  0
ARC
  5
1763E
  8
0
 10
-95632.8450192729942501
 20
4189.8240987867739022
 30
0.0
 40
99344.7183184872701531
 50
357.6506385048393781
 51
357.657976139545724
  0
ARC
  5
1763F
  8
0
 10
3628.3085390992077919
 20
117.4274228762076007
 30
0.0
 40
0.0605854742728177
 50
284.459102469327604
 51
358.0782302248337032
  0
ARC
  5
17640
  8
0
 10
3628.1307320706300743
 20
117.2435815576208
 30
0.0
 40
0.1261080993045977
 50
32.6381450695723672
 51
83.0250865025975315
  0
ARC
  5
17641
  8
0
 10
3628.1464373601070292
 20
117.2536402478592947
 30
0.0
 40
0.1074578079701716
 50
359.4184016380764888
 51
32.6381450695723672
  0
ARC
  5
17642
  8
0
 10
3597.3948958227670119
 20
115.8654560272697012
 30
0.0
 40
30.8901525922289686
 50
2.4709043413266492
 51
2.5736788860442918
  0
ARC
  5
17643
  8
0
 10
3628.1937090906508274
 20
117.1485109731041945
 30
0.0
 40
0.0793168319188478
 50
37.8631191835828602
 51
89.6357614804469165
  0
ARC
  5
17644
  8
0
 10
3628.1939510070460528
 20
117.1486990499145975
 30
0.0
 40
0.0790104066769812
 50
1.2775051440207981
 51
37.8631191835828602
  0
ARC
  5
17645
  8
0
 10
3599.4223968686437729
 20
116.5070828456580045
 30
0.0
 40
28.8577177941289094
 50
0.6459075298354305
 51
1.2775051440207981
  0
ARC
  5
17646
  8
0
 10
3621.6042046427660352
 20
-625.7976298747632882
 30
0.0
 40
741.7728746356964393
 50
89.6611617703671158
 51
90.0318476156705714
  0
ARC
  5
17647
  8
0
 10
3622.9036325128581666
 20
-406.0737077203817762
 30
0.0
 40
522.0451101640794604
 50
89.4580544575289167
 51
89.6611617703671158
  0
ARC
  5
17648
  8
0
 10
3627.8904635658168445
 20
121.1302805219194028
 30
0.0
 40
5.1824628084834474
 50
269.4580544575288741
 51
271.0949194634835067
  0
ARC
  5
17649
  8
0
 10
3561.8605224720117803
 20
115.0405747588352057
 30
0.0
 40
66.4310902906523921
 50
0.3671044109286292
 51
1.2425874063129381
  0
ARC
  5
1764A
  8
0
 10
3674.6782549190720601
 20
118.676081288319395
 30
0.0
 40
46.4989286086512408
 50
183.9583402621894948
 51
184.5206562190190027
  0
ARC
  5
1764B
  8
0
 10
3625.687294209888023
 20
114.7483544263277935
 30
0.0
 40
2.6497505367652039
 50
335.9732711775940857
 51
5.6908423187495281
  0
ARC
  5
1764C
  8
0
 10
3627.792346372216798
 20
115.7634955874764984
 30
0.0
 40
0.500893976072592
 50
8.3564423203341889
 51
40.0412437069733116
  0
ARC
  5
1764D
  8
0
 10
3625.4953024372312029
 20
121.3588996560328042
 30
0.0
 40
5.909120789939962
 50
293.6932453884763845
 51
295.7698439301470898
  0
ARC
  5
1764E
  8
0
 10
3628.7078827387740603
 20
114.7044221940810047
 30
0.0
 40
1.4802460628756999
 50
111.0658723498404044
 51
115.7698439301471041
  0
ARC
  5
1764F
  8
0
 10
3627.9973709901919392
 20
116.5490270387321061
 30
0.0
 40
0.4964668595753938
 50
291.0658723498403901
 51
298.6362889199174901
  0
ARC
  5
17650
  8
0
 10
3628.1922256292828024
 20
116.1921763041571012
 30
0.0
 40
0.0898825790847173
 50
298.6362889199174901
 51
0.1469918172221474
  0
ARC
  5
17651
  8
0
 10
3691.2754999729909287
 20
68.1009421811379951
 30
0.0
 40
79.6312864791240855
 50
143.0161125411165131
 51
143.066800884266712
  0
ARC
  5
17652
  8
0
 10
3627.5793154443649655
 20
116.2141534556979963
 30
0.0
 40
0.2250156406292253
 50
292.5626740888645827
 51
301.7277311207139974
  0
ARC
  5
17653
  8
0
 10
3627.686927658337936
 20
116.0411215763321024
 30
0.0
 40
0.0212574954607167
 50
300.2837005621199182
 51
357.0812002877444797
  0
ARC
  5
17654
  8
0
 10
3627.6568449350661467
 20
116.0132847657501003
 30
0.0
 40
0.0578686723741524
 50
27.5374960302623393
 51
66.5336049025365242
  0
ARC
  5
17655
  8
0
 10
3627.5766221145599957
 20
115.8232082169638062
 30
0.0
 40
0.2641786983283824
 50
66.9896493739030205
 51
85.7401696961253919
  0
ARC
  5
17656
  8
0
 10
3627.6196940732270377
 20
113.7473670579265956
 30
0.0
 40
2.3394075739180571
 50
90.5743094997801421
 51
96.5736813930024027
  0
ARC
  5
17657
  8
0
 10
3628.2429320287560586
 20
107.8892860958606974
 30
0.0
 40
8.2304842415644117
 50
96.2151834219046265
 51
98.2843338958518444
  0
ARC
  5
17658
  8
0
 10
3627.1196896934779943
 20
115.6291373284867063
 30
0.0
 40
0.4095700796978686
 50
98.7991205111520117
 51
113.9748111392692067
  0
ARC
  5
17659
  8
0
 10
3627.0390877280151471
 20
115.8913846492641966
 30
0.0
 40
0.1410894247248605
 50
127.4646309145995957
 51
152.7431068455510967
  0
ARC
  5
1765A
  8
0
 10
3627.5978116460228193
 20
115.6548572481819974
 30
0.0
 40
0.4318027030117195
 50
78.7665268691544043
 51
90.2078517976247127
  0
ARC
  5
1765B
  8
0
 10
3627.6703834209838533
 20
116.0202509991806039
 30
0.0
 40
0.0592718240367266
 50
50.6910440401811684
 51
78.7665268691544043
  0
LINE
  5
1765C
  8
0
 10
3627.7079322296590362
 20
116.0661120511930022
 30
0.0
 11
3627.7081575765150774
 21
116.0400391311854946
 31
0.0
  0
ARC
  5
1765D
  8
0
 10
3625.3649175196610486
 20
114.9808864449542938
 30
0.0
 40
1.6567488007807769
 50
36.1230592377225435
 51
43.090208038662567
  0
ARC
  5
1765E
  8
0
 10
3624.9107608870208423
 20
122.1696391733045033
 30
0.0
 40
6.2813731187803166
 50
278.8436364861626089
 51
285.3620496642652142
  0
ARC
  5
1765F
  8
0
 10
3628.0006230661169866
 20
115.6282050224022981
 30
0.0
 40
0.3207520791297464
 50
38.9250262650787704
 51
91.988353168604192
  0
ARC
  5
17660
  8
0
 10
3628.1123224273751475
 20
115.7183660620288066
 30
0.0
 40
0.1772050217571139
 50
2.7308765627859972
 51
38.9374942449686117
  0
ARC
  5
17661
  8
0
 10
3626.1383608223782176
 20
99.9488263674239619
 30
0.0
 40
0.1158279212899828
 50
276.0853530941657255
 51
2.5622122773026641
  0
ARC
  5
17662
  8
0
 10
4165.4762791449438737
 20
124.0835908315887934
 30
0.0
 40
539.7618221034721273
 50
181.9922643136441138
 51
182.5622122773017963
  0
ARC
  5
17663
  8
0
 10
3643.5856219531769966
 20
105.9293152114775012
 30
0.0
 40
17.5555067573768184
 50
172.5585601578480066
 51
181.9922643136441138
  0
ARC
  5
17664
  8
0
 10
3640.1797367078729621
 20
105.2433995775029985
 30
0.0
 40
14.3111326598267503
 50
157.3369548151408139
 51
168.0649620117494862
  0
ARC
  5
17665
  8
0
 10
3767.9917158984808339
 20
57.9947265593384671
 30
0.0
 40
150.5565773281153952
 50
158.2971566920097075
 51
158.8809149124049895
  0
ARC
  5
17666
  8
0
 10
1983.6518917426060398
 20
747.1971059250334974
 30
0.0
 40
1762.2603317857578986
 50
338.829191318027199
 51
338.8809149124051032
  0
ARC
  5
17667
  8
0
 10
3628.5201209807369196
 20
113.924962638571003
 30
0.0
 40
2.260719356678301
 50
104.5988736315523937
 51
111.0773030710275009
  0
LINE
  5
17668
  8
0
 10
3628.949212964751041
 20
130.6328773990929903
 30
0.0
 11
3628.949212964751041
 21
130.5738222787929885
 31
0.0
  0
LINE
  5
17669
  8
0
 10
3628.2004021821649076
 20
116.5662065022929994
 30
0.0
 11
3626.9777224497088355
 21
116.5662065022929994
 31
0.0
  0
ARC
  5
1766A
  8
0
 10
3628.2036963703508263
 20
116.8315543123615043
 30
0.0
 40
0.0745893550649374
 50
275.9715683609126131
 51
0.6459075298354305
  0
ARC
  5
1766B
  8
0
 10
3626.8787489415390155
 20
784.6148257684849341
 30
0.0
 40
667.8587857678841146
 50
270.094735411791703
 51
270.114333385336522
  0
ARC
  5
1766C
  8
0
 10
3629.1685937358879528
 20
103.7825745526053964
 30
0.0
 40
13.0284338432938291
 50
95.221095437630126
 51
96.9693634657720622
  0
ARC
  5
1766D
  8
0
 10
3606.0502425148019938
 20
129.278564853683605
 30
0.0
 40
24.9341829517455409
 50
329.3966198806166972
 51
329.7430069725480166
  0
ARC
  5
1766E
  8
0
 10
3627.4574296562141171
 20
116.611343648239199
 30
0.0
 40
0.0601527107938383
 50
311.3770479102216768
 51
333.7799167339160249
  0
ARC
  5
1766F
  8
0
 10
3626.5060154924631206
 20
-223.724805559523702
 30
0.0
 40
340.4783480813380265
 50
89.7627793831209431
 51
90.2338990802732752
  0
ARC
  5
17670
  8
0
 10
3622.94427048578018
 20
648.7532850036683385
 30
0.0
 40
532.0070125639199432
 50
269.8112697466164036
 51
270.2338990802733178
  0
LINE
  5
17671
  8
0
 10
3624.9320507569591427
 20
116.7499860037649029
 30
0.0
 11
3624.9320385587520832
 21
116.5662065022929994
 31
0.0
  0
LINE
  5
17672
  8
0
 10
3624.948861955918801
 20
116.7500490828470987
 30
0.0
 11
3624.9507430854728227
 21
116.5662065022929994
 31
0.0
  0
LINE
  5
17673
  8
0
 10
3624.9320507569591427
 20
116.6362907691929962
 30
0.0
 11
3624.9500259633277892
 21
116.6362907691929962
 31
0.0
  0
ARC
  5
17674
  8
0
 10
3626.9847309924598449
 20
116.6092190735019045
 30
0.0
 40
0.0435798227792577
 50
226.0538977083081136
 51
260.7454573658624781
  0
ARC
  5
17675
  8
0
 10
3625.8107759152399012
 20
115.8750085291983964
 30
0.0
 40
1.342404832729853
 50
31.5715492950807608
 51
35.455746962708929
  0
ARC
  5
17676
  8
0
 10
3626.3024015464388867
 20
116.2308385799964014
 30
0.0
 40
0.6523556679156006
 50
43.9613563128134075
 51
53.2426973645602573
  0
ARC
  5
17677
  8
0
 10
3626.840284569828782
 20
116.7601197048398944
 30
0.0
 40
0.1025114979128289
 50
228.2113567389397133
 51
259.7182583299286875
  0
ARC
  5
17678
  8
0
 10
3626.8929221094331297
 20
117.0980925837372979
 30
0.0
 40
0.4445342879048738
 50
260.8180166409600247
 51
271.4602398307632143
  0
ARC
  5
17679
  8
0
 10
3628.1806214124608232
 20
116.4725100443944967
 30
0.0
 40
0.0957617098469257
 50
5.1878324931194779
 51
78.0790235658461427
  0
ARC
  5
1767A
  8
0
 10
3639.0042532408961051
 20
116.7733842110674942
 30
0.0
 40
10.7334450009393407
 50
179.8629050878707858
 51
181.4856000562917018
  0
LINE
  5
1767B
  8
0
 10
3625.4664117888860346
 20
116.7519553748112031
 30
0.0
 11
3625.4644727654740564
 21
116.5683848865600964
 31
0.0
  0
LINE
  5
1767C
  8
0
 10
3625.486423969146017
 20
116.7520158913972068
 30
0.0
 11
3625.4842437081601929
 21
116.5705179432929981
 31
0.0
  0
ARC
  5
1767D
  8
0
 10
3625.4323030011978517
 20
116.9592542927199048
 30
0.0
 40
0.3921910075528266
 50
274.7050158465365826
 51
277.6104557077040909
  0
ARC
  5
1767E
  8
0
 10
3625.3923916455669314
 20
117.7592636985735055
 30
0.0
 40
1.193058268798969
 50
270.0768261789494886
 51
273.4637542318560008
  0
ARC
  5
1767F
  8
0
 10
3715.8985738828459944
 20
502.6041036000517011
 30
0.0
 40
396.0920872490896727
 50
256.942445748381374
 51
257.0176909986299734
  0
LINE
  5
17680
  8
0
 10
3625.4851129459589174
 20
116.6362907691929962
 30
0.0
 11
3625.4651900436019787
 21
116.6362907691929962
 31
0.0
  0
ARC
  5
17681
  8
0
 10
3627.776406069056975
 20
101.1932863240582066
 30
0.0
 40
2.10364514406514
 50
169.2864145750170053
 51
200.5643783599578001
  0
ARC
  5
17682
  8
0
 10
3624.3558915026369505
 20
100.8985174320842049
 30
0.0
 40
1.517378433196332
 50
342.9795385680978939
 51
26.8712543668877792
  0
ARC
  5
17683
  8
0
 10
3614.607317006318226
 20
101.1932863240582066
 30
0.0
 40
2.10364514406514
 50
339.4356216400415178
 51
10.713585424983
  0
ARC
  5
17684
  8
0
 10
3618.02783157273916
 20
100.8985174320842049
 30
0.0
 40
1.517378433196332
 50
153.128745633112203
 51
197.0204614319021061
  0
LINE
  5
17685
  8
0
 10
3618.7115561648820403
 20
130.7509876350929972
 30
0.0
 11
3618.711555997188043
 21
130.7893609965931034
 31
0.0
  0
ARC
  5
17686
  8
0
 10
3618.7637756270041791
 20
130.7893612247972897
 30
0.0
 40
0.0522196298173469
 50
105.9809377861461996
 51
180.0002503874416959
  0
ARC
  5
17687
  8
0
 10
3619.0717608463519355
 20
129.713938889624302
 30
0.0
 40
1.1708742209783269
 50
96.6826809137319856
 51
105.9809377861461996
  0
ARC
  5
17688
  8
0
 10
3618.9364078066778347
 20
130.8691578612242949
 30
0.0
 40
0.0077528525503926
 50
16.9441031304974601
 51
96.6826809137319856
  0
ARC
  5
17689
  8
0
 10
3621.1916841093420771
 20
-72.9357708904056636
 30
0.0
 40
203.8195840681586049
 50
89.3679882494145232
 51
90.6319093567094285
  0
LINE
  5
1768A
  8
0
 10
3621.7102743304722026
 20
130.8831534368013081
 30
0.0
 11
3621.709644939187001
 21
130.9156868517929979
 31
0.0
  0
ARC
  5
1768B
  8
0
 10
3621.6978133127140609
 20
130.9154579572063142
 30
0.0
 40
0.0118338403628909
 50
1.108305611033451
 51
89.8104244032604839
  0
ARC
  5
1768C
  8
0
 10
3621.056673175729884
 20
71.3345016991128631
 30
0.0
 40
59.5962392679477233
 50
89.3835588196130715
 51
91.985728037874452
  0
ARC
  5
1768D
  8
0
 10
3618.9937840270890774
 20
130.8835061903988901
 30
0.0
 40
0.0116474230493888
 50
100.6552398168525002
 51
162.4885321525572976
  0
ARC
  5
1768E
  8
0
 10
3619.1089681802941413
 20
130.8727634736497976
 30
0.0
 40
0.1270929029646333
 50
173.5634904538370051
 51
180.4342263850992936
  0
LINE
  5
1768F
  8
0
 10
3621.7341211307439153
 20
130.8830913667343054
 30
0.0
 11
3621.7346251682879483
 21
130.9096852313930128
 31
0.0
  0
ARC
  5
17690
  8
0
 10
3621.7541327772792101
 20
130.9075872213076082
 30
0.0
 40
0.0196201033348791
 50
89.7475489163042255
 51
173.8615311894652962
  0
ARC
  5
17691
  8
0
 10
3621.6935436974767981
 20
40.6965190700173522
 30
0.0
 40
90.2307084647696058
 50
89.4094581364864354
 51
89.9614715214025154
  0
ARC
  5
17692
  8
0
 10
3622.6086270416039952
 20
119.638330397127902
 30
0.0
 40
11.2841143134709103
 50
86.0524118289364566
 51
89.9243490449020868
  0
ARC
  5
17693
  8
0
 10
3623.382157692301007
 20
130.8740270414373867
 30
0.0
 40
0.0218973797437654
 50
28.6473223029781217
 51
81.3007169035802661
  0
ARC
  5
17694
  8
0
 10
3623.3769202469998163
 20
130.8742009636667092
 30
0.0
 40
0.0265442873989658
 50
354.8391497013798812
 51
22.8883609238686994
  0
ARC
  5
17695
  8
0
 10
3623.4474145665790275
 20
130.8690281371902984
 30
0.0
 40
0.0078760667320157
 50
83.2426274471795864
 51
162.369560364225805
  0
ARC
  5
17696
  8
0
 10
3623.3064513343151702
 20
129.6793473278164015
 30
0.0
 40
1.20587901374132
 50
74.1457319840094868
 51
83.2426274471795864
  0
ARC
  5
17697
  8
0
 10
3623.6222296905220901
 20
130.7912635077761934
 30
0.0
 40
0.0499925307742687
 50
357.8190305162756886
 51
74.1457319840094868
  0
LINE
  5
17698
  8
0
 10
3623.672186007288019
 20
130.7893609966930057
 30
0.0
 11
3623.6721859690878773
 21
130.7509876350929972
 31
0.0
  0
LINE
  5
17699
  8
0
 10
3623.6722060795809739
 20
130.7899932047419895
 30
0.0
 11
3618.7115598215468708
 21
130.7899932047419895
 31
0.0
  0
LINE
  5
1769C
  8
0
 10
3614.6958444123538357
 20
112.6034825766867016
 30
0.0
 11
3614.6828311597460015
 21
112.5981022393139028
 31
0.0
  0
ARC
  5
1769D
  8
0
 10
3614.6908042104428205
 20
112.5788180726170964
 30
0.0
 40
0.0208674057469295
 50
112.4626782874759954
 51
185.7737437348976073
  0
ARC
  5
1769E
  8
0
 10
3619.4695201142080805
 20
113.4829331758457016
 30
0.0
 40
4.8842817543588017
 50
190.6924349665463865
 51
193.1145224762389887
  0
LINE
  5
1769F
  8
0
 10
3614.7126278139458009
 20
112.3746985889139012
 30
0.0
 11
3615.1882358476468653
 21
111.1138420602138979
 31
0.0
  0
LINE
  5
176A0
  8
0
 10
3615.1882358476468653
 20
111.1138420602138979
 30
0.0
 11
3615.288067673545811
 21
110.9364226696138047
 31
0.0
  0
ARC
  5
176A1
  8
0
 10
3615.3072094347130587
 20
110.9471935158089053
 30
0.0
 40
0.0219640194022688
 50
209.3659511300259055
 51
287.2685603374695233
  0
LINE
  5
176A2
  8
0
 10
3615.3137294742459744
 20
110.9262195502139008
 30
0.0
 11
3615.3408673815251859
 21
110.9364544707370044
 31
0.0
  0
LINE
  5
176A3
  8
0
 10
3614.715816996625108
 20
112.3662439339951931
 30
0.0
 11
3614.7134391303297889
 21
112.3653413599498947
 31
0.0
  0
ARC
  5
176A4
  8
0
 10
3614.7162289374359716
 20
112.3579915050314071
 30
0.0
 40
0.0078615132774894
 50
110.7854139668971953
 51
193.0085751687799132
  0
ARC
  5
176A5
  8
0
 10
3619.5248917907169925
 20
113.4689168735533968
 30
0.0
 40
4.9431825373801024
 50
193.0085751687799132
 51
208.2753248991103021
  0
ARC
  5
176A6
  8
0
 10
3615.1816084717302147
 20
111.1327119792995006
 30
0.0
 40
0.0114522835115734
 50
208.2753248991124053
 51
275.8090380845682148
  0
LINE
  5
176A7
  8
0
 10
3615.182767594366851
 20
111.1213185060650943
 30
0.0
 11
3615.1851278704289143
 21
111.1220814361016949
 31
0.0
  0
ENDSEC
  0
EOF
