  0
SECTION
  2
HEADER
  9
$ACADVER
  1
AC1009
  9
$INSBASE
 10
4120.7191143404170361
 20
155.9720674465528987
 30
0.0
  9
$EXTMIN
 10
4117.904148873615668
 20
152.3591104067529045
 30
0.0
  9
$EXTMAX
 10
4120.7298988225529683
 20
157.940571383552907
 30
0.0
  9
$LIMMIN
 10
0.0
 20
0.0
  9
$LIMMAX
 10
11.6929133858000007
 20
8.2677165353999982
  9
$ORTHOMODE
 70
     0
  9
$REGENMODE
 70
     1
  9
$FILLMODE
 70
     1
  9
$QTEXTMODE
 70
     0
  9
$MIRRTEXT
 70
     0
  9
$DRAGMODE
 70
     2
  9
$LTSCALE
 40
0.6431102362
  9
$OSMODE
 70
  4095
  9
$ATTMODE
 70
     1
  9
$TEXTSIZE
 40
0.2
  9
$TRACEWID
 40
0.05
  9
$TEXTSTYLE
  7
STANDARD
  9
$CLAYER
  8
0
  9
$CELTYPE
  6
BYLAYER
  9
$CECOLOR
 62
   256
  9
$DIMSCALE
 40
1.0
  9
$DIMASZ
 40
0.1875
  9
$DIMEXO
 40
0.0625
  9
$DIMDLI
 40
0.4443307087
  9
$DIMRND
 40
0.0
  9
$DIMDLE
 40
0.0
  9
$DIMEXE
 40
0.125
  9
$DIMTP
 40
0.01
  9
$DIMTM
 40
0.01
  9
$DIMTXT
 40
2.0
  9
$DIMCEN
 40
0.1052362205
  9
$DIMTSZ
 40
0.0
  9
$DIMTOL
 70
     1
  9
$DIMLIM
 70
     0
  9
$DIMTIH
 70
     1
  9
$DIMTOH
 70
     1
  9
$DIMSE1
 70
     0
  9
$DIMSE2
 70
     0
  9
$DIMTAD
 70
     0
  9
$DIMZIN
 70
     0
  9
$DIMBLK
  1

  9
$DIMASO
 70
     1
  9
$DIMSHO
 70
     1
  9
$DIMPOST
  1
\X
  9
$DIMAPOST
  1

  9
$DIMALT
 70
     1
  9
$DIMALTD
 70
     2
  9
$DIMALTF
 40
25.3999999999999986
  9
$DIMLFAC
 40
1.0
  9
$DIMTOFL
 70
     0
  9
$DIMTVP
 40
0.0
  9
$DIMTIX
 70
     0
  9
$DIMSOXD
 70
     0
  9
$DIMSAH
 70
     0
  9
$DIMBLK1
  1

  9
$DIMBLK2
  1

  9
$DIMSTYLE
  2
STANDARD
  9
$DIMCLRD
 70
     0
  9
$DIMCLRE
 70
     0
  9
$DIMCLRT
 70
     0
  9
$DIMTFAC
 40
1.0
  9
$DIMGAP
 40
0.09
  9
$LUNITS
 70
     2
  9
$LUPREC
 70
     4
  9
$SKETCHINC
 40
0.1
  9
$FILLETRAD
 40
0.0
  9
$AUNITS
 70
     0
  9
$AUPREC
 70
     0
  9
$MENU
  1
.
  9
$ELEVATION
 40
0.0
  9
$PELEVATION
 40
0.0
  9
$THICKNESS
 40
0.0
  9
$LIMCHECK
 70
     0
  9
$BLIPMODE
 70
     0
  9
$CHAMFERA
 40
0.0
  9
$CHAMFERB
 40
0.0
  9
$SKPOLY
 70
     0
  9
$TDCREATE
 40
2458060.468368056230247
  9
$TDUPDATE
 40
2459121.5600694450549781
  9
$TDINDWG
 40
0.4058519676
  9
$TDUSRTIMER
 40
0.4058519676
  9
$USRTIMER
 70
     1
  9
$ANGBASE
 50
0.0
  9
$ANGDIR
 70
     0
  9
$PDMODE
 70
     0
  9
$PDSIZE
 40
0.3125
  9
$PLINEWID
 40
0.0
  9
$COORDS
 70
     1
  9
$SPLFRAME
 70
     0
  9
$SPLINETYPE
 70
     6
  9
$SPLINESEGS
 70
     8
  9
$ATTDIA
 70
     1
  9
$ATTREQ
 70
     1
  9
$HANDLING
 70
     1
  9
$HANDSEED
  5
14FD9
  9
$SURFTAB1
 70
     6
  9
$SURFTAB2
 70
     6
  9
$SURFTYPE
 70
     6
  9
$SURFU
 70
     6
  9
$SURFV
 70
     6
  9
$UCSNAME
  2

  9
$UCSORG
 10
0.0
 20
0.0
 30
0.0
  9
$UCSXDIR
 10
1.0
 20
0.0
 30
0.0
  9
$UCSYDIR
 10
0.0
 20
1.0
 30
0.0
  9
$PUCSNAME
  2

  9
$PUCSORG
 10
0.0
 20
0.0
 30
0.0
  9
$PUCSXDIR
 10
1.0
 20
0.0
 30
0.0
  9
$PUCSYDIR
 10
0.0
 20
1.0
 30
0.0
  9
$USERI1
 70
     0
  9
$USERI2
 70
     0
  9
$USERI3
 70
     0
  9
$USERI4
 70
     0
  9
$USERI5
 70
     0
  9
$USERR1
 40
0.0
  9
$USERR2
 40
0.0
  9
$USERR3
 40
0.0
  9
$USERR4
 40
0.0
  9
$USERR5
 40
0.0
  9
$WORLDVIEW
 70
     1
  9
$SHADEDGE
 70
     3
  9
$SHADEDIF
 70
    70
  9
$TILEMODE
 70
     1
  9
$MAXACTVP
 70
    64
  9
$PLIMCHECK
 70
     0
  9
$PEXTMIN
 10
1.0000000000000000E+20
 20
1.0000000000000000E+20
 30
1.0000000000000000E+20
  9
$PEXTMAX
 10
-1.0000000000000000E+20
 20
-1.0000000000000000E+20
 30
-1.0000000000000000E+20
  9
$PLIMMIN
 10
0.0
 20
0.0
  9
$PLIMMAX
 10
12.0
 20
9.0
  9
$UNITMODE
 70
     0
  9
$VISRETAIN
 70
     1
  9
$PLINEGEN
 70
     0
  9
$PSLTSCALE
 70
     1
  0
ENDSEC
  0
SECTION
  2
TABLES
  0
TABLE
  2
VPORT
 70
     1
  0
VPORT
  2
*ACTIVE
 70
     0
 10
0.0
 20
0.0
 11
1.0
 21
1.0
 12
207.9516673910756026
 22
22.5702357860730203
 13
0.0
 23
0.0
 14
1.0
 24
1.0
 15
0.0
 25
0.0
 16
0.0
 26
0.0
 36
60.4960186965801583
 17
3911.3653564453120453
 27
132.5796051025390057
 37
0.0
 40
6.7422565018917311
 41
1.788248337028824
 42
50.0
 43
0.0
 44
0.0
 50
0.0
 51
0.0
 71
     0
 72
   100
 73
     1
 74
     1
 75
     0
 76
     0
 77
     0
 78
     0
  0
ENDTAB
  0
TABLE
  2
LTYPE
 70
     2
  0
LTYPE
  2
CONTINUOUS
 70
     0
  3
Solid line
 72
    65
 73
     0
 40
0.0
  0
LTYPE
  2
PHANTOM2
 70
     0
  3
___ _ _ ___ _ _ ___ _ _ ___ _ _
 72
    65
 73
     6
 40
1.25
 49
0.625
 49
-0.125
 49
0.125
 49
-0.125
 49
0.125
 49
-0.125
  0
ENDTAB
  0
TABLE
  2
LAYER
 70
     2
  0
LAYER
  2
0
 70
     0
 62
   255
  6
CONTINUOUS
  0
LAYER
  2
DEFPOINTS
 70
     0
 62
     7
  6
CONTINUOUS
  0
ENDTAB
  0
TABLE
  2
STYLE
 70
     1
  0
STYLE
  2
STANDARD
 70
     0
 40
0.0
 41
0.8
 50
0.0
 71
     0
 42
0.2
  3
txt
  4

  0
ENDTAB
  0
TABLE
  2
VIEW
 70
     0
  0
ENDTAB
  0
TABLE
  2
UCS
 70
     0
  0
ENDTAB
  0
TABLE
  2
APPID
 70
    10
  0
APPID
  2
ACAD
 70
     0
  0
APPID
  2
ACAD_MLEADERVER
 70
     0
  0
APPID
  2
ACAD_EXEMPT_FROM_CAD_STANDARDS
 70
     0
  0
APPID
  2
ACAD_NAV_VCDISPLAY
 70
     0
  0
APPID
  2
ACAECLAYERSTANDARD
 70
     0
  0
APPID
  2
ACCMTRANSPARENCY
 70
     0
  0
APPID
  2
ACAD_DSTYLE_DIMJAG
 70
     0
  0
APPID
  2
ACAD_DSTYLE_DIMTALN
 70
     0
  0
APPID
  2
ACDBATTR
 70
     0
  0
APPID
  2
ACADANNOTATIVE
 70
     0
  0
ENDTAB
  0
TABLE
  2
DIMSTYLE
 70
     1
  0
DIMSTYLE
  2
STANDARD
 70
     0
  3

  4

  5

  6

  7

 40
1.0
 41
0.1875
 42
0.0625
 43
0.38
 44
0.125
 45
0.0
 46
0.0
 47
0.01
 48
0.01
140
0.15625
141
0.09
142
0.0
143
25.3999999999999986
144
1.0
145
0.0
146
1.0
147
0.09
 71
     1
 72
     0
 73
     1
 74
     1
 75
     0
 76
     0
 77
     0
 78
     4
170
     0
171
     2
172
     0
173
     0
174
     0
175
     0
176
     0
177
     0
178
     0
  0
ENDTAB
  0
ENDSEC
  0
SECTION
  2
BLOCKS
  0
BLOCK
  8
0
  2
$MODEL_SPACE
 70
     0
 10
0.0
 20
0.0
 30
0.0
  3
$MODEL_SPACE
  1

  0
ENDBLK
  5
21
  8
0
  0
BLOCK
 67
     1
  8
0
  2
$PAPER_SPACE
 70
     0
 10
0.0
 20
0.0
 30
0.0
  3
$PAPER_SPACE
  1

  0
ENDBLK
  5
1D
 67
     1
  8
0
  0
BLOCK
  8
0
  2
_CLOSED
 70
     0
 10
0.0
 20
0.0
 30
0.0
  3
_CLOSED
  1

  0
LINE
  5
14E28
  8
0
  6
BYBLOCK
 62
     0
 10
0.0
 20
0.0
 30
0.0
 11
-1.0
 21
0.1666666667
 31
0.0
  0
LINE
  5
14E29
  8
0
  6
BYBLOCK
 62
     0
 10
-1.0
 20
0.1666666667
 30
0.0
 11
-1.0
 21
-0.1666666667
 31
0.0
  0
LINE
  5
14E2A
  8
0
  6
BYBLOCK
 62
     0
 10
-1.0
 20
-0.1666666667
 30
0.0
 11
0.0
 21
0.0
 31
0.0
  0
LINE
  5
14E2B
  8
0
  6
BYBLOCK
 62
     0
 10
-1.0
 20
0.0
 30
0.0
 11
0.0
 21
0.0
 31
0.0
  0
ENDBLK
  5
14E2C
  8
0
  6
BYBLOCK
 62
     0
  0
ENDSEC
  0
SECTION
  2
ENTITIES
  0
LINE
  5
14E60
  8
0
 10
4117.904148873615668
 20
152.3787472772004037
 30
0.0
 11
4117.9041537101820722
 21
156.9102674929480088
 31
0.0
  0
LINE
  5
14E61
  8
0
 10
4120.7191143404170361
 20
154.0035635095528903
 30
0.0
 11
4120.6010190648166827
 21
154.0035635095528903
 31
0.0
  0
ARC
  5
14E62
  8
0
 10
4120.6010190648166827
 20
154.0232635095528906
 30
0.0
 40
0.0197
 50
180.0
 51
270.0
  0
LINE
  5
14E63
  8
0
 10
4119.2427363876167874
 20
154.9661618453529002
 30
0.0
 11
4119.2427363875249284
 21
155.7887749519935028
 31
0.0
  0
LINE
  5
14E64
  8
0
 10
4120.5813190648168529
 20
155.007500517452911
 30
0.0
 11
4119.6482521357165751
 21
155.007500517452911
 31
0.0
  0
ARC
  5
14E65
  8
0
 10
4119.6482521357165751
 20
155.0390005174529051
 30
0.0
 40
0.0315
 50
180.0
 51
270.0
  0
LINE
  5
14E66
  8
0
 10
4119.4805368066172377
 20
155.0271855568529134
 30
0.0
 11
4119.6167521357156147
 21
155.0271855568529134
 31
0.0
  0
LINE
  5
14E67
  8
0
 10
4119.6167521357156147
 20
155.0271855568529134
 30
0.0
 11
4119.6167521357156147
 21
156.9169493363529
 31
0.0
  0
LINE
  5
14E68
  8
0
 10
4118.7714948093389467
 20
156.9302674716016952
 30
0.0
 11
4119.1874063405894049
 21
156.0383423143819925
 31
0.0
  0
LINE
  5
14E69
  8
0
 10
4120.5813190648168529
 20
154.0232635095528906
 30
0.0
 11
4120.5813190648168529
 21
157.9208713835529068
 31
0.0
  0
LINE
  5
14E6A
  8
0
 10
4120.7191143404170361
 20
154.0035635095528903
 30
0.0
 11
4120.7191143404170361
 21
157.940571383552907
 31
0.0
  0
LINE
  5
14E6B
  8
0
 10
4119.4805368066172377
 20
156.9169493363529
 30
0.0
 11
4119.6167521357156147
 21
156.9169493363529
 31
0.0
  0
ARC
  5
14E6C
  8
0
 10
4119.6482521357165751
 20
156.9051343757529082
 30
0.0
 40
0.0315
 50
90.5996378107493143
 51
180.0
  0
LINE
  5
14E6D
  8
0
 10
4120.6010190648166827
 20
157.940571383552907
 30
0.0
 11
4120.7191143404170361
 21
157.940571383552907
 31
0.0
  0
ARC
  5
14E6E
  8
0
 10
4120.6010190648166827
 20
157.9208713835529068
 30
0.0
 40
0.0197
 50
90.0
 51
180.0
  0
ARC
  5
14E6F
  8
0
 10
4119.4805368055058352
 20
155.9720674409834942
 30
0.0
 40
0.9448818841305723
 50
255.4235188493121882
 51
270.0000000673264253
  0
ARC
  5
14E70
  8
0
 10
4119.4805368066172377
 20
155.9720674465528987
 30
0.0
 40
0.9448818898000013
 50
90.0
 51
129.5675239098760017
  0
ARC
  5
14E71
  8
0
 10
4118.6521852065161511
 20
155.7887646007528986
 30
0.0
 40
0.5905511811000002
 50
0.0010042861994915
 51
25.0000000004111413
  0
ARC
  5
14E72
  8
0
 10
4117.9238552752167379
 20
152.3788169314528886
 30
0.0
 40
0.0197065247000018
 50
180.2025168346144142
 51
292.5754332446143167
  0
ARC
  5
14E73
  8
0
 10
4117.8541903854084012
 20
152.5498149990797003
 30
0.0
 40
0.2043504202518578
 50
292.2055388632243194
 51
312.0501352586541088
  0
ARC
  5
14E74
  8
0
 10
4117.7807768945149292
 20
152.6169208145265088
 30
0.0
 40
0.3035022276294794
 50
313.8566402987892729
 51
338.1922642767709135
  0
ARC
  5
14E75
  8
0
 10
4117.2026698014597059
 20
152.8374359089330881
 30
0.0
 40
0.9222118663566599
 50
338.8153503380987104
 51
354.6838461574191115
  0
ARC
  5
14E76
  8
0
 10
4115.2124394282109279
 20
153.0734226974431067
 30
0.0
 40
2.9261830597814211
 50
353.69353365913679
 51
359.6490945280846177
  0
ARC
  5
14E77
  8
0
 10
4368.4613539653282714
 20
147.7342103329503118
 30
0.0
 40
250.3793392217980056
 50
178.5936652176928021
 51
178.7822058918399932
  0
ARC
  5
14E78
  8
0
 10
4123.6684394172016255
 20
153.7517365416580901
 30
0.0
 40
5.512479789830194
 50
174.0682874622752934
 51
178.6750764661069866
  0
ARC
  5
14E79
  8
0
 10
4118.9893833747873941
 20
154.26395263296601
 30
0.0
 40
0.8059595856106895
 50
143.356859623576014
 51
175.9116541853256876
  0
ARC
  5
14E7A
  8
0
 10
4118.704863789646879
 20
154.4630539700254985
 30
0.0
 40
0.4589507972937123
 50
115.8392134784930931
 51
142.1012372446834888
  0
ARC
  5
14E7B
  8
0
 10
4118.9051967358473121
 20
154.0766260981122002
 30
0.0
 40
0.8941373549581038
 50
103.4234658426102982
 51
116.6005181551400938
  0
ARC
  5
14E7C
  8
0
 10
4118.9178814426932149
 20
153.945309849331295
 30
0.0
 40
1.0249715147531291
 50
87.119188367540275
 51
102.4090308952824984
  0
ARC
  5
14E7D
  8
0
 10
4119.3437668327333085
 20
177.9735413133309976
 30
0.0
 40
23.0076012903209701
 50
269.0676613403040847
 51
269.7484032934445963
  0
LINE
  5
14E7E
  8
0
 10
4119.6479224736312972
 20
156.9366326506724931
 30
0.0
 11
4120.5813190648168529
 21
156.9366326506724931
 31
0.0
  0
LINE
  5
14E7F
  8
0
 10
4117.9241537101815993
 20
156.9302674716016952
 30
0.0
 11
4118.7714948093389467
 21
156.9302674716016952
 31
0.0
  0
ARC
  5
14E80
  8
0
 10
4117.9241537101806898
 20
156.9102674716017134
 30
0.0
 40
0.02
 50
90.0
 51
179.9999388472818964
  0
ARC
  5
14E81
  8
0
 10
4119.0616673722333871
 20
134.368600516346703
 30
0.0
 40
21.4779520732016884
 50
89.5243325509632655
 51
90.8407519743141449
  0
ARC
  5
14E82
  8
0
 10
4118.7607697933390227
 20
154.1340743318656905
 30
0.0
 40
1.7102253701255481
 50
90.4776158262485666
 51
97.8374277560952095
  0
ARC
  5
14E83
  8
0
 10
4118.5752486101682734
 20
155.1785722241808969
 30
0.0
 40
0.651500012378506
 50
94.1978080919089109
 51
119.5776010927153976
  0
ARC
  5
14E84
  8
0
 10
4118.4477436072938872
 20
155.4028989664053881
 30
0.0
 40
0.3934690648719751
 50
119.5540902140148063
 51
148.6510342061826861
  0
ARC
  5
14E85
  8
0
 10
4119.073404573577136
 20
155.1376561468757131
 30
0.0
 40
1.0703711163501
 50
153.9568164326873045
 51
174.8669321689781953
  0
ARC
  5
14E86
  8
0
 10
4122.2692700685438467
 20
154.7341960690760061
 30
0.0
 40
4.2910828971699848
 50
173.3190706779072912
 51
178.8450012665147995
  0
ARC
  5
14E87
  8
0
 10
4817.0312567232549554
 20
151.2773072944285104
 30
0.0
 40
699.0611780760525562
 50
179.7095792579968077
 51
179.8567977149008073
  0
ARC
  5
14E88
  8
0
 10
4171.9561838920872106
 20
152.9032156151579898
 30
0.0
 40
53.9840580676710999
 50
179.8712698648025139
 51
180.4366838426491029
  0
ARC
  5
14E89
  8
0
 10
4120.6552009288152476
 20
152.5069979869736017
 30
0.0
 40
2.6815503928319839
 50
180.3252389040065964
 51
181.9990389761289009
  0
ARC
  5
14E8A
  8
0
 10
4118.1413533526292667
 20
152.4175172953407866
 30
0.0
 40
0.1661204571469554
 50
181.400149220991608
 51
187.4069430359616035
  0
ARC
  5
14E8B
  8
0
 10
4118.0067373439278526
 20
152.3982598251363925
 30
0.0
 40
0.0301954819608716
 50
184.0984321720769117
 51
200.6530600022387887
  0
ATTDEF
  5
14E8D
  8
DEFPOINTS
 10
4120.7192321558841286
 20
155.9754371175621941
 30
0.0
 40
0.001
  1
K-78986T-4
  3

  2
MODELNUMBER
 70
     0
1001
ACDBATTR
1070
     0
1070
     1
  0
ATTDEF
  5
14E8E
  8
DEFPOINTS
 10
4120.7191063462269085
 20
155.9737702771830072
 30
0.0
 40
0.001
  1
ALEO
  3

  2
TRADENAME
 70
     0
1001
ACDBATTR
1070
     0
1070
     1
  0
ATTDEF
  5
14E8F
  8
DEFPOINTS
 10
4120.7192321558841286
 20
155.9721037842288922
 30
0.0
 40
0.001
  1
VALVE TRIM
  3

  2
PRODUCT
 70
     0
1001
ACDBATTR
1070
     0
1070
     1
  0
ENDSEC
  0
EOF
