  0
SECTION
  2
HEADER
  9
$ACADVER
  1
AC1009
  9
$INSBASE
 10
55.0703836345688202
 20
18.912224982937051
 30
0.0
  9
$EXTMIN
 10
45.8764791826965492
 20
14.4048341256567198
 30
0.0
  9
$EXTMAX
 10
58.8046759023851706
 20
20.88072891993707
 30
0.0
  9
$LIMMIN
 10
0.0
 20
0.0
  9
$LIMMAX
 10
22.0
 20
17.0
  9
$ORTHOMODE
 70
     0
  9
$REGENMODE
 70
     1
  9
$FILLMODE
 70
     1
  9
$QTEXTMODE
 70
     0
  9
$MIRRTEXT
 70
     0
  9
$DRAGMODE
 70
     2
  9
$LTSCALE
 40
1.2099999999999991
  9
$OSMODE
 70
  4095
  9
$ATTMODE
 70
     1
  9
$TEXTSIZE
 40
0.2
  9
$TRACEWID
 40
0.05
  9
$TEXTSTYLE
  7
STANDARD
  9
$CLAYER
  8
0
  9
$CELTYPE
  6
BYLAYER
  9
$CECOLOR
 62
   256
  9
$DIMSCALE
 40
1.0
  9
$DIMASZ
 40
0.1875
  9
$DIMEXO
 40
0.0625
  9
$DIMDLI
 40
0.8359999999999999
  9
$DIMRND
 40
0.0
  9
$DIMDLE
 40
0.0
  9
$DIMEXE
 40
0.125
  9
$DIMTP
 40
0.01
  9
$DIMTM
 40
0.01
  9
$DIMTXT
 40
0.15625
  9
$DIMCEN
 40
0.198
  9
$DIMTSZ
 40
0.0
  9
$DIMTOL
 70
     1
  9
$DIMLIM
 70
     0
  9
$DIMTIH
 70
     1
  9
$DIMTOH
 70
     1
  9
$DIMSE1
 70
     0
  9
$DIMSE2
 70
     0
  9
$DIMTAD
 70
     0
  9
$DIMZIN
 70
     0
  9
$DIMBLK
  1

  9
$DIMASO
 70
     1
  9
$DIMSHO
 70
     1
  9
$DIMPOST
  1

  9
$DIMAPOST
  1

  9
$DIMALT
 70
     0
  9
$DIMALTD
 70
     2
  9
$DIMALTF
 40
25.3999999999999986
  9
$DIMLFAC
 40
1.0
  9
$DIMTOFL
 70
     0
  9
$DIMTVP
 40
0.0
  9
$DIMTIX
 70
     0
  9
$DIMSOXD
 70
     0
  9
$DIMSAH
 70
     0
  9
$DIMBLK1
  1

  9
$DIMBLK2
  1

  9
$DIMSTYLE
  2
STANDARD
  9
$DIMCLRD
 70
     0
  9
$DIMCLRE
 70
     0
  9
$DIMCLRT
 70
     0
  9
$DIMTFAC
 40
1.0
  9
$DIMGAP
 40
0.09
  9
$LUNITS
 70
     2
  9
$LUPREC
 70
     4
  9
$SKETCHINC
 40
0.1
  9
$FILLETRAD
 40
0.0
  9
$AUNITS
 70
     0
  9
$AUPREC
 70
     0
  9
$MENU
  1
.
  9
$ELEVATION
 40
0.0
  9
$PELEVATION
 40
0.0
  9
$THICKNESS
 40
0.0
  9
$LIMCHECK
 70
     0
  9
$BLIPMODE
 70
     0
  9
$CHAMFERA
 40
0.0
  9
$CHAMFERB
 40
0.0
  9
$SKPOLY
 70
     0
  9
$TDCREATE
 40
2457413.4551851851865649
  9
$TDUPDATE
 40
2459121.9418865740299225
  9
$TDINDWG
 40
0.1687778819
  9
$TDUSRTIMER
 40
0.1687778819
  9
$USRTIMER
 70
     1
  9
$ANGBASE
 50
0.0
  9
$ANGDIR
 70
     0
  9
$PDMODE
 70
     0
  9
$PDSIZE
 40
0.3125
  9
$PLINEWID
 40
0.0
  9
$COORDS
 70
     1
  9
$SPLFRAME
 70
     0
  9
$SPLINETYPE
 70
     6
  9
$SPLINESEGS
 70
     8
  9
$ATTDIA
 70
     1
  9
$ATTREQ
 70
     1
  9
$HANDLING
 70
     1
  9
$HANDSEED
  5
1AEA
  9
$SURFTAB1
 70
     6
  9
$SURFTAB2
 70
     6
  9
$SURFTYPE
 70
     6
  9
$SURFU
 70
     6
  9
$SURFV
 70
     6
  9
$UCSNAME
  2

  9
$UCSORG
 10
0.0
 20
0.0
 30
0.0
  9
$UCSXDIR
 10
1.0
 20
0.0
 30
0.0
  9
$UCSYDIR
 10
0.0
 20
1.0
 30
0.0
  9
$PUCSNAME
  2

  9
$PUCSORG
 10
0.0
 20
0.0
 30
0.0
  9
$PUCSXDIR
 10
1.0
 20
0.0
 30
0.0
  9
$PUCSYDIR
 10
0.0
 20
1.0
 30
0.0
  9
$USERI1
 70
     0
  9
$USERI2
 70
     0
  9
$USERI3
 70
     0
  9
$USERI4
 70
     0
  9
$USERI5
 70
     0
  9
$USERR1
 40
0.0
  9
$USERR2
 40
0.0
  9
$USERR3
 40
0.0
  9
$USERR4
 40
0.0
  9
$USERR5
 40
0.0
  9
$WORLDVIEW
 70
     1
  9
$SHADEDGE
 70
     3
  9
$SHADEDIF
 70
    70
  9
$TILEMODE
 70
     1
  9
$MAXACTVP
 70
    64
  9
$PLIMCHECK
 70
     0
  9
$PEXTMIN
 10
1.0000000000000000E+20
 20
1.0000000000000000E+20
 30
1.0000000000000000E+20
  9
$PEXTMAX
 10
-1.0000000000000000E+20
 20
-1.0000000000000000E+20
 30
-1.0000000000000000E+20
  9
$PLIMMIN
 10
0.0
 20
0.0
  9
$PLIMMAX
 10
12.0
 20
9.0
  9
$UNITMODE
 70
     0
  9
$VISRETAIN
 70
     1
  9
$PLINEGEN
 70
     0
  9
$PSLTSCALE
 70
     1
  0
ENDSEC
  0
SECTION
  2
TABLES
  0
TABLE
  2
VPORT
 70
     1
  0
VPORT
  2
*ACTIVE
 70
     0
 10
0.0
 20
0.0
 11
1.0
 21
1.0
 12
52.0313895734401513
 22
5.1239937215033962
 13
0.0
 23
0.0
 14
1.0
 24
1.0
 15
0.0
 25
0.0
 16
-0.0000000000000053
 26
0.0
 36
23.7775983911410194
 17
7.7199220657348633
 27
10.9499638080596906
 37
0.0
 40
25.0573375715796409
 41
2.005224660397074
 42
50.0
 43
0.0
 44
0.0
 50
0.0
 51
0.0
 71
     0
 72
   100
 73
     1
 74
     1
 75
     0
 76
     0
 77
     0
 78
     0
  0
ENDTAB
  0
TABLE
  2
LTYPE
 70
     1
  0
LTYPE
  2
CONTINUOUS
 70
     0
  3
Solid line
 72
    65
 73
     0
 40
0.0
  0
ENDTAB
  0
TABLE
  2
LAYER
 70
     2
  0
LAYER
  2
0
 70
     0
 62
     7
  6
CONTINUOUS
  0
LAYER
  2
DEFPOINTS
 70
     0
 62
     7
  6
CONTINUOUS
  0
ENDTAB
  0
TABLE
  2
STYLE
 70
     1
  0
STYLE
  2
STANDARD
 70
     0
 40
0.0
 41
0.8
 50
0.0
 71
     0
 42
0.2
  3
txt
  4

  0
ENDTAB
  0
TABLE
  2
VIEW
 70
     0
  0
ENDTAB
  0
TABLE
  2
UCS
 70
     0
  0
ENDTAB
  0
TABLE
  2
APPID
 70
     4
  0
APPID
  2
ACAD
 70
     0
  0
APPID
  2
ACAD_MLEADERVER
 70
     0
  0
APPID
  2
ACAD_NAV_VCDISPLAY
 70
     0
  0
APPID
  2
ACDBATTR
 70
     0
  0
ENDTAB
  0
TABLE
  2
DIMSTYLE
 70
     1
  0
DIMSTYLE
  2
STANDARD
 70
     0
  3

  4

  5

  6

  7

 40
1.0
 41
0.1875
 42
0.0625
 43
0.38
 44
0.125
 45
0.0
 46
0.0
 47
0.01
 48
0.01
140
0.15625
141
0.09
142
0.0
143
25.3999999999999986
144
1.0
145
0.0
146
1.0
147
0.09
 71
     1
 72
     0
 73
     1
 74
     1
 75
     0
 76
     0
 77
     0
 78
     4
170
     0
171
     2
172
     0
173
     0
174
     0
175
     0
176
     0
177
     0
178
     0
  0
ENDTAB
  0
ENDSEC
  0
SECTION
  2
BLOCKS
  0
BLOCK
  8
0
  2
$MODEL_SPACE
 70
     0
 10
0.0
 20
0.0
 30
0.0
  3
$MODEL_SPACE
  1

  0
ENDBLK
  5
21
  8
0
  0
BLOCK
 67
     1
  8
0
  2
$PAPER_SPACE
 70
     0
 10
0.0
 20
0.0
 30
0.0
  3
$PAPER_SPACE
  1

  0
ENDBLK
  5
1D
 67
     1
  8
0
  0
BLOCK
  8
0
  2
_FILLED
 70
     0
 10
0.0
 20
0.0
 30
0.0
  3
_FILLED
  1

  0
SOLID
  5
BDD
  8
0
  6
BYBLOCK
 62
     0
 10
0.0
 20
0.0
 30
0.0
 11
-1.0
 21
0.1666666667
 31
0.0
 12
-1.0
 22
-0.1666666667
 32
0.0
 13
-1.0
 23
-0.1666666667
 33
0.0
  0
ENDBLK
  5
BDE
  8
0
  6
BYBLOCK
 62
     0
  0
ENDSEC
  0
SECTION
  2
ENTITIES
  0
ATTDEF
  5
B55
  8
DEFPOINTS
 10
55.0769841408149503
 20
18.9192997956690085
 30
0.0
 40
0.001
  1
K-78990T-4
  3

  2
MODELNUMBER
 70
     0
1001
ACDBATTR
1070
     0
1070
     1
  0
ATTDEF
  5
B56
  8
DEFPOINTS
 10
55.0769841408149503
 20
18.9176933836635612
 30
0.0
 40
0.001
  1
TAUT
  3

  2
TRADENAME
 70
     0
1001
ACDBATTR
1070
     0
1070
     1
  0
ATTDEF
  5
B57
  8
DEFPOINTS
 10
55.0769841408149503
 20
18.9160869716580997
 30
0.0
 40
0.001
  1
VALVE TRIM
  3

  2
PRODUCT
 70
     0
1001
ACDBATTR
1070
     0
1070
     1
  0
LINE
  5
1A38
  8
0
 10
53.9680214298688128
 20
17.9673470318370612
 30
0.0
 11
53.9680214298688128
 21
19.8571029340370586
 31
0.0
  0
LINE
  5
1A39
  8
0
 10
53.9995174928688186
 20
19.876795850637059
 30
0.0
 11
54.9326277290688125
 21
19.876795850637059
 31
0.0
  0
LINE
  5
1A3A
  8
0
 10
53.9995149830408891
 20
17.9476619924370588
 30
0.0
 11
54.9326277290688125
 21
17.9476619924370588
 31
0.0
  0
ARC
  5
1A3B
  8
0
 10
53.9995174928688186
 20
17.9791580553370594
 30
0.0
 40
0.0314960629999931
 50
180.0
 51
269.9954342691078182
  0
ARC
  5
1A3C
  8
0
 10
53.9995174928688186
 20
19.8452997876370603
 30
0.0
 40
0.0314960629999925
 50
89.9999999999967457
 51
180.0
  0
LINE
  5
1A3D
  8
0
 10
52.7586959144617325
 20
19.8872928592065392
 30
0.0
 11
53.3471304978900491
 21
19.8872928592065392
 31
0.0
  0
LINE
  5
1A3E
  8
0
 10
52.7274797060872302
 20
15.8392056141898099
 30
0.0
 11
52.7274801857688118
 21
19.8557778616395417
 31
0.0
  0
LINE
  5
1A3F
  8
0
 10
52.7587013764397383
 20
15.8077402437459398
 30
0.0
 11
52.887608876368823
 21
15.8066269246370599
 31
0.0
  0
ARC
  5
1A40
  8
0
 10
52.7586496376086274
 20
15.8389115197175894
 30
0.0
 40
0.0311713189102981
 50
179.4594190228511934
 51
270.0951008210465147
  0
ARC
  5
1A41
  8
0
 10
52.7591545867058969
 20
19.8556213929165715
 30
0.0
 40
0.0316747874055134
 50
90.8297104558842392
 51
179.7169662483190962
  0
LINE
  5
1A42
  8
0
 10
53.810190272068823
 20
18.8942579115370606
 30
0.0
 11
53.3471304978900491
 21
19.8872928592065392
 31
0.0
  0
LINE
  5
1A43
  8
0
 10
53.8101737689688235
 20
17.9279782978060602
 30
0.0
 11
53.810190272068823
 21
18.8942579115370606
 31
0.0
  0
LINE
  5
1A44
  8
0
 10
53.8101737689688235
 20
17.9279782978060602
 30
0.0
 11
53.3661967650688212
 21
17.9318514816370609
 31
0.0
  0
LINE
  5
1A45
  8
0
 10
52.9189343839688178
 20
15.8361534679370592
 30
0.0
 11
53.005385098541133
 21
17.2227484733116789
 31
0.0
  0
ARC
  5
1A46
  8
0
 10
73.4585866597946051
 20
16.2836801159145992
 30
0.0
 40
20.4747479468033013
 50
175.4587078091174988
 51
177.3712235565427022
  0
ARC
  5
1A47
  8
0
 10
53.0795649779129235
 20
17.9028418340220803
 30
0.0
 40
0.0315085936459467
 50
89.5247466589340064
 51
176.4000334966231094
  0
ARC
  5
1A48
  8
0
 10
52.8874508884887575
 20
15.8381748486149991
 30
0.0
 40
0.0315483195667857
 50
270.2869273768329776
 51
356.326397937985007
  0
LINE
  5
1A49
  8
0
 10
52.992588233217937
 20
18.533279250142801
 30
0.0
 11
52.9189343839688178
 21
15.8361534679370592
 31
0.0
  0
ARC
  5
1A4A
  8
0
 10
57.9972318235745803
 20
18.6588042623418389
 30
0.0
 40
5.0062175337459376
 50
181.4367748086023084
 51
188.6622506136341997
  0
LINE
  5
1A4B
  8
0
 10
53.9247389540274114
 20
17.9819482966504687
 30
0.0
 11
53.9247419230688223
 21
19.8425206141605699
 31
0.0
  0
ARC
  5
1A4C
  8
0
 10
53.8312909065688174
 20
18.0264725509370614
 30
0.0
 40
0.0787401574999996
 50
14.9999999941769193
 51
90.1952752050072064
  0
LINE
  5
1A4D
  8
0
 10
53.9680214298688128
 20
17.9673470318370612
 30
0.0
 11
53.943767692805821
 21
17.9673470318370612
 31
0.0
  0
LINE
  5
1A4E
  8
0
 10
53.9073480582517206
 20
18.0468520033008311
 30
0.0
 11
53.9247389540274114
 21
17.9819482966504687
 31
0.0
  0
ARC
  5
1A4F
  8
0
 10
53.943767692805821
 20
17.9870470318370508
 30
0.0
 40
0.0197
 50
194.9999999941761928
 51
270.0
  0
LINE
  5
1A50
  8
0
 10
53.831022545255621
 20
18.1052122511227616
 30
0.0
 11
53.8101737834688194
 21
18.105623261343311
 31
0.0
  0
ARC
  5
1A51
  8
0
 10
53.8424587696274486
 20
18.9122289222570998
 30
0.0
 40
0.8070866134464244
 50
90.722362871636534
 51
117.6162161878301049
  0
ARC
  5
1A52
  8
0
 10
53.8312909065897216
 20
19.7979852922101713
 30
0.0
 40
0.0787401574728506
 50
270.7223628716361077
 51
344.9999999837622227
  0
LINE
  5
1A53
  8
0
 10
53.9680214298688128
 20
19.8571108113370585
 30
0.0
 11
53.9437676928326084
 21
19.8571108113370585
 31
0.0
  0
LINE
  5
1A54
  8
0
 10
53.9073480582385685
 20
19.777605839824151
 30
0.0
 11
53.9247389540561599
 21
19.8425095465309802
 31
0.0
  0
ARC
  5
1A55
  8
0
 10
53.9437676928326084
 20
19.8374108113370617
 30
0.0
 40
0.0197
 50
90.0
 51
164.9999999837606879
  0
ARC
  5
1A56
  8
0
 10
53.2305554763626887
 20
16.9454023348441005
 30
0.0
 40
0.995731127569295
 50
82.1706651987377086
 51
96.8293347948706469
  0
LINE
  5
1A57
  8
0
 10
53.0798263303688174
 20
17.9343493437370611
 30
0.0
 11
53.1121507580316674
 21
17.9340685075674102
 31
0.0
  0
ARC
  5
1A58
  8
0
 10
54.952273398368817
 20
20.8610438805370713
 30
0.0
 40
0.019685039399997
 50
89.9999999999894129
 51
180.0
  0
ARC
  5
1A59
  8
0
 10
54.952273398198102
 20
16.9634060851663513
 30
0.0
 40
0.0196850392292891
 50
179.9999997941951904
 51
270.0000004968770213
  0
LINE
  5
1A5A
  8
0
 10
54.952273398368817
 20
16.9437210459370604
 30
0.0
 11
55.0703836345688202
 21
16.9437210459370604
 31
0.0
  0
LINE
  5
1A5B
  8
0
 10
55.0703836345688202
 20
20.88072891993707
 30
0.0
 11
54.952273398368817
 21
20.8807289199370594
 31
0.0
  0
LINE
  5
1A5C
  8
0
 10
55.0703836345688202
 20
20.8807289199370594
 30
0.0
 11
55.0703836345688202
 21
16.9437210459370604
 31
0.0
  0
LINE
  5
1A5D
  8
0
 10
54.9325883589688075
 20
16.9634060852370609
 30
0.0
 11
54.9325883589688218
 21
20.8610438805370713
 31
0.0
  0
ENDSEC
  0
EOF
