  0
SECTION
  2
HEADER
  9
$ACADVER
  1
AC1009
  9
$INSBASE
 10
3496.4504380395969747
 20
159.842119787177694
 30
0.0
  9
$EXTMIN
 10
3493.2988968058712089
 20
156.6920128699530892
 30
-0.0015258207003583
  9
$EXTMAX
 10
3499.7068518048217811
 20
162.9967005786124048
 30
0.0000000349246037
  9
$LIMMIN
 10
0.0
 20
0.0
  9
$LIMMAX
 10
11.6929133858000007
 20
8.2677165353999982
  9
$ORTHOMODE
 70
     0
  9
$REGENMODE
 70
     1
  9
$FILLMODE
 70
     1
  9
$QTEXTMODE
 70
     0
  9
$MIRRTEXT
 70
     0
  9
$DRAGMODE
 70
     2
  9
$LTSCALE
 40
0.6431102362
  9
$OSMODE
 70
  4095
  9
$ATTMODE
 70
     1
  9
$TEXTSIZE
 40
0.2
  9
$TRACEWID
 40
0.05
  9
$TEXTSTYLE
  7
STANDARD
  9
$CLAYER
  8
0
  9
$CELTYPE
  6
BYLAYER
  9
$CECOLOR
 62
   256
  9
$DIMSCALE
 40
1.0
  9
$DIMASZ
 40
0.1875
  9
$DIMEXO
 40
0.0625
  9
$DIMDLI
 40
0.4443307087
  9
$DIMRND
 40
0.0
  9
$DIMDLE
 40
0.0
  9
$DIMEXE
 40
0.125
  9
$DIMTP
 40
0.01
  9
$DIMTM
 40
0.01
  9
$DIMTXT
 40
2.0
  9
$DIMCEN
 40
0.1052362205
  9
$DIMTSZ
 40
0.0
  9
$DIMTOL
 70
     1
  9
$DIMLIM
 70
     0
  9
$DIMTIH
 70
     1
  9
$DIMTOH
 70
     1
  9
$DIMSE1
 70
     0
  9
$DIMSE2
 70
     0
  9
$DIMTAD
 70
     0
  9
$DIMZIN
 70
     0
  9
$DIMBLK
  1

  9
$DIMASO
 70
     1
  9
$DIMSHO
 70
     1
  9
$DIMPOST
  1
\X
  9
$DIMAPOST
  1

  9
$DIMALT
 70
     1
  9
$DIMALTD
 70
     2
  9
$DIMALTF
 40
25.3999999999999986
  9
$DIMLFAC
 40
1.0
  9
$DIMTOFL
 70
     0
  9
$DIMTVP
 40
0.0
  9
$DIMTIX
 70
     0
  9
$DIMSOXD
 70
     0
  9
$DIMSAH
 70
     0
  9
$DIMBLK1
  1

  9
$DIMBLK2
  1

  9
$DIMSTYLE
  2
STANDARD
  9
$DIMCLRD
 70
     0
  9
$DIMCLRE
 70
     0
  9
$DIMCLRT
 70
     0
  9
$DIMTFAC
 40
1.0
  9
$DIMGAP
 40
0.09
  9
$LUNITS
 70
     2
  9
$LUPREC
 70
     4
  9
$SKETCHINC
 40
0.1
  9
$FILLETRAD
 40
0.0
  9
$AUNITS
 70
     0
  9
$AUPREC
 70
     0
  9
$MENU
  1
.
  9
$ELEVATION
 40
0.0
  9
$PELEVATION
 40
0.0
  9
$THICKNESS
 40
0.0
  9
$LIMCHECK
 70
     0
  9
$BLIPMODE
 70
     0
  9
$CHAMFERA
 40
0.0
  9
$CHAMFERB
 40
0.0
  9
$SKPOLY
 70
     0
  9
$TDCREATE
 40
2458060.468368056230247
  9
$TDUPDATE
 40
2459107.4149189819581807
  9
$TDINDWG
 40
0.5702616898
  9
$TDUSRTIMER
 40
0.5702616898
  9
$USRTIMER
 70
     1
  9
$ANGBASE
 50
0.0
  9
$ANGDIR
 70
     0
  9
$PDMODE
 70
     0
  9
$PDSIZE
 40
0.3125
  9
$PLINEWID
 40
0.0
  9
$COORDS
 70
     1
  9
$SPLFRAME
 70
     0
  9
$SPLINETYPE
 70
     6
  9
$SPLINESEGS
 70
     8
  9
$ATTDIA
 70
     1
  9
$ATTREQ
 70
     1
  9
$HANDLING
 70
     1
  9
$HANDSEED
  5
13E28
  9
$SURFTAB1
 70
     6
  9
$SURFTAB2
 70
     6
  9
$SURFTYPE
 70
     6
  9
$SURFU
 70
     6
  9
$SURFV
 70
     6
  9
$UCSNAME
  2

  9
$UCSORG
 10
0.0
 20
0.0
 30
0.0
  9
$UCSXDIR
 10
1.0
 20
0.0
 30
0.0
  9
$UCSYDIR
 10
0.0
 20
1.0
 30
0.0
  9
$PUCSNAME
  2

  9
$PUCSORG
 10
0.0
 20
0.0
 30
0.0
  9
$PUCSXDIR
 10
1.0
 20
0.0
 30
0.0
  9
$PUCSYDIR
 10
0.0
 20
1.0
 30
0.0
  9
$USERI1
 70
     0
  9
$USERI2
 70
     0
  9
$USERI3
 70
     0
  9
$USERI4
 70
     0
  9
$USERI5
 70
     0
  9
$USERR1
 40
0.0
  9
$USERR2
 40
0.0
  9
$USERR3
 40
0.0
  9
$USERR4
 40
0.0
  9
$USERR5
 40
0.0
  9
$WORLDVIEW
 70
     1
  9
$SHADEDGE
 70
     3
  9
$SHADEDIF
 70
    70
  9
$TILEMODE
 70
     1
  9
$MAXACTVP
 70
    64
  9
$PLIMCHECK
 70
     0
  9
$PEXTMIN
 10
1.0000000000000000E+20
 20
1.0000000000000000E+20
 30
1.0000000000000000E+20
  9
$PEXTMAX
 10
-1.0000000000000000E+20
 20
-1.0000000000000000E+20
 30
-1.0000000000000000E+20
  9
$PLIMMIN
 10
0.0
 20
0.0
  9
$PLIMMAX
 10
12.0
 20
9.0
  9
$UNITMODE
 70
     0
  9
$VISRETAIN
 70
     1
  9
$PLINEGEN
 70
     0
  9
$PSLTSCALE
 70
     1
  0
ENDSEC
  0
SECTION
  2
TABLES
  0
TABLE
  2
VPORT
 70
     1
  0
VPORT
  2
*ACTIVE
 70
     0
 10
0.0
 20
0.0
 11
1.0
 21
1.0
 12
192.8097590709712108
 22
-35.4171548516049768
 13
0.0
 23
0.0
 14
1.0
 24
1.0
 15
0.0
 25
0.0
 16
0.0
 26
0.0
 36
96.5995694866707311
 17
3303.693115234375
 27
195.2615115758877096
 37
0.0
 40
6.3614015411209834
 41
2.848348348348348
 42
50.0
 43
0.0
 44
0.0
 50
0.0
 51
0.0
 71
     0
 72
   100
 73
     1
 74
     1
 75
     0
 76
     0
 77
     0
 78
     0
  0
ENDTAB
  0
TABLE
  2
LTYPE
 70
     2
  0
LTYPE
  2
CONTINUOUS
 70
     0
  3
Solid line
 72
    65
 73
     0
 40
0.0
  0
LTYPE
  2
PHANTOM2
 70
     0
  3
___ _ _ ___ _ _ ___ _ _ ___ _ _
 72
    65
 73
     6
 40
1.25
 49
0.625
 49
-0.125
 49
0.125
 49
-0.125
 49
0.125
 49
-0.125
  0
ENDTAB
  0
TABLE
  2
LAYER
 70
     2
  0
LAYER
  2
0
 70
     0
 62
   255
  6
CONTINUOUS
  0
LAYER
  2
DEFPOINTS
 70
     0
 62
     7
  6
CONTINUOUS
  0
ENDTAB
  0
TABLE
  2
STYLE
 70
     1
  0
STYLE
  2
STANDARD
 70
     0
 40
0.0
 41
0.8
 50
0.0
 71
     0
 42
0.2
  3
txt
  4

  0
ENDTAB
  0
TABLE
  2
VIEW
 70
     0
  0
ENDTAB
  0
TABLE
  2
UCS
 70
     0
  0
ENDTAB
  0
TABLE
  2
APPID
 70
     9
  0
APPID
  2
ACAD
 70
     0
  0
APPID
  2
ACAD_MLEADERVER
 70
     0
  0
APPID
  2
ACAD_EXEMPT_FROM_CAD_STANDARDS
 70
     0
  0
APPID
  2
ACAD_NAV_VCDISPLAY
 70
     0
  0
APPID
  2
ACAECLAYERSTANDARD
 70
     0
  0
APPID
  2
ACCMTRANSPARENCY
 70
     0
  0
APPID
  2
ACAD_DSTYLE_DIMJAG
 70
     0
  0
APPID
  2
ACAD_DSTYLE_DIMTALN
 70
     0
  0
APPID
  2
ACDBATTR
 70
     0
  0
ENDTAB
  0
TABLE
  2
DIMSTYLE
 70
     1
  0
DIMSTYLE
  2
STANDARD
 70
     0
  3

  4

  5

  6

  7

 40
1.0
 41
0.1875
 42
0.0625
 43
0.38
 44
0.125
 45
0.0
 46
0.0
 47
0.01
 48
0.01
140
0.15625
141
0.09
142
0.0
143
25.3999999999999986
144
1.0
145
0.0
146
1.0
147
0.09
 71
     1
 72
     0
 73
     1
 74
     1
 75
     0
 76
     0
 77
     0
 78
     4
170
     0
171
     2
172
     0
173
     0
174
     0
175
     0
176
     0
177
     0
178
     0
  0
ENDTAB
  0
ENDSEC
  0
SECTION
  2
BLOCKS
  0
BLOCK
  8
0
  2
$MODEL_SPACE
 70
     0
 10
0.0
 20
0.0
 30
0.0
  3
$MODEL_SPACE
  1

  0
ENDBLK
  5
21
  8
0
  0
BLOCK
 67
     1
  8
0
  2
$PAPER_SPACE
 70
     0
 10
0.0
 20
0.0
 30
0.0
  3
$PAPER_SPACE
  1

  0
ENDBLK
  5
1D
 67
     1
  8
0
  0
BLOCK
  8
0
  2
_FILLED
 70
     0
 10
0.0
 20
0.0
 30
0.0
  3
_FILLED
  1

  0
SOLID
  5
1223D
  8
0
  6
BYBLOCK
 62
     0
 10
0.0
 20
0.0
 30
0.0
 11
-1.0
 21
0.1666666667
 31
0.0
 12
-1.0
 22
-0.1666666667
 32
0.0
 13
-1.0
 23
-0.1666666667
 33
0.0
  0
ENDBLK
  5
1223E
  8
0
  6
BYBLOCK
 62
     0
  0
ENDSEC
  0
SECTION
  2
ENTITIES
  0
ATTDEF
  5
135EF
  8
DEFPOINTS
 10
3496.4510752783558019
 20
159.8461779582841018
 30
0.0
 40
0.001
  1
K-78996T-4
  3

  2
MODELNUMBER
 70
     0
1001
ACDBATTR
1070
     0
1070
     1
  0
ATTDEF
  5
135F0
  8
DEFPOINTS
 10
3496.4510752783558019
 20
159.8445112916174082
 30
0.0
 40
0.001
  1
CUFF
  3

  2
TRADENAME
 70
     0
1001
ACDBATTR
1070
     0
1070
     1
  0
ATTDEF
  5
135F1
  8
DEFPOINTS
 10
3496.4510752783558019
 20
159.8428446249507999
 30
0.0
 40
0.001
  1
VALVE TRIM
  3

  2
PRODUCT
 70
     0
1001
ACDBATTR
1070
     0
1070
     1
  0
CIRCLE
  5
13BB9
  8
0
 10
3496.4504380395969747
 20
159.8421197871772961
 30
0.0
 40
3.1496062991999998
  0
ARC
  5
13BBA
  8
0
 10
3496.4504380395969747
 20
160.8460567950772884
 30
0.0
 40
0.9744094487999994
 50
282.2289434361277927
 51
257.771058613283401
  0
CIRCLE
  5
13BBB
  8
0
 10
3496.4504380395969747
 20
160.8460567950772884
 30
0.0
 40
0.9645669290999995
  0
ARC
  5
13BBC
  8
0
 10
3496.1495406409339921
 20
159.7633826327846123
 30
0.0
 40
0.1610210962901886
 50
7.116814468580003
 51
54.0643466698071506
  0
LINE
  5
13BBD
  8
0
 10
3496.3093211698478626
 20
159.7833319693772864
 30
0.0
 11
3496.3094689584609114
 21
157.2049238386013883
 31
0.0
  0
ARC
  5
13BBE
  8
0
 10
3496.3186374089609672
 20
157.2055286138233043
 30
0.0
 40
0.0091883751357979
 50
176.233061958373213
 51
266.1376166065782058
  0
ARC
  5
13BBF
  8
0
 10
3496.4503060509591705
 20
158.7973263218306954
 30
0.0
 40
1.606421369913366
 50
265.2763872246783876
 51
274.7219024836476251
  0
ARC
  5
13BC0
  8
0
 10
3496.5822800456080586
 20
157.2054930817371883
 30
0.0
 40
0.0091397872215301
 50
271.6664242684661872
 51
4.142288258226122
  0
LINE
  5
13BC1
  8
0
 10
3496.5913959573399552
 20
157.2061532815193914
 30
0.0
 11
3496.5914201668970236
 21
159.780074045977301
 31
0.0
  0
ARC
  5
13BC2
  8
0
 10
3496.7466532253870355
 20
159.766412416174802
 30
0.0
 40
0.1558330599611227
 50
125.1955040378877015
 51
174.970515968446108
  0
ARC
  5
13BC3
  8
0
 10
3496.4504380395969747
 20
158.2870016769772974
 30
0.0
 40
0.5039370079000002
 50
286.2437633705504254
 51
73.7551588142138712
  0
ARC
  5
13BC4
  8
0
 10
3496.4504380395969747
 20
158.2870016769772974
 30
0.0
 40
0.5039370079000002
 50
106.2550494902403955
 51
253.7515186428049105
  0
ARC
  5
13BC5
  8
0
 10
3495.8106742625432162
 20
159.3951050438994059
 30
0.0
 40
0.8661417276395342
 50
289.9872973832348748
 51
305.1544900732459951
  0
ARC
  5
13BC6
  8
0
 10
3496.1471032004878907
 20
158.4701361270535074
 30
0.0
 40
0.1181102357407109
 50
109.9872973832349032
 51
148.8791894532616027
  0
ARC
  5
13BC7
  8
0
 10
3496.4504394908958602
 20
158.2870016769703909
 30
0.0
 40
0.4724421872854819
 50
148.8791894532616027
 51
211.1208408471628104
  0
ARC
  5
13BC8
  8
0
 10
3496.1471028429218677
 20
158.1038667921241085
 30
0.0
 40
0.1181097049311792
 50
211.1208408471628104
 51
250.0128716768126083
  0
ARC
  5
13BC9
  8
0
 10
3495.8106837894811179
 20
157.1789165552013969
 30
0.0
 40
0.8661213250114924
 50
54.8416204809610335
 51
70.0128716768126225
  0
ARC
  5
13BCA
  8
0
 10
3496.4504380394369036
 20
158.2870016772756969
 30
0.0
 40
0.472440945232716
 50
287.3599359518124174
 51
331.1209317803662771
  0
ARC
  5
13BCB
  8
0
 10
3496.7607045446948177
 20
158.1158732255128996
 30
0.0
 40
0.1181102363068564
 50
331.1209318151846901
 51
10.0127025328199899
  0
ARC
  5
13BCC
  8
0
 10
3497.7299655986971629
 20
158.2870016769772974
 30
0.0
 40
0.8661417322999977
 50
169.9873364118992924
 51
190.0127025584527019
  0
ARC
  5
13BCD
  8
0
 10
3496.7607045454537911
 20
158.458130128384397
 30
0.0
 40
0.1181102355515657
 50
349.9870116479971216
 51
28.8790683443982985
  0
ARC
  5
13BCE
  8
0
 10
3496.4504380398348076
 20
158.2870016774182034
 30
0.0
 40
0.4724409444083921
 50
28.8790681538264415
 51
72.6389862522799064
  0
ARC
  5
13BCF
  8
0
 10
3496.4504394908958602
 20
158.2870016769703909
 30
0.0
 40
0.4625992878607343
 50
217.804857799191609
 51
252.2529528533804921
  0
ARC
  5
13BD0
  8
0
 10
3496.4504394908958602
 20
158.2870016769703909
 30
0.0
 40
0.4625992878607343
 50
287.7412195511141135
 51
287.7418977183481275
  0
ARC
  5
13BD1
  8
0
 10
3496.4504394908958602
 20
158.2870016769703909
 30
0.0
 40
0.4625992878607343
 50
337.8040722800046751
 51
22.1959277209268713
  0
ARC
  5
13BD2
  8
0
 10
3496.4504394908958602
 20
158.2870016769703909
 30
0.0
 40
0.4625992878607343
 50
72.2577026336562795
 51
72.2581022683016556
  0
ARC
  5
13BD3
  8
0
 10
3496.4504394908958602
 20
158.2870016769703909
 30
0.0
 40
0.4625992878607343
 50
107.7536152796512994
 51
142.6559132876807041
  0
ARC
  5
13BD4
  8
0
 10
3496.4504380012508591
 20
158.2870016769703909
 30
0.0
 40
0.4330705175450203
 50
225.831695692644189
 51
250.9980933856328988
  0
ARC
  5
13BD5
  8
0
 10
3496.4504380012508591
 20
158.2870016769703909
 30
0.0
 40
0.4330705175450203
 50
288.9958445134940916
 51
288.9965332622289793
  0
ARC
  5
13BD6
  8
0
 10
3496.4504380012508591
 20
158.2870016769703909
 30
0.0
 40
0.4330705175450203
 50
345.8317151107867744
 51
14.1682848898356593
  0
ARC
  5
13BD7
  8
0
 10
3496.4504380012508591
 20
158.2870016769703909
 30
0.0
 40
0.4330705175450203
 50
71.0030776712748661
 51
71.0034667244318314
  0
ARC
  5
13BD8
  8
0
 10
3496.4504380012508591
 20
158.2870016769703909
 30
0.0
 40
0.4330705175450203
 50
109.0084747474098066
 51
134.5916458835959872
  0
ENDSEC
  0
EOF
