  0
SECTION
  2
HEADER
  9
$ACADVER
  1
AC1009
  9
$INSBASE
 10
3497.9975604759088128
 20
156.4903400273001068
 30
0.0
  9
$EXTMIN
 10
3494.847954176706935
 20
153.8853755410148096
 30
0.0
  9
$EXTMAX
 10
3501.1471667751120549
 20
156.4950012741209093
 30
0.0
  9
$LIMMIN
 10
0.0
 20
0.0
  9
$LIMMAX
 10
11.6929133858000007
 20
8.2677165353999982
  9
$ORTHOMODE
 70
     0
  9
$REGENMODE
 70
     1
  9
$FILLMODE
 70
     1
  9
$QTEXTMODE
 70
     0
  9
$MIRRTEXT
 70
     0
  9
$DRAGMODE
 70
     2
  9
$LTSCALE
 40
0.6431102362
  9
$OSMODE
 70
  3839
  9
$ATTMODE
 70
     1
  9
$TEXTSIZE
 40
0.2
  9
$TRACEWID
 40
0.05
  9
$TEXTSTYLE
  7
STANDARD
  9
$CLAYER
  8
0
  9
$CELTYPE
  6
BYLAYER
  9
$CECOLOR
 62
   256
  9
$DIMSCALE
 40
1.0
  9
$DIMASZ
 40
0.1875
  9
$DIMEXO
 40
0.0625
  9
$DIMDLI
 40
0.4443307087
  9
$DIMRND
 40
0.0
  9
$DIMDLE
 40
0.0
  9
$DIMEXE
 40
0.125
  9
$DIMTP
 40
0.01
  9
$DIMTM
 40
0.01
  9
$DIMTXT
 40
2.0
  9
$DIMCEN
 40
0.1052362205
  9
$DIMTSZ
 40
0.0
  9
$DIMTOL
 70
     1
  9
$DIMLIM
 70
     0
  9
$DIMTIH
 70
     1
  9
$DIMTOH
 70
     1
  9
$DIMSE1
 70
     0
  9
$DIMSE2
 70
     0
  9
$DIMTAD
 70
     0
  9
$DIMZIN
 70
     0
  9
$DIMBLK
  1

  9
$DIMASO
 70
     1
  9
$DIMSHO
 70
     1
  9
$DIMPOST
  1
\X
  9
$DIMAPOST
  1

  9
$DIMALT
 70
     1
  9
$DIMALTD
 70
     2
  9
$DIMALTF
 40
25.3999999999999986
  9
$DIMLFAC
 40
1.0
  9
$DIMTOFL
 70
     0
  9
$DIMTVP
 40
0.0
  9
$DIMTIX
 70
     0
  9
$DIMSOXD
 70
     0
  9
$DIMSAH
 70
     0
  9
$DIMBLK1
  1

  9
$DIMBLK2
  1

  9
$DIMSTYLE
  2
STANDARD
  9
$DIMCLRD
 70
     0
  9
$DIMCLRE
 70
     0
  9
$DIMCLRT
 70
     0
  9
$DIMTFAC
 40
1.0
  9
$DIMGAP
 40
0.09
  9
$LUNITS
 70
     2
  9
$LUPREC
 70
     4
  9
$SKETCHINC
 40
0.1
  9
$FILLETRAD
 40
0.0
  9
$AUNITS
 70
     0
  9
$AUPREC
 70
     0
  9
$MENU
  1
.
  9
$ELEVATION
 40
0.0
  9
$PELEVATION
 40
0.0
  9
$THICKNESS
 40
0.0
  9
$LIMCHECK
 70
     0
  9
$BLIPMODE
 70
     0
  9
$CHAMFERA
 40
0.0
  9
$CHAMFERB
 40
0.0
  9
$SKPOLY
 70
     0
  9
$TDCREATE
 40
2458060.468368056230247
  9
$TDUPDATE
 40
2459144.6314814807847142
  9
$TDINDWG
 40
0.5804353009
  9
$TDUSRTIMER
 40
0.5804353009
  9
$USRTIMER
 70
     1
  9
$ANGBASE
 50
0.0
  9
$ANGDIR
 70
     0
  9
$PDMODE
 70
     0
  9
$PDSIZE
 40
0.3125
  9
$PLINEWID
 40
0.0
  9
$COORDS
 70
     1
  9
$SPLFRAME
 70
     0
  9
$SPLINETYPE
 70
     6
  9
$SPLINESEGS
 70
     8
  9
$ATTDIA
 70
     1
  9
$ATTREQ
 70
     1
  9
$HANDLING
 70
     1
  9
$HANDSEED
  5
1422E
  9
$SURFTAB1
 70
     6
  9
$SURFTAB2
 70
     6
  9
$SURFTYPE
 70
     6
  9
$SURFU
 70
     6
  9
$SURFV
 70
     6
  9
$UCSNAME
  2

  9
$UCSORG
 10
0.0
 20
0.0
 30
0.0
  9
$UCSXDIR
 10
1.0
 20
0.0
 30
0.0
  9
$UCSYDIR
 10
0.0
 20
1.0
 30
0.0
  9
$PUCSNAME
  2

  9
$PUCSORG
 10
0.0
 20
0.0
 30
0.0
  9
$PUCSXDIR
 10
1.0
 20
0.0
 30
0.0
  9
$PUCSYDIR
 10
0.0
 20
1.0
 30
0.0
  9
$USERI1
 70
     0
  9
$USERI2
 70
     0
  9
$USERI3
 70
     0
  9
$USERI4
 70
     0
  9
$USERI5
 70
     0
  9
$USERR1
 40
0.0
  9
$USERR2
 40
0.0
  9
$USERR3
 40
0.0
  9
$USERR4
 40
0.0
  9
$USERR5
 40
0.0
  9
$WORLDVIEW
 70
     1
  9
$SHADEDGE
 70
     3
  9
$SHADEDIF
 70
    70
  9
$TILEMODE
 70
     1
  9
$MAXACTVP
 70
    64
  9
$PLIMCHECK
 70
     0
  9
$PEXTMIN
 10
1.0000000000000000E+20
 20
1.0000000000000000E+20
 30
1.0000000000000000E+20
  9
$PEXTMAX
 10
-1.0000000000000000E+20
 20
-1.0000000000000000E+20
 30
-1.0000000000000000E+20
  9
$PLIMMIN
 10
0.0
 20
0.0
  9
$PLIMMAX
 10
12.0
 20
9.0
  9
$UNITMODE
 70
     0
  9
$VISRETAIN
 70
     1
  9
$PLINEGEN
 70
     0
  9
$PSLTSCALE
 70
     1
  0
ENDSEC
  0
SECTION
  2
TABLES
  0
TABLE
  2
VPORT
 70
     1
  0
VPORT
  2
*ACTIVE
 70
     0
 10
0.0
 20
0.0
 11
1.0
 21
1.0
 12
0.0
 22
0.0
 13
0.0
 23
0.0
 14
1.0
 24
1.0
 15
0.0
 25
0.0
 16
0.0
 26
0.0
 36
26.7906861060354196
 17
3497.9975585937509095
 27
155.1930801658689916
 37
0.0
 40
6.8162586126479328
 41
3.1182994454713491
 42
50.0
 43
0.0
 44
0.0
 50
0.0
 51
0.0
 71
     0
 72
   100
 73
     1
 74
     1
 75
     0
 76
     0
 77
     0
 78
     0
  0
ENDTAB
  0
TABLE
  2
LTYPE
 70
     2
  0
LTYPE
  2
CONTINUOUS
 70
     0
  3
Solid line
 72
    65
 73
     0
 40
0.0
  0
LTYPE
  2
PHANTOM2
 70
     0
  3
___ _ _ ___ _ _ ___ _ _ ___ _ _
 72
    65
 73
     6
 40
1.25
 49
0.625
 49
-0.125
 49
0.125
 49
-0.125
 49
0.125
 49
-0.125
  0
ENDTAB
  0
TABLE
  2
LAYER
 70
     2
  0
LAYER
  2
0
 70
     0
 62
   255
  6
CONTINUOUS
  0
LAYER
  2
DEFPOINTS
 70
     0
 62
     7
  6
CONTINUOUS
  0
ENDTAB
  0
TABLE
  2
STYLE
 70
     1
  0
STYLE
  2
STANDARD
 70
     0
 40
0.0
 41
0.8
 50
0.0
 71
     0
 42
0.2
  3
txt
  4

  0
ENDTAB
  0
TABLE
  2
VIEW
 70
     0
  0
ENDTAB
  0
TABLE
  2
UCS
 70
     0
  0
ENDTAB
  0
TABLE
  2
APPID
 70
     9
  0
APPID
  2
ACAD
 70
     0
  0
APPID
  2
ACAD_MLEADERVER
 70
     0
  0
APPID
  2
ACAD_EXEMPT_FROM_CAD_STANDARDS
 70
     0
  0
APPID
  2
ACAD_NAV_VCDISPLAY
 70
     0
  0
APPID
  2
ACAECLAYERSTANDARD
 70
     0
  0
APPID
  2
ACCMTRANSPARENCY
 70
     0
  0
APPID
  2
ACAD_DSTYLE_DIMJAG
 70
     0
  0
APPID
  2
ACAD_DSTYLE_DIMTALN
 70
     0
  0
APPID
  2
ACDBATTR
 70
     0
  0
ENDTAB
  0
TABLE
  2
DIMSTYLE
 70
     1
  0
DIMSTYLE
  2
STANDARD
 70
     0
  3

  4

  5

  6

  7

 40
1.0
 41
0.1875
 42
0.0625
 43
0.38
 44
0.125
 45
0.0
 46
0.0
 47
0.01
 48
0.01
140
0.15625
141
0.09
142
0.0
143
25.3999999999999986
144
1.0
145
0.0
146
1.0
147
0.09
 71
     1
 72
     0
 73
     1
 74
     1
 75
     0
 76
     0
 77
     0
 78
     4
170
     0
171
     2
172
     0
173
     0
174
     0
175
     0
176
     0
177
     0
178
     0
  0
ENDTAB
  0
ENDSEC
  0
SECTION
  2
BLOCKS
  0
BLOCK
  8
0
  2
$MODEL_SPACE
 70
     0
 10
0.0
 20
0.0
 30
0.0
  3
$MODEL_SPACE
  1

  0
ENDBLK
  5
21
  8
0
  0
BLOCK
 67
     1
  8
0
  2
$PAPER_SPACE
 70
     0
 10
0.0
 20
0.0
 30
0.0
  3
$PAPER_SPACE
  1

  0
ENDBLK
  5
1D
 67
     1
  8
0
  0
BLOCK
  8
0
  2
_FILLED
 70
     0
 10
0.0
 20
0.0
 30
0.0
  3
_FILLED
  1

  0
SOLID
  5
1223D
  8
0
  6
BYBLOCK
 62
     0
 10
0.0
 20
0.0
 30
0.0
 11
-1.0
 21
0.1666666667
 31
0.0
 12
-1.0
 22
-0.1666666667
 32
0.0
 13
-1.0
 23
-0.1666666667
 33
0.0
  0
ENDBLK
  5
1223E
  8
0
  6
BYBLOCK
 62
     0
  0
ENDSEC
  0
SECTION
  2
ENTITIES
  0
ATTDEF
  5
135EF
  8
DEFPOINTS
 10
3497.9980943791952086
 20
156.4940012741207909
 30
0.0
 40
0.001
  1
K-78998T-4
  3

  2
MODELNUMBER
 70
     0
1001
ACDBATTR
1070
     0
1070
     1
  0
ATTDEF
  5
135F0
  8
DEFPOINTS
 10
3497.9980943791952086
 20
156.4923346074540973
 30
0.0
 40
0.001
  1
KUMIN
  3

  2
TRADENAME
 70
     0
1001
ACDBATTR
1070
     0
1070
     1
  0
ATTDEF
  5
135F1
  8
DEFPOINTS
 10
3497.9980943791952086
 20
156.490667940787489
 30
0.0
 40
0.001
  1
VALVE TRIM
  3

  2
PRODUCT
 70
     0
1001
ACDBATTR
1070
     0
1070
     1
  0
LINE
  5
13F20
  8
0
 10
3501.1274837199111971
 20
156.3525447517000941
 30
0.0
 11
3494.8676372319077927
 21
156.3525447517000941
 31
0.0
  0
ARC
  5
13F21
  8
0
 10
3501.127482013106146
 20
156.3722295136317939
 30
0.0
 40
0.0196847620056833
 50
270.0049679417102766
 51
0.0008073266829505
  0
LINE
  5
13F22
  8
0
 10
3501.1471667751097812
 20
156.3722297910001089
 30
0.0
 11
3501.1471667751097812
 21
156.4903400273001068
 31
0.0
  0
LINE
  5
13F23
  8
0
 10
3501.1471667751097812
 20
156.4903400273001068
 30
0.0
 11
3494.8479541767092087
 21
156.4903400273001068
 31
0.0
  0
LINE
  5
13F24
  8
0
 10
3498.962127405010051
 20
155.4176800811059991
 30
0.0
 11
3498.962127405010051
 21
156.3525447517000941
 31
0.0
  0
LINE
  5
13F25
  8
0
 10
3498.963162959309102
 20
155.2053099515487986
 30
0.0
 11
3498.963162959309102
 21
154.1075499510812108
 31
0.0
  0
LINE
  5
13F26
  8
0
 10
3498.9404970011919431
 20
155.2304577288801966
 30
0.0
 11
3498.8018779637591251
 21
155.2304577288801966
 31
0.0
  0
LINE
  5
13F27
  8
0
 10
3498.942442365709212
 20
155.3879384525000944
 30
0.0
 11
3497.0526785861097778
 21
155.3879384525000944
 31
0.0
  0
ARC
  5
13F28
  8
0
 10
3498.9363800320579685
 20
155.2039586382358038
 30
0.0
 40
0.0268169953534169
 50
2.8883680592212002
 51
81.1689769044528759
  0
LINE
  5
13F29
  8
0
 10
3498.942442365709212
 20
155.3879384525000944
 30
0.0
 11
3498.9417311715092183
 21
155.3471941685000957
 31
0.0
  0
ARC
  5
13F2A
  8
0
 10
3498.8630030063218328
 20
155.3485683738846035
 30
0.0
 40
0.0787401576973184
 50
272.6077540275027786
 51
358.9999998912927026
  0
ARC
  5
13F2B
  8
0
 10
3498.870168500552154
 20
155.1912417834614928
 30
0.0
 40
0.0787495256527253
 50
92.607754027502807
 51
176.5666084519293975
  0
ARC
  5
13F2C
  8
0
 10
3497.9243548128288239
 20
155.2479866482904072
 30
0.0
 40
0.8687648602907273
 50
348.3860582347550121
 51
356.5666084519294259
  0
ARC
  5
13F2D
  8
0
 10
3498.930309795543053
 20
155.4196446239758131
 30
0.0
 40
0.0318782010291515
 50
275.955082147567623
 51
356.4668211881821094
  0
ARC
  5
13F2E
  8
0
 10
3498.9169927672569429
 20
154.1129334129564086
 30
0.0
 40
0.0464829893177133
 50
298.374397721316825
 51
353.3493220056416817
  0
ARC
  5
13F2F
  8
0
 10
3498.4024955582967777
 20
154.9476146762063138
 30
0.0
 40
1.026920664554704
 50
280.3097546314364195
 51
301.5014918069780947
  0
ARC
  5
13F30
  8
0
 10
3498.6352802123510628
 20
155.3051282577285122
 30
0.0
 40
0.3427401202104848
 50
322.5231629909027902
 51
343.0680241858024146
  0
ARC
  5
13F31
  8
0
 10
3498.3893169845227931
 20
155.587070706883992
 30
0.0
 40
0.7133402441568065
 50
286.4685878088641857
 51
316.5610421083952133
  0
ARC
  5
13F32
  8
0
 10
3498.8800245480438207
 20
155.2275904414782985
 30
0.0
 40
0.0032532528362993
 50
359.9846577461444781
 51
61.8119463259549917
  0
ARC
  5
13F33
  8
0
 10
3498.725677125448783
 20
155.2638086748881108
 30
0.0
 40
0.1617089867432333
 50
328.147102247321186
 51
347.057266682529189
  0
ARC
  5
13F34
  8
0
 10
3498.505234671317794
 20
155.3870624823690036
 30
0.0
 40
0.4141637939658106
 50
298.0883117578243855
 51
329.7581346613836786
  0
ARC
  5
13F35
  8
0
 10
3498.1289586092198078
 20
156.0994933463236123
 30
0.0
 40
1.2198543728949991
 50
283.6666453411166913
 51
297.9250545128699059
  0
LINE
  5
13F36
  8
0
 10
3498.9390157242651185
 20
154.0719936606977001
 30
0.0
 11
3497.0561052275538714
 21
154.0719936606977001
 31
0.0
  0
LINE
  5
13F37
  8
0
 10
3497.0329935468098483
 20
155.4176800811059991
 30
0.0
 11
3497.0329935468098483
 21
156.3525447517000941
 31
0.0
  0
LINE
  5
13F38
  8
0
 10
3497.0319579925098878
 20
155.2053099515487986
 30
0.0
 11
3497.0319579925098878
 21
154.1075499510812108
 31
0.0
  0
LINE
  5
13F39
  8
0
 10
3497.0546239506270467
 20
155.2304577288801966
 30
0.0
 11
3497.1932429880598647
 21
155.2304577288801966
 31
0.0
  0
ARC
  5
13F3A
  8
0
 10
3497.0587409197610214
 20
155.2039586382360881
 30
0.0
 40
0.0268169953539687
 50
98.8310230975511956
 51
177.1116319414225018
  0
LINE
  5
13F3B
  8
0
 10
3497.0526785861097778
 20
155.3879384525000944
 30
0.0
 11
3497.0533897803088621
 21
155.3471941685000957
 31
0.0
  0
ARC
  5
13F3C
  8
0
 10
3497.1321179454971571
 20
155.3485683738846035
 30
0.0
 40
0.0787401576973184
 50
181.0000001087072121
 51
267.3922459724972214
  0
ARC
  5
13F3D
  8
0
 10
3497.1249524512668359
 20
155.1912417834614928
 30
0.0
 40
0.0787495256527253
 50
3.4333915480705839
 51
87.392245972497193
  0
ARC
  5
13F3E
  8
0
 10
3498.0707661389901659
 20
155.2479866482904072
 30
0.0
 40
0.8687648602907273
 50
183.4333915480704889
 51
191.6139417652449879
  0
ARC
  5
13F3F
  8
0
 10
3497.0648111562759368
 20
155.4196446239758131
 30
0.0
 40
0.0318782010291515
 50
183.5331788118178054
 51
264.044917852432377
  0
ARC
  5
13F40
  8
0
 10
3497.078128184562047
 20
154.1129334129564086
 30
0.0
 40
0.0464829893177133
 50
186.6506779943582899
 51
241.6256022786832034
  0
ARC
  5
13F41
  8
0
 10
3497.5926253935208479
 20
154.9476146762063138
 30
0.0
 40
1.026920664554704
 50
238.4985081930217916
 51
259.6902453685635805
  0
ARC
  5
13F42
  8
0
 10
3497.3598407394688365
 20
155.3051282577285122
 30
0.0
 40
0.3427401202104848
 50
196.9319758141976138
 51
217.4768370090970961
  0
ARC
  5
13F43
  8
0
 10
3497.6058039672961968
 20
155.587070706883992
 30
0.0
 40
0.7133402441568065
 50
223.4389578916049004
 51
253.5314121911357859
  0
ARC
  5
13F44
  8
0
 10
3497.1150964037751692
 20
155.2275904414782985
 30
0.0
 40
0.0032532528362993
 50
118.1880536740449941
 51
180.0153422538554935
  0
ARC
  5
13F45
  8
0
 10
3497.2694438263702068
 20
155.2638086748881108
 30
0.0
 40
0.1617089867432333
 50
192.9427333174706973
 51
211.852897752678814
  0
ARC
  5
13F46
  8
0
 10
3497.4898862805011959
 20
155.3870624823690036
 30
0.0
 40
0.4141637939658106
 50
210.241865338616293
 51
241.9116882421755008
  0
ARC
  5
13F47
  8
0
 10
3497.866162342599182
 20
156.0994933463236123
 30
0.0
 40
1.2198543728949991
 50
242.0749454871300941
 51
256.333354658883195
  0
ARC
  5
13F48
  8
0
 10
3494.8676389387128438
 20
156.3722295136317939
 30
0.0
 40
0.0196847620056833
 50
179.9991926733169976
 51
269.9950320582896097
  0
LINE
  5
13F49
  8
0
 10
3494.8479541767092087
 20
156.3722297910001089
 30
0.0
 11
3494.8479541767092087
 21
156.4903400273001068
 31
0.0
  0
LINE
  5
13F4A
  8
0
 10
3498.8665855403251044
 20
155.2699097578000931
 30
0.0
 11
3497.1285354114938855
 21
155.2699097578000931
 31
0.0
  0
ARC
  5
13F4B
  8
0
 10
3497.9975604759088128
 20
157.2504800299772114
 30
0.0
 40
3.3651044889623578
 50
259.9242903887114267
 51
280.075709611288687
  0
ARC
  5
13F4C
  8
0
 10
3497.9975604759088128
 20
156.738514047747401
 30
0.0
 40
1.8719732159211511
 50
257.0466788895848254
 51
282.9533211104151746
  0
ARC
  5
13F4D
  8
0
 10
3497.9975604759088128
 20
156.8143721395967987
 30
0.0
 40
2.001543395473496
 50
252.7368037111473029
 51
287.2631962888527255
  0
ENDSEC
  0
EOF
