  0
SECTION
  2
HEADER
  9
$ACADVER
  1
AC1009
  9
$INSBASE
 10
3494.1075913599929663
 20
160.3755807398044908
 30
0.0
  9
$EXTMIN
 10
3491.5049769979791563
 20
157.225974440602613
 30
0.0
  9
$EXTMAX
 10
3494.1075913599929663
 20
163.5251870390065108
 30
0.0
  9
$LIMMIN
 10
0.0
 20
0.0
  9
$LIMMAX
 10
11.6929133858000007
 20
8.2677165353999982
  9
$ORTHOMODE
 70
     0
  9
$REGENMODE
 70
     1
  9
$FILLMODE
 70
     1
  9
$QTEXTMODE
 70
     0
  9
$MIRRTEXT
 70
     0
  9
$DRAGMODE
 70
     2
  9
$LTSCALE
 40
0.6431102362
  9
$OSMODE
 70
  3839
  9
$ATTMODE
 70
     1
  9
$TEXTSIZE
 40
0.2
  9
$TRACEWID
 40
0.05
  9
$TEXTSTYLE
  7
STANDARD
  9
$CLAYER
  8
0
  9
$CELTYPE
  6
BYLAYER
  9
$CECOLOR
 62
   256
  9
$DIMSCALE
 40
1.0
  9
$DIMASZ
 40
0.1875
  9
$DIMEXO
 40
0.0625
  9
$DIMDLI
 40
0.4443307087
  9
$DIMRND
 40
0.0
  9
$DIMDLE
 40
0.0
  9
$DIMEXE
 40
0.125
  9
$DIMTP
 40
0.01
  9
$DIMTM
 40
0.01
  9
$DIMTXT
 40
2.0
  9
$DIMCEN
 40
0.1052362205
  9
$DIMTSZ
 40
0.0
  9
$DIMTOL
 70
     1
  9
$DIMLIM
 70
     0
  9
$DIMTIH
 70
     1
  9
$DIMTOH
 70
     1
  9
$DIMSE1
 70
     0
  9
$DIMSE2
 70
     0
  9
$DIMTAD
 70
     0
  9
$DIMZIN
 70
     0
  9
$DIMBLK
  1

  9
$DIMASO
 70
     1
  9
$DIMSHO
 70
     1
  9
$DIMPOST
  1
\X
  9
$DIMAPOST
  1

  9
$DIMALT
 70
     1
  9
$DIMALTD
 70
     2
  9
$DIMALTF
 40
25.3999999999999986
  9
$DIMLFAC
 40
1.0
  9
$DIMTOFL
 70
     0
  9
$DIMTVP
 40
0.0
  9
$DIMTIX
 70
     0
  9
$DIMSOXD
 70
     0
  9
$DIMSAH
 70
     0
  9
$DIMBLK1
  1

  9
$DIMBLK2
  1

  9
$DIMSTYLE
  2
STANDARD
  9
$DIMCLRD
 70
     0
  9
$DIMCLRE
 70
     0
  9
$DIMCLRT
 70
     0
  9
$DIMTFAC
 40
1.0
  9
$DIMGAP
 40
0.09
  9
$LUNITS
 70
     2
  9
$LUPREC
 70
     4
  9
$SKETCHINC
 40
0.1
  9
$FILLETRAD
 40
0.0
  9
$AUNITS
 70
     0
  9
$AUPREC
 70
     0
  9
$MENU
  1
.
  9
$ELEVATION
 40
0.0
  9
$PELEVATION
 40
0.0
  9
$THICKNESS
 40
0.0
  9
$LIMCHECK
 70
     0
  9
$BLIPMODE
 70
     0
  9
$CHAMFERA
 40
0.0
  9
$CHAMFERB
 40
0.0
  9
$SKPOLY
 70
     0
  9
$TDCREATE
 40
2458060.468368056230247
  9
$TDUPDATE
 40
2459144.631157408002764
  9
$TDINDWG
 40
0.5803079861
  9
$TDUSRTIMER
 40
0.5803079861
  9
$USRTIMER
 70
     1
  9
$ANGBASE
 50
0.0
  9
$ANGDIR
 70
     0
  9
$PDMODE
 70
     0
  9
$PDSIZE
 40
0.3125
  9
$PLINEWID
 40
0.0
  9
$COORDS
 70
     1
  9
$SPLFRAME
 70
     0
  9
$SPLINETYPE
 70
     6
  9
$SPLINESEGS
 70
     8
  9
$ATTDIA
 70
     1
  9
$ATTREQ
 70
     1
  9
$HANDLING
 70
     1
  9
$HANDSEED
  5
141E2
  9
$SURFTAB1
 70
     6
  9
$SURFTAB2
 70
     6
  9
$SURFTYPE
 70
     6
  9
$SURFU
 70
     6
  9
$SURFV
 70
     6
  9
$UCSNAME
  2

  9
$UCSORG
 10
0.0
 20
0.0
 30
0.0
  9
$UCSXDIR
 10
1.0
 20
0.0
 30
0.0
  9
$UCSYDIR
 10
0.0
 20
1.0
 30
0.0
  9
$PUCSNAME
  2

  9
$PUCSORG
 10
0.0
 20
0.0
 30
0.0
  9
$PUCSXDIR
 10
1.0
 20
0.0
 30
0.0
  9
$PUCSYDIR
 10
0.0
 20
1.0
 30
0.0
  9
$USERI1
 70
     0
  9
$USERI2
 70
     0
  9
$USERI3
 70
     0
  9
$USERI4
 70
     0
  9
$USERI5
 70
     0
  9
$USERR1
 40
0.0
  9
$USERR2
 40
0.0
  9
$USERR3
 40
0.0
  9
$USERR4
 40
0.0
  9
$USERR5
 40
0.0
  9
$WORLDVIEW
 70
     1
  9
$SHADEDGE
 70
     3
  9
$SHADEDIF
 70
    70
  9
$TILEMODE
 70
     1
  9
$MAXACTVP
 70
    64
  9
$PLIMCHECK
 70
     0
  9
$PEXTMIN
 10
1.0000000000000000E+20
 20
1.0000000000000000E+20
 30
1.0000000000000000E+20
  9
$PEXTMAX
 10
-1.0000000000000000E+20
 20
-1.0000000000000000E+20
 30
-1.0000000000000000E+20
  9
$PLIMMIN
 10
0.0
 20
0.0
  9
$PLIMMAX
 10
12.0
 20
9.0
  9
$UNITMODE
 70
     0
  9
$VISRETAIN
 70
     1
  9
$PLINEGEN
 70
     0
  9
$PSLTSCALE
 70
     1
  0
ENDSEC
  0
SECTION
  2
TABLES
  0
TABLE
  2
VPORT
 70
     1
  0
VPORT
  2
*ACTIVE
 70
     0
 10
0.0
 20
0.0
 11
1.0
 21
1.0
 12
0.0
 22
0.0
 13
0.0
 23
0.0
 14
1.0
 24
1.0
 15
0.0
 25
0.0
 16
0.0
 26
0.0
 36
26.7880309560241407
 17
3492.8065185546879547
 27
160.3755798339844034
 37
0.0
 40
6.8155830723104938
 41
3.1182994454713491
 42
50.0
 43
0.0
 44
0.0
 50
0.0
 51
0.0
 71
     0
 72
   100
 73
     1
 74
     1
 75
     0
 76
     0
 77
     0
 78
     0
  0
ENDTAB
  0
TABLE
  2
LTYPE
 70
     2
  0
LTYPE
  2
CONTINUOUS
 70
     0
  3
Solid line
 72
    65
 73
     0
 40
0.0
  0
LTYPE
  2
PHANTOM2
 70
     0
  3
___ _ _ ___ _ _ ___ _ _ ___ _ _
 72
    65
 73
     6
 40
1.25
 49
0.625
 49
-0.125
 49
0.125
 49
-0.125
 49
0.125
 49
-0.125
  0
ENDTAB
  0
TABLE
  2
LAYER
 70
     2
  0
LAYER
  2
0
 70
     0
 62
   255
  6
CONTINUOUS
  0
LAYER
  2
DEFPOINTS
 70
     0
 62
     7
  6
CONTINUOUS
  0
ENDTAB
  0
TABLE
  2
STYLE
 70
     1
  0
STYLE
  2
STANDARD
 70
     0
 40
0.0
 41
0.8
 50
0.0
 71
     0
 42
0.2
  3
txt
  4

  0
ENDTAB
  0
TABLE
  2
VIEW
 70
     0
  0
ENDTAB
  0
TABLE
  2
UCS
 70
     0
  0
ENDTAB
  0
TABLE
  2
APPID
 70
     9
  0
APPID
  2
ACAD
 70
     0
  0
APPID
  2
ACAD_MLEADERVER
 70
     0
  0
APPID
  2
ACAD_EXEMPT_FROM_CAD_STANDARDS
 70
     0
  0
APPID
  2
ACAD_NAV_VCDISPLAY
 70
     0
  0
APPID
  2
ACAECLAYERSTANDARD
 70
     0
  0
APPID
  2
ACCMTRANSPARENCY
 70
     0
  0
APPID
  2
ACAD_DSTYLE_DIMJAG
 70
     0
  0
APPID
  2
ACAD_DSTYLE_DIMTALN
 70
     0
  0
APPID
  2
ACDBATTR
 70
     0
  0
ENDTAB
  0
TABLE
  2
DIMSTYLE
 70
     1
  0
DIMSTYLE
  2
STANDARD
 70
     0
  3

  4

  5

  6

  7

 40
1.0
 41
0.1875
 42
0.0625
 43
0.38
 44
0.125
 45
0.0
 46
0.0
 47
0.01
 48
0.01
140
0.15625
141
0.09
142
0.0
143
25.3999999999999986
144
1.0
145
0.0
146
1.0
147
0.09
 71
     1
 72
     0
 73
     1
 74
     1
 75
     0
 76
     0
 77
     0
 78
     4
170
     0
171
     2
172
     0
173
     0
174
     0
175
     0
176
     0
177
     0
178
     0
  0
ENDTAB
  0
ENDSEC
  0
SECTION
  2
BLOCKS
  0
BLOCK
  8
0
  2
$MODEL_SPACE
 70
     0
 10
0.0
 20
0.0
 30
0.0
  3
$MODEL_SPACE
  1

  0
ENDBLK
  5
21
  8
0
  0
BLOCK
 67
     1
  8
0
  2
$PAPER_SPACE
 70
     0
 10
0.0
 20
0.0
 30
0.0
  3
$PAPER_SPACE
  1

  0
ENDBLK
  5
1D
 67
     1
  8
0
  0
BLOCK
  8
0
  2
_FILLED
 70
     0
 10
0.0
 20
0.0
 30
0.0
  3
_FILLED
  1

  0
SOLID
  5
1223D
  8
0
  6
BYBLOCK
 62
     0
 10
0.0
 20
0.0
 30
0.0
 11
-1.0
 21
0.1666666667
 31
0.0
 12
-1.0
 22
-0.1666666667
 32
0.0
 13
-1.0
 23
-0.1666666667
 33
0.0
  0
ENDBLK
  5
1223E
  8
0
  6
BYBLOCK
 62
     0
  0
ENDSEC
  0
SECTION
  2
ENTITIES
  0
ATTDEF
  5
135EF
  8
DEFPOINTS
 10
3494.0965706702791067
 20
160.3744095564844088
 30
0.0
 40
0.001
  1
K-78998T-4
  3

  2
MODELNUMBER
 70
     0
1001
ACDBATTR
1070
     0
1070
     1
  0
ATTDEF
  5
135F0
  8
DEFPOINTS
 10
3494.0965706702791067
 20
160.3727428898176868
 30
0.0
 40
0.001
  1
KUMIN
  3

  2
TRADENAME
 70
     0
1001
ACDBATTR
1070
     0
1070
     1
  0
ATTDEF
  5
135F1
  8
DEFPOINTS
 10
3494.0965706702791067
 20
160.3710762231511069
 30
0.0
 40
0.001
  1
VALVE TRIM
  3

  2
PRODUCT
 70
     0
1001
ACDBATTR
1070
     0
1070
     1
  0
LINE
  5
13F3B
  8
0
 10
3491.7224319093520535
 20
162.3440680821045987
 30
0.0
 11
3492.4302812765909039
 21
162.3440680821045987
 31
0.0
  0
LINE
  5
13F3C
  8
0
 10
3493.9697960843927831
 20
157.2456574958027886
 30
0.0
 11
3493.9697960843927831
 21
163.5055039838063067
 31
0.0
  0
ARC
  5
13F3D
  8
0
 10
3493.9894808463241134
 20
157.2456592026082944
 30
0.0
 40
0.0196847620056833
 50
180.0049679417101913
 51
270.0008073266715201
  0
LINE
  5
13F3E
  8
0
 10
3493.9894811236931673
 20
157.2259744406044888
 30
0.0
 11
3494.1075913599929663
 21
157.2259744406044888
 31
0.0
  0
LINE
  5
13F3F
  8
0
 10
3494.1075913599929663
 20
157.2259744406044888
 30
0.0
 11
3494.1075913599929663
 21
163.5251870390046065
 31
0.0
  0
ARC
  5
13F40
  8
0
 10
3493.9894808463241134
 20
163.5055022770008009
 30
0.0
 40
0.0196847620056833
 50
89.9991926733284515
 51
179.995032058289695
  0
LINE
  5
13F41
  8
0
 10
3493.9894811236931673
 20
163.5251870390046065
 30
0.0
 11
3494.1075913599929663
 21
163.5251870390046065
 31
0.0
  0
LINE
  5
13F42
  8
0
 10
3493.0349314137988586
 20
160.4149508185545869
 30
0.0
 11
3493.9697960843927831
 21
160.4149508185545869
 31
0.0
  0
LINE
  5
13F43
  8
0
 10
3493.0051897851931244
 20
160.4346358578546017
 30
0.0
 11
3493.0051897851931244
 21
162.3243996374544906
 31
0.0
  0
LINE
  5
13F44
  8
0
 10
3493.0051897851931244
 20
160.4346358578546017
 30
0.0
 11
3492.9644455011930404
 21
160.4353470520545955
 31
0.0
  0
ARC
  5
13F45
  8
0
 10
3492.965819706577804
 20
160.5140752172418956
 30
0.0
 40
0.0787401576973184
 50
182.6077540274978048
 51
268.9999998913057766
  0
ARC
  5
13F46
  8
0
 10
3492.8084931161538407
 20
160.5069097230118018
 30
0.0
 40
0.0787495256527253
 50
2.6077540274978519
 51
60.1330549503838725
  0
ARC
  5
13F47
  8
0
 10
3493.0368959566690137
 20
160.4467684280211017
 30
0.0
 40
0.0318782010291515
 50
185.9550821475590965
 51
266.4668211881814273
  0
LINE
  5
13F48
  8
0
 10
3493.0349314137988586
 20
162.3440846767545906
 30
0.0
 11
3493.9697960843927831
 21
162.3440846767545906
 31
0.0
  0
LINE
  5
13F49
  8
0
 10
3493.0051897851931244
 20
162.3243996374544906
 30
0.0
 11
3492.9644455011930404
 21
162.3236884432546105
 31
0.0
  0
ARC
  5
13F4A
  8
0
 10
3492.965819706577804
 20
162.2449602780673104
 30
0.0
 40
0.0787401576973184
 50
91.0000001086941808
 51
177.3922459725021099
  0
ARC
  5
13F4B
  8
0
 10
3492.8084931161538407
 20
162.2521257722972905
 30
0.0
 40
0.0787495256527253
 50
273.4333915480685846
 51
357.3922459725021099
  0
ARC
  5
13F4C
  8
0
 10
3492.8652379809827835
 20
161.3063120845737046
 30
0.0
 40
0.8687648602907273
 50
93.4333915480686841
 51
111.5544856468217034
  0
ARC
  5
13F4D
  8
0
 10
3493.0368959566690137
 20
162.3122670672879906
 30
0.0
 40
0.0318782010291515
 50
93.5331788118186722
 51
174.0449178524407898
  0
LINE
  5
13F4E
  8
0
 10
3492.8871610904930094
 20
160.5104926832393062
 30
0.0
 11
3492.8871610904930094
 21
162.2485428120697861
 31
0.0
  0
ARC
  5
13F4F
  8
0
 10
3492.4300244424339326
 20
162.3243028365563134
 30
0.0
 40
0.0197669141589455
 50
30.0149077952024896
 51
89.2555273331680468
  0
LINE
  5
13F50
  8
0
 10
3492.4471405200938534
 20
162.3341907474045911
 30
0.0
 11
3492.7991857732931749
 21
161.5517499045045895
 31
0.0
  0
ARC
  5
13F51
  8
0
 10
3492.2571684068961986
 20
161.3173242544364996
 30
0.0
 40
0.5905406090061222
 50
359.9988423239869917
 51
23.3887619681106713
  0
LINE
  5
13F52
  8
0
 10
3492.8477090157821294
 20
161.3173123224111123
 30
0.0
 11
3492.8477094701929673
 21
160.4346215238045943
 31
0.0
  0
ARC
  5
13F53
  8
0
 10
3492.8280244388438405
 20
160.4346217934551078
 30
0.0
 40
0.0196850313505172
 50
269.9999893274907095
 51
359.9992151479921745
  0
LINE
  5
13F54
  8
0
 10
3492.8280244351781221
 20
160.4149367621045883
 30
0.0
 11
3492.3881818673930866
 21
160.41488507890449
 31
0.0
  0
ARC
  5
13F55
  8
0
 10
3492.381348526264901
 20
159.6136439692209876
 30
0.0
 40
0.801270248042425
 50
89.511367914222987
 51
98.3468215061442947
  0
ARC
  5
13F56
  8
0
 10
3492.2431043310798486
 20
160.0490419437525986
 30
0.0
 40
0.3580568950034338
 50
86.4889182636129163
 51
114.2203301094543946
  0
ARC
  5
13F57
  8
0
 10
3492.4394521524400261
 20
159.5624509314937995
 30
0.0
 40
0.8826060360879994
 50
112.8856470726917962
 51
134.1879801178284879
  0
LINE
  5
13F58
  8
0
 10
3491.8242627803929281
 20
160.1953296335045991
 30
0.0
 11
3491.8220959968930401
 21
158.4802263969044986
 31
0.0
  0
ARC
  5
13F59
  8
0
 10
3491.4133725807228075
 20
158.4827116162782943
 30
0.0
 40
0.408730971717176
 50
338.2081257431947279
 51
359.6516205804454103
  0
LINE
  5
13F5A
  8
0
 10
3491.7928950180930769
 20
158.3309759027044947
 30
0.0
 11
3491.7601111158819549
 21
158.2407134278624881
 31
0.0
  0
ARC
  5
13F5B
  8
0
 10
3491.7083510565289544
 20
158.270750455644901
 30
0.0
 40
0.0598441875394536
 50
271.4411084056710024
 51
329.8728555966715135
  0
ARC
  5
13F5C
  8
0
 10
3491.7117404536338654
 20
158.2746937278579082
 30
0.0
 40
0.063796366248123
 50
212.1900190936399895
 51
268.3074116657119248
  0
ARC
  5
13F5D
  8
0
 10
3494.0675365867091386
 20
159.1095224149582066
 30
0.0
 40
2.5616222032941489
 50
179.2928474254123898
 51
199.8260632201636042
  0
LINE
  5
13F5E
  8
0
 10
3491.5061094848929315
 20
159.1411375140546056
 30
0.0
 11
3491.5053706123007942
 21
161.323419410556312
 31
0.0
  0
ARC
  5
13F5F
  8
0
 10
3494.0488155003999964
 20
161.368167903276003
 30
0.0
 40
2.543838502420805
 50
158.0580846258187933
 51
181.0079382074123089
  0
ARC
  5
13F61
  8
0
 10
3491.7250238320480094
 20
162.3062776135176932
 30
0.0
 40
0.0378792499830636
 50
93.9235825231526036
 51
160.8317503308861092
  0
LINE
  5
13F62
  8
0
 10
3491.6892446658821427
 20
162.3187150106257093
 30
0.0
 11
3491.6892446658821427
 21
158.2149951861682098
 31
0.0
  0
LINE
  5
13F63
  8
0
 10
3493.9697962575928614
 20
159.3027461807546104
 30
0.0
 11
3493.3595206350928493
 21
159.3027461807546104
 31
0.0
  0
LINE
  5
13F64
  8
0
 10
3493.3595206350928493
 20
159.3027461807546104
 30
0.0
 11
3493.3398356276929917
 21
159.2830611723545076
 31
0.0
  0
LINE
  5
13F65
  8
0
 10
3493.3398356276929917
 20
159.2830611723545076
 30
0.0
 11
3493.3398354616929282
 21
158.3578642600546118
 31
0.0
  0
LINE
  5
13F66
  8
0
 10
3493.3398354616929282
 20
158.3578642600546118
 30
0.0
 11
3493.3595206350928493
 21
158.3381790783546137
 31
0.0
  0
LINE
  5
13F67
  8
0
 10
3493.3595206350928493
 20
158.3381790783546137
 30
0.0
 11
3493.9697962576919963
 21
158.338179251654509
 31
0.0
  0
LINE
  5
13F68
  8
0
 10
3493.3595206350928493
 20
158.3381790783546137
 30
0.0
 11
3493.3595206350928493
 21
159.3027461807546104
 31
0.0
  0
LINE
  5
13F69
  8
0
 10
3493.3398356135498943
 20
159.2042422440374025
 30
0.0
 11
3492.863064060491979
 21
159.2137776751546028
 31
0.0
  0
ARC
  5
13F6A
  8
0
 10
3492.8634576827212186
 20
159.2334587864542073
 30
0.0
 40
0.0196850471284502
 50
180.0011221100045873
 51
268.8542371551005203
  0
LINE
  5
13F6B
  8
0
 10
3492.8437726355928135
 20
159.2711398983545905
 30
0.0
 11
3492.8437726355928135
 21
158.3697855389544884
 31
0.0
  0
ARC
  5
13F6C
  8
0
 10
3492.8240829573292103
 20
158.3697855389544884
 30
0.0
 40
0.0196896782632337
 50
272.0130352159869176
 51
0.0
  0
LINE
  5
13F6D
  8
0
 10
3492.82477459399297
 20
158.3501080119544895
 30
0.0
 11
3492.7650329542761938
 21
158.3480081795746912
 31
0.0
  0
LINE
  5
13F6E
  8
0
 10
3492.7650329542761938
 20
158.3480081795746912
 30
0.0
 11
3492.7283439326979533
 21
158.349302966292214
 31
0.0
  0
ARC
  5
13F6F
  8
0
 10
3492.7297324717928859
 20
158.388648551254505
 30
0.0
 40
0.0393700786999992
 50
179.9999999999984084
 51
267.9788221109379833
  0
LINE
  5
13F70
  8
0
 10
3492.6903623930929825
 20
158.388648551254505
 30
0.0
 11
3492.6903623930929825
 21
159.2522768811545859
 31
0.0
  0
ARC
  5
13F71
  8
0
 10
3492.7297324717928859
 20
159.2522768811545859
 30
0.0
 40
0.0393700787000011
 50
92.0000000000297149
 51
179.9999999999984084
  0
LINE
  5
13F72
  8
0
 10
3492.7283584758611141
 20
159.2916229766663037
 30
0.0
 11
3492.7650324780929623
 21
159.2929036610445905
 31
0.0
  0
LINE
  5
13F73
  8
0
 10
3492.7650324780929623
 20
159.2929036610445905
 30
0.0
 11
3492.82477459399297
 21
159.2908174204544878
 31
0.0
  0
ARC
  5
13F74
  8
0
 10
3492.8240875960232188
 20
159.2711443719711042
 30
0.0
 40
0.0196850400771761
 50
359.9869789774047035
 51
88.0000000653041639
  0
ARC
  5
13F75
  8
0
 10
3492.7045423422300701
 20
159.0271352199571027
 30
0.0
 40
0.0144611973661402
 50
127.2057766655828033
 51
168.6815543815077092
  0
ARC
  5
13F76
  8
0
 10
3492.7189442158860402
 20
159.0081654238560986
 30
0.0
 40
0.0382785676852191
 50
108.6324497122614048
 51
127.2057766655828033
  0
ARC
  5
13F77
  8
0
 10
3492.7284451738601092
 20
158.9799867010312937
 30
0.0
 40
0.0680158947751024
 50
90.7288317963791684
 51
108.6324497122614048
  0
LINE
  5
13F78
  8
0
 10
3492.7275800000138588
 20
159.047997093003886
 30
0.0
 11
3492.824740343888152
 21
159.047626986397006
 31
0.0
  0
ARC
  5
13F79
  8
0
 10
3492.8252507596312171
 20
159.0179135184073971
 30
0.0
 40
0.0297178516081157
 50
60.0339086835817781
 51
90.9841258473046253
  0
ARC
  5
13F7A
  8
0
 10
3492.8362124900750132
 20
159.036925768511594
 30
0.0
 40
0.0077718909691213
 50
13.4051697754071402
 51
60.0339086835817781
  0
ARC
  5
13F7B
  8
0
 10
3492.7015763156027788
 20
158.6125000432591889
 30
0.0
 40
0.0113064862245417
 50
187.3365298255585003
 51
210.0126727738283989
  0
ARC
  5
13F7C
  8
0
 10
3492.7083101730759154
 20
158.6163898238114029
 30
0.0
 40
0.0190830683275302
 50
210.0126727738283989
 51
251.5716073687781886
  0
ARC
  5
13F7D
  8
0
 10
3492.7284095986778993
 20
158.6591069774644041
 30
0.0
 40
0.06619780785008
 50
246.7492726526591014
 51
269.9557521806889895
  0
LINE
  5
13F7E
  8
0
 10
3492.7283584760930353
 20
158.5929091893546001
 30
0.0
 11
3492.82477459399297
 21
158.5932990236680098
 31
0.0
  0
ARC
  5
13F7F
  8
0
 10
3492.8243894180491225
 20
158.6290915323083084
 30
0.0
 40
0.035794581092955
 50
270.6165552267394787
 51
288.9734742933677012
  0
ARC
  5
13F80
  8
0
 10
3492.830537443834146
 20
158.6112094795824987
 30
0.0
 40
0.0168851646359376
 50
288.9734742933677012
 51
310.5656837003933788
  0
ARC
  5
13F81
  8
0
 10
3492.8371022035339593
 20
158.603540952507899
 30
0.0
 40
0.006790493893094
 50
310.5656837003933788
 51
349.2097523768247243
  0
ARC
  5
13F82
  8
0
 10
3492.8634576748809195
 20
158.4074666536915004
 30
0.0
 40
0.0196850392886095
 50
91.145740478295977
 51
179.9988871197668061
  0
LINE
  5
13F83
  8
0
 10
3492.863064060491979
 20
158.4271477573066136
 30
0.0
 11
3493.3398356314141893
 21
158.4366830025888078
 31
0.0
  0
ENDSEC
  0
EOF
