  0
SECTION
  2
HEADER
  9
$ACADVER
  1
AC1009
  9
$INSBASE
 10
3457.8106264489520072
 20
159.8265226438591071
 30
0.0
  9
$EXTMIN
 10
3455.8421224662511122
 20
156.6769166414732979
 30
0.0
  9
$EXTMAX
 10
3459.7791303859021355
 20
162.9761289424841095
 30
0.0
  9
$LIMMIN
 10
0.0
 20
0.0
  9
$LIMMAX
 10
11.6929133858000007
 20
8.2677165353999982
  9
$ORTHOMODE
 70
     0
  9
$REGENMODE
 70
     1
  9
$FILLMODE
 70
     1
  9
$QTEXTMODE
 70
     0
  9
$MIRRTEXT
 70
     0
  9
$DRAGMODE
 70
     2
  9
$LTSCALE
 40
0.6431102362
  9
$OSMODE
 70
  4095
  9
$ATTMODE
 70
     1
  9
$TEXTSIZE
 40
0.2
  9
$TRACEWID
 40
0.05
  9
$TEXTSTYLE
  7
STANDARD
  9
$CLAYER
  8
0
  9
$CELTYPE
  6
BYLAYER
  9
$CECOLOR
 62
   256
  9
$DIMSCALE
 40
1.0
  9
$DIMASZ
 40
0.1875
  9
$DIMEXO
 40
0.0625
  9
$DIMDLI
 40
0.4443307087
  9
$DIMRND
 40
0.0
  9
$DIMDLE
 40
0.0
  9
$DIMEXE
 40
0.125
  9
$DIMTP
 40
0.01
  9
$DIMTM
 40
0.01
  9
$DIMTXT
 40
2.0
  9
$DIMCEN
 40
0.1052362205
  9
$DIMTSZ
 40
0.0
  9
$DIMTOL
 70
     1
  9
$DIMLIM
 70
     0
  9
$DIMTIH
 70
     1
  9
$DIMTOH
 70
     1
  9
$DIMSE1
 70
     0
  9
$DIMSE2
 70
     0
  9
$DIMTAD
 70
     0
  9
$DIMZIN
 70
     0
  9
$DIMBLK
  1

  9
$DIMASO
 70
     1
  9
$DIMSHO
 70
     1
  9
$DIMPOST
  1
\X
  9
$DIMAPOST
  1

  9
$DIMALT
 70
     1
  9
$DIMALTD
 70
     2
  9
$DIMALTF
 40
25.3999999999999986
  9
$DIMLFAC
 40
1.0
  9
$DIMTOFL
 70
     0
  9
$DIMTVP
 40
0.0
  9
$DIMTIX
 70
     0
  9
$DIMSOXD
 70
     0
  9
$DIMSAH
 70
     0
  9
$DIMBLK1
  1

  9
$DIMBLK2
  1

  9
$DIMSTYLE
  2
STANDARD
  9
$DIMCLRD
 70
     0
  9
$DIMCLRE
 70
     0
  9
$DIMCLRT
 70
     0
  9
$DIMTFAC
 40
1.0
  9
$DIMGAP
 40
0.09
  9
$LUNITS
 70
     2
  9
$LUPREC
 70
     4
  9
$SKETCHINC
 40
0.1
  9
$FILLETRAD
 40
0.0
  9
$AUNITS
 70
     0
  9
$AUPREC
 70
     0
  9
$MENU
  1
.
  9
$ELEVATION
 40
0.0
  9
$PELEVATION
 40
0.0
  9
$THICKNESS
 40
0.0
  9
$LIMCHECK
 70
     0
  9
$BLIPMODE
 70
     0
  9
$CHAMFERA
 40
0.0
  9
$CHAMFERB
 40
0.0
  9
$SKPOLY
 70
     0
  9
$TDCREATE
 40
2458060.468368056230247
  9
$TDUPDATE
 40
2459108.4467245368286967
  9
$TDINDWG
 40
0.5786528935
  9
$TDUSRTIMER
 40
0.5786528935
  9
$USRTIMER
 70
     1
  9
$ANGBASE
 50
0.0
  9
$ANGDIR
 70
     0
  9
$PDMODE
 70
     0
  9
$PDSIZE
 40
0.3125
  9
$PLINEWID
 40
0.0
  9
$COORDS
 70
     1
  9
$SPLFRAME
 70
     0
  9
$SPLINETYPE
 70
     6
  9
$SPLINESEGS
 70
     8
  9
$ATTDIA
 70
     1
  9
$ATTREQ
 70
     1
  9
$HANDLING
 70
     1
  9
$HANDSEED
  5
16E51
  9
$SURFTAB1
 70
     6
  9
$SURFTAB2
 70
     6
  9
$SURFTYPE
 70
     6
  9
$SURFU
 70
     6
  9
$SURFV
 70
     6
  9
$UCSNAME
  2

  9
$UCSORG
 10
0.0
 20
0.0
 30
0.0
  9
$UCSXDIR
 10
1.0
 20
0.0
 30
0.0
  9
$UCSYDIR
 10
0.0
 20
1.0
 30
0.0
  9
$PUCSNAME
  2

  9
$PUCSORG
 10
0.0
 20
0.0
 30
0.0
  9
$PUCSXDIR
 10
1.0
 20
0.0
 30
0.0
  9
$PUCSYDIR
 10
0.0
 20
1.0
 30
0.0
  9
$USERI1
 70
     0
  9
$USERI2
 70
     0
  9
$USERI3
 70
     0
  9
$USERI4
 70
     0
  9
$USERI5
 70
     0
  9
$USERR1
 40
0.0
  9
$USERR2
 40
0.0
  9
$USERR3
 40
0.0
  9
$USERR4
 40
0.0
  9
$USERR5
 40
0.0
  9
$WORLDVIEW
 70
     1
  9
$SHADEDGE
 70
     3
  9
$SHADEDIF
 70
    70
  9
$TILEMODE
 70
     1
  9
$MAXACTVP
 70
    64
  9
$PLIMCHECK
 70
     0
  9
$PEXTMIN
 10
1.0000000000000000E+20
 20
1.0000000000000000E+20
 30
1.0000000000000000E+20
  9
$PEXTMAX
 10
-1.0000000000000000E+20
 20
-1.0000000000000000E+20
 30
-1.0000000000000000E+20
  9
$PLIMMIN
 10
0.0
 20
0.0
  9
$PLIMMAX
 10
12.0
 20
9.0
  9
$UNITMODE
 70
     0
  9
$VISRETAIN
 70
     1
  9
$PLINEGEN
 70
     0
  9
$PSLTSCALE
 70
     1
  0
ENDSEC
  0
SECTION
  2
TABLES
  0
TABLE
  2
VPORT
 70
     1
  0
VPORT
  2
*ACTIVE
 70
     0
 10
0.0
 20
0.0
 11
1.0
 21
1.0
 12
154.1175111917015954
 22
-35.4349887839090627
 13
0.0
 23
0.0
 14
1.0
 24
1.0
 15
0.0
 25
0.0
 16
0.0
 26
0.0
 36
96.5995694866707311
 17
3303.693115234375
 27
195.2615115758877096
 37
0.0
 40
6.3516329304228227
 41
2.6486111111111108
 42
50.0
 43
0.0
 44
0.0
 50
0.0
 51
0.0
 71
     0
 72
   100
 73
     1
 74
     1
 75
     0
 76
     0
 77
     0
 78
     0
  0
ENDTAB
  0
TABLE
  2
LTYPE
 70
     2
  0
LTYPE
  2
CONTINUOUS
 70
     0
  3
Solid line
 72
    65
 73
     0
 40
0.0
  0
LTYPE
  2
PHANTOM2
 70
     0
  3
___ _ _ ___ _ _ ___ _ _ ___ _ _
 72
    65
 73
     6
 40
1.25
 49
0.625
 49
-0.125
 49
0.125
 49
-0.125
 49
0.125
 49
-0.125
  0
ENDTAB
  0
TABLE
  2
LAYER
 70
     2
  0
LAYER
  2
0
 70
     0
 62
   255
  6
CONTINUOUS
  0
LAYER
  2
DEFPOINTS
 70
     0
 62
     7
  6
CONTINUOUS
  0
ENDTAB
  0
TABLE
  2
STYLE
 70
     1
  0
STYLE
  2
STANDARD
 70
     0
 40
0.0
 41
0.8
 50
0.0
 71
     0
 42
0.2
  3
txt
  4

  0
ENDTAB
  0
TABLE
  2
VIEW
 70
     0
  0
ENDTAB
  0
TABLE
  2
UCS
 70
     0
  0
ENDTAB
  0
TABLE
  2
APPID
 70
     9
  0
APPID
  2
ACAD
 70
     0
  0
APPID
  2
ACAD_MLEADERVER
 70
     0
  0
APPID
  2
ACAD_EXEMPT_FROM_CAD_STANDARDS
 70
     0
  0
APPID
  2
ACAD_NAV_VCDISPLAY
 70
     0
  0
APPID
  2
ACAECLAYERSTANDARD
 70
     0
  0
APPID
  2
ACCMTRANSPARENCY
 70
     0
  0
APPID
  2
ACAD_DSTYLE_DIMJAG
 70
     0
  0
APPID
  2
ACAD_DSTYLE_DIMTALN
 70
     0
  0
APPID
  2
ACDBATTR
 70
     0
  0
ENDTAB
  0
TABLE
  2
DIMSTYLE
 70
     1
  0
DIMSTYLE
  2
STANDARD
 70
     0
  3

  4

  5

  6

  7

 40
1.0
 41
0.1875
 42
0.0625
 43
0.38
 44
0.125
 45
0.0
 46
0.0
 47
0.01
 48
0.01
140
0.15625
141
0.09
142
0.0
143
25.3999999999999986
144
1.0
145
0.0
146
1.0
147
0.09
 71
     1
 72
     0
 73
     1
 74
     1
 75
     0
 76
     0
 77
     0
 78
     4
170
     0
171
     2
172
     0
173
     0
174
     0
175
     0
176
     0
177
     0
178
     0
  0
ENDTAB
  0
ENDSEC
  0
SECTION
  2
BLOCKS
  0
BLOCK
  8
0
  2
$MODEL_SPACE
 70
     0
 10
0.0
 20
0.0
 30
0.0
  3
$MODEL_SPACE
  1

  0
ENDBLK
  5
21
  8
0
  0
BLOCK
 67
     1
  8
0
  2
$PAPER_SPACE
 70
     0
 10
0.0
 20
0.0
 30
0.0
  3
$PAPER_SPACE
  1

  0
ENDBLK
  5
1D
 67
     1
  8
0
  0
BLOCK
  8
0
  2
_FILLED
 70
     0
 10
0.0
 20
0.0
 30
0.0
  3
_FILLED
  1

  0
SOLID
  5
1223D
  8
0
  6
BYBLOCK
 62
     0
 10
0.0
 20
0.0
 30
0.0
 11
-1.0
 21
0.1666666667
 31
0.0
 12
-1.0
 22
-0.1666666667
 32
0.0
 13
-1.0
 23
-0.1666666667
 33
0.0
  0
ENDBLK
  5
1223E
  8
0
  6
BYBLOCK
 62
     0
  0
ENDSEC
  0
SECTION
  2
ENTITIES
  0
LINE
  5
1688F
  8
0
 10
3455.8421224662511122
 20
156.8343966602340913
 30
0.0
 11
3455.8421224662511122
 21
162.8186486287314949
 31
0.0
  0
ARC
  5
16890
  8
0
 10
3455.9996027791030428
 20
162.8186486296326052
 30
0.0
 40
0.1574803128514413
 50
89.9999992364812442
 51
180.0000003278692873
  0
LINE
  5
16891
  8
0
 10
3455.9996027812007924
 20
162.9761289424841095
 30
0.0
 11
3459.6216500253008235
 21
162.9761289424839958
 31
0.0
  0
ARC
  5
16892
  8
0
 10
3459.6216499909937738
 20
162.8186485475754068
 30
0.0
 40
0.1574803949087005
 50
0.0000294914318168
 51
89.9999875178334605
  0
LINE
  5
16893
  8
0
 10
3459.7791303859021355
 20
162.8186486286340937
 30
0.0
 11
3459.7791303859021355
 21
156.8343966602340913
 31
0.0
  0
ARC
  5
16894
  8
0
 10
3459.6216506568598561
 20
156.8343963705158899
 30
0.0
 40
0.1574797290426587
 50
269.9997702203770018
 51
0.0001054080367523
  0
LINE
  5
16895
  8
0
 10
3459.6216500253008235
 20
156.6769166414744916
 30
0.0
 11
3455.9996027812021566
 21
156.6769166414744916
 31
0.0
  0
ARC
  5
16896
  8
0
 10
3455.9996060443318129
 20
156.8344002195617861
 30
0.0
 40
0.1574835781211064
 50
180.0012949579243866
 51
269.9988128058063808
  0
ARC
  5
168D8
  8
0
 10
3456.790941409854895
 20
161.8462076829563898
 30
0.0
 40
0.0393700790526213
 50
90.0000003676375115
 51
179.9999996323591915
  0
LINE
  5
168D9
  8
0
 10
3456.7909414096020555
 20
161.8855777620090919
 30
0.0
 11
3458.8303114883019589
 21
161.885577775094788
 31
0.0
  0
LINE
  5
168DA
  8
0
 10
3458.8680560668890394
 20
157.5725856360124055
 30
0.0
 11
3458.8680560668890394
 21
161.851067759009112
 31
0.0
  0
ARC
  5
168DB
  8
0
 10
3456.7807574796029257
 20
157.5725879128900999
 30
0.0
 40
0.0275597037776891
 50
180.0047335951429091
 51
269.9447653811416217
  0
LINE
  5
168DC
  8
0
 10
3456.7807309113368319
 20
157.5450282219186988
 30
0.0
 11
3458.8404965867680403
 21
157.5450282219186988
 31
0.0
  0
ARC
  5
168DD
  8
0
 10
3458.8404973578449244
 20
157.57258693098251
 30
0.0
 40
0.0275587090745491
 50
269.9983968947478274
 51
359.9973076928566229
  0
ARC
  5
168DE
  8
0
 10
3458.8303114883019589
 20
161.8462076832090872
 30
0.0
 40
0.0393700786999958
 50
0.0000000052973283
 51
90.0
  0
LINE
  5
168DF
  8
0
 10
3458.8680528407021484
 20
157.6237667383090866
 30
0.0
 11
3458.8688941655018425
 21
157.6237667383090866
 31
0.0
  0
LINE
  5
168E0
  8
0
 10
3458.8688941655018425
 20
157.6237667383090866
 30
0.0
 11
3458.8696815670018623
 21
161.8462076832090872
 31
0.0
  0
ARC
  5
168E1
  8
0
 10
3458.8403118894111685
 20
161.8509874141130069
 30
0.0
 40
0.0277442938144669
 50
0.165923483695736
 51
89.6220201296176811
  0
LINE
  5
168E2
  8
0
 10
3458.8404949170021609
 20
161.8787311042094075
 30
0.0
 11
3456.7807558827630601
 21
161.8787311042692068
 31
0.0
  0
ARC
  5
168E3
  8
0
 10
3456.7809402533839602
 20
161.8509892309160989
 30
0.0
 40
0.0277424859436489
 50
90.3807782047630752
 51
179.8389013576010882
  0
LINE
  5
168E4
  8
0
 10
3456.7531978771021386
 20
161.8510672344091006
 30
0.0
 11
3456.753197775919034
 21
157.5725856359950967
 31
0.0
  0
LINE
  5
168E5
  8
0
 10
3456.753200057201866
 20
157.6237667383090866
 30
0.0
 11
3456.7523587324021719
 21
157.6237667383090866
 31
0.0
  0
LINE
  5
168E6
  8
0
 10
3456.7523587324021719
 20
157.6237667383090866
 30
0.0
 11
3456.7515713309021521
 21
161.8462076832090872
 31
0.0
  0
ATTDEF
  5
16930
  8
DEFPOINTS
 10
3457.8115474314731728
 20
159.8246489287379859
 30
0.0
 40
0.001
  1
K-79009T-4
  3

  2
MODELNUMBER
 70
     0
1001
ACDBATTR
1070
     0
1070
     1
  0
ATTDEF
  5
16931
  8
DEFPOINTS
 10
3457.8115474314731728
 20
159.8229822620712923
 30
0.0
 40
0.001
  1
LOURE
  3

  2
TRADENAME
 70
     0
1001
ACDBATTR
1070
     0
1070
     1
  0
ATTDEF
  5
16932
  8
DEFPOINTS
 10
3457.8115474314731728
 20
159.8213155954045988
 30
0.0
 40
0.001
  1
VALVE TRIM
  3

  2
PRODUCT
 70
     0
1001
ACDBATTR
1070
     0
1070
     1
  0
ENDSEC
  0
EOF
