  0
SECTION
  2
HEADER
  9
$ACADVER
  1
AC1009
  9
$INSBASE
 10
3478.8883842829482091
 20
159.8365924672885967
 30
0.0
  9
$EXTMIN
 10
3476.7950779276598041
 20
156.2173071703313951
 30
-0.0000000349181948
  9
$EXTMAX
 10
3485.0373269918309234
 20
161.4144518247618123
 30
0.0000000814935746
  9
$LIMMIN
 10
0.0
 20
0.0
  9
$LIMMAX
 10
11.6929133858000007
 20
8.2677165353999982
  9
$ORTHOMODE
 70
     0
  9
$REGENMODE
 70
     1
  9
$FILLMODE
 70
     1
  9
$QTEXTMODE
 70
     0
  9
$MIRRTEXT
 70
     0
  9
$DRAGMODE
 70
     2
  9
$LTSCALE
 40
0.6431102362
  9
$OSMODE
 70
  4095
  9
$ATTMODE
 70
     1
  9
$TEXTSIZE
 40
0.2
  9
$TRACEWID
 40
0.05
  9
$TEXTSTYLE
  7
STANDARD
  9
$CLAYER
  8
0
  9
$CELTYPE
  6
BYLAYER
  9
$CECOLOR
 62
   256
  9
$DIMSCALE
 40
1.0
  9
$DIMASZ
 40
0.1875
  9
$DIMEXO
 40
0.0625
  9
$DIMDLI
 40
0.4443307087
  9
$DIMRND
 40
0.0
  9
$DIMDLE
 40
0.0
  9
$DIMEXE
 40
0.125
  9
$DIMTP
 40
0.01
  9
$DIMTM
 40
0.01
  9
$DIMTXT
 40
2.0
  9
$DIMCEN
 40
0.1052362205
  9
$DIMTSZ
 40
0.0
  9
$DIMTOL
 70
     1
  9
$DIMLIM
 70
     0
  9
$DIMTIH
 70
     1
  9
$DIMTOH
 70
     1
  9
$DIMSE1
 70
     0
  9
$DIMSE2
 70
     0
  9
$DIMTAD
 70
     0
  9
$DIMZIN
 70
     0
  9
$DIMBLK
  1

  9
$DIMASO
 70
     1
  9
$DIMSHO
 70
     1
  9
$DIMPOST
  1
\X
  9
$DIMAPOST
  1

  9
$DIMALT
 70
     1
  9
$DIMALTD
 70
     2
  9
$DIMALTF
 40
25.3999999999999986
  9
$DIMLFAC
 40
1.0
  9
$DIMTOFL
 70
     0
  9
$DIMTVP
 40
0.0
  9
$DIMTIX
 70
     0
  9
$DIMSOXD
 70
     0
  9
$DIMSAH
 70
     0
  9
$DIMBLK1
  1

  9
$DIMBLK2
  1

  9
$DIMSTYLE
  2
STANDARD
  9
$DIMCLRD
 70
     0
  9
$DIMCLRE
 70
     0
  9
$DIMCLRT
 70
     0
  9
$DIMTFAC
 40
1.0
  9
$DIMGAP
 40
0.09
  9
$LUNITS
 70
     2
  9
$LUPREC
 70
     4
  9
$SKETCHINC
 40
0.1
  9
$FILLETRAD
 40
0.0
  9
$AUNITS
 70
     0
  9
$AUPREC
 70
     0
  9
$MENU
  1
.
  9
$ELEVATION
 40
0.0
  9
$PELEVATION
 40
0.0
  9
$THICKNESS
 40
0.0
  9
$LIMCHECK
 70
     0
  9
$BLIPMODE
 70
     0
  9
$CHAMFERA
 40
0.0
  9
$CHAMFERB
 40
0.0
  9
$SKPOLY
 70
     0
  9
$TDCREATE
 40
2458060.468368056230247
  9
$TDUPDATE
 40
2459107.4491087961941957
  9
$TDINDWG
 40
0.5731552083
  9
$TDUSRTIMER
 40
0.5731552083
  9
$USRTIMER
 70
     1
  9
$ANGBASE
 50
0.0
  9
$ANGDIR
 70
     0
  9
$PDMODE
 70
     0
  9
$PDSIZE
 40
0.3125
  9
$PLINEWID
 40
0.0
  9
$COORDS
 70
     1
  9
$SPLFRAME
 70
     0
  9
$SPLINETYPE
 70
     6
  9
$SPLINESEGS
 70
     8
  9
$ATTDIA
 70
     1
  9
$ATTREQ
 70
     1
  9
$HANDLING
 70
     1
  9
$HANDSEED
  5
155BC
  9
$SURFTAB1
 70
     6
  9
$SURFTAB2
 70
     6
  9
$SURFTYPE
 70
     6
  9
$SURFU
 70
     6
  9
$SURFV
 70
     6
  9
$UCSNAME
  2

  9
$UCSORG
 10
0.0
 20
0.0
 30
0.0
  9
$UCSXDIR
 10
1.0
 20
0.0
 30
0.0
  9
$UCSYDIR
 10
0.0
 20
1.0
 30
0.0
  9
$PUCSNAME
  2

  9
$PUCSORG
 10
0.0
 20
0.0
 30
0.0
  9
$PUCSXDIR
 10
1.0
 20
0.0
 30
0.0
  9
$PUCSYDIR
 10
0.0
 20
1.0
 30
0.0
  9
$USERI1
 70
     0
  9
$USERI2
 70
     0
  9
$USERI3
 70
     0
  9
$USERI4
 70
     0
  9
$USERI5
 70
     0
  9
$USERR1
 40
0.0
  9
$USERR2
 40
0.0
  9
$USERR3
 40
0.0
  9
$USERR4
 40
0.0
  9
$USERR5
 40
0.0
  9
$WORLDVIEW
 70
     1
  9
$SHADEDGE
 70
     3
  9
$SHADEDIF
 70
    70
  9
$TILEMODE
 70
     1
  9
$MAXACTVP
 70
    64
  9
$PLIMCHECK
 70
     0
  9
$PEXTMIN
 10
1.0000000000000000E+20
 20
1.0000000000000000E+20
 30
1.0000000000000000E+20
  9
$PEXTMAX
 10
-1.0000000000000000E+20
 20
-1.0000000000000000E+20
 30
-1.0000000000000000E+20
  9
$PLIMMIN
 10
0.0
 20
0.0
  9
$PLIMMAX
 10
12.0
 20
9.0
  9
$UNITMODE
 70
     0
  9
$VISRETAIN
 70
     1
  9
$PLINEGEN
 70
     0
  9
$PSLTSCALE
 70
     1
  0
ENDSEC
  0
SECTION
  2
TABLES
  0
TABLE
  2
VPORT
 70
     1
  0
VPORT
  2
*ACTIVE
 70
     0
 10
0.0
 20
0.0
 11
1.0
 21
1.0
 12
177.2230872253703069
 22
-36.4456320783411414
 13
0.0
 23
0.0
 14
1.0
 24
1.0
 15
0.0
 25
0.0
 16
0.0
 26
0.0
 36
96.5995694866707311
 17
3303.693115234375
 27
195.2615115758877096
 37
0.0
 40
5.240394124508895
 41
2.6486111111111108
 42
50.0
 43
0.0
 44
0.0
 50
0.0
 51
0.0
 71
     0
 72
   100
 73
     1
 74
     1
 75
     0
 76
     0
 77
     0
 78
     0
  0
ENDTAB
  0
TABLE
  2
LTYPE
 70
     2
  0
LTYPE
  2
CONTINUOUS
 70
     0
  3
Solid line
 72
    65
 73
     0
 40
0.0
  0
LTYPE
  2
PHANTOM2
 70
     0
  3
___ _ _ ___ _ _ ___ _ _ ___ _ _
 72
    65
 73
     6
 40
1.25
 49
0.625
 49
-0.125
 49
0.125
 49
-0.125
 49
0.125
 49
-0.125
  0
ENDTAB
  0
TABLE
  2
LAYER
 70
     2
  0
LAYER
  2
0
 70
     0
 62
   255
  6
CONTINUOUS
  0
LAYER
  2
DEFPOINTS
 70
     0
 62
     7
  6
CONTINUOUS
  0
ENDTAB
  0
TABLE
  2
STYLE
 70
     1
  0
STYLE
  2
STANDARD
 70
     0
 40
0.0
 41
0.8
 50
0.0
 71
     0
 42
0.2
  3
txt
  4

  0
ENDTAB
  0
TABLE
  2
VIEW
 70
     0
  0
ENDTAB
  0
TABLE
  2
UCS
 70
     0
  0
ENDTAB
  0
TABLE
  2
APPID
 70
     9
  0
APPID
  2
ACAD
 70
     0
  0
APPID
  2
ACAD_MLEADERVER
 70
     0
  0
APPID
  2
ACAD_EXEMPT_FROM_CAD_STANDARDS
 70
     0
  0
APPID
  2
ACAD_NAV_VCDISPLAY
 70
     0
  0
APPID
  2
ACAECLAYERSTANDARD
 70
     0
  0
APPID
  2
ACCMTRANSPARENCY
 70
     0
  0
APPID
  2
ACAD_DSTYLE_DIMJAG
 70
     0
  0
APPID
  2
ACAD_DSTYLE_DIMTALN
 70
     0
  0
APPID
  2
ACDBATTR
 70
     0
  0
ENDTAB
  0
TABLE
  2
DIMSTYLE
 70
     1
  0
DIMSTYLE
  2
STANDARD
 70
     0
  3

  4

  5

  6

  7

 40
1.0
 41
0.1875
 42
0.0625
 43
0.38
 44
0.125
 45
0.0
 46
0.0
 47
0.01
 48
0.01
140
0.15625
141
0.09
142
0.0
143
25.3999999999999986
144
1.0
145
0.0
146
1.0
147
0.09
 71
     1
 72
     0
 73
     1
 74
     1
 75
     0
 76
     0
 77
     0
 78
     4
170
     0
171
     2
172
     0
173
     0
174
     0
175
     0
176
     0
177
     0
178
     0
  0
ENDTAB
  0
ENDSEC
  0
SECTION
  2
BLOCKS
  0
BLOCK
  8
0
  2
$MODEL_SPACE
 70
     0
 10
0.0
 20
0.0
 30
0.0
  3
$MODEL_SPACE
  1

  0
ENDBLK
  5
21
  8
0
  0
BLOCK
 67
     1
  8
0
  2
$PAPER_SPACE
 70
     0
 10
0.0
 20
0.0
 30
0.0
  3
$PAPER_SPACE
  1

  0
ENDBLK
  5
1D
 67
     1
  8
0
  0
BLOCK
  8
0
  2
_FILLED
 70
     0
 10
0.0
 20
0.0
 30
0.0
  3
_FILLED
  1

  0
SOLID
  5
1223D
  8
0
  6
BYBLOCK
 62
     0
 10
0.0
 20
0.0
 30
0.0
 11
-1.0
 21
0.1666666667
 31
0.0
 12
-1.0
 22
-0.1666666667
 32
0.0
 13
-1.0
 23
-0.1666666667
 33
0.0
  0
ENDBLK
  5
1223E
  8
0
  6
BYBLOCK
 62
     0
  0
ENDSEC
  0
SECTION
  2
ENTITIES
  0
ATTDEF
  5
146D7
  8
DEFPOINTS
 10
3478.8886937731358557
 20
159.8404522176882949
 30
0.0
 40
0.001
  1
K-79018T-4ND
  3

  2
MODELNUMBER
 70
     0
1001
ACDBATTR
1070
     0
1070
     1
  0
ATTDEF
  5
146D8
  8
DEFPOINTS
 10
3478.8886937731358557
 20
159.8387855510216013
 30
0.0
 40
0.001
  1
ALEO
  3

  2
TRADENAME
 70
     0
1001
ACDBATTR
1070
     0
1070
     1
  0
ATTDEF
  5
146D9
  8
DEFPOINTS
 10
3478.8886937731358557
 20
159.837118884354993
 30
0.0
 40
0.001
  1
BATHROOM SINK FAUCET
  3

  2
PRODUCT
 70
     0
1001
ACDBATTR
1070
     0
1070
     1
  0
LINE
  5
14FB6
  8
0
 10
3476.9513764089479082
 20
161.0964349869886121
 30
0.0
 11
3476.9513764089479082
 21
158.5767499476885973
 31
0.0
  0
ARC
  5
14FB7
  8
0
 10
3477.2663370389482225
 20
158.5767499476885973
 30
0.0
 40
0.3149606300000007
 50
180.0
 51
269.9999999818135166
  0
LINE
  5
14FB8
  8
0
 10
3477.2663370388490875
 20
158.2617893176885957
 30
0.0
 11
3481.9940315978487888
 21
158.2617893161875031
 31
0.0
  0
LINE
  5
14FB9
  8
0
 10
3483.7866272860478603
 20
158.2617893176885957
 30
0.0
 11
3484.5104315270477855
 21
158.2617893176885957
 31
0.0
  0
ARC
  5
14FBA
  8
0
 10
3484.5104315270477855
 20
158.5767499475886098
 30
0.0
 40
0.3149606299000012
 50
270.0
 51
0.0000000181913479
  0
LINE
  5
14FBB
  8
0
 10
3484.8253921569480553
 20
158.5767499476885973
 30
0.0
 11
3484.8253921561481548
 21
161.0964349869886121
 31
0.0
  0
ARC
  5
14FBC
  8
0
 10
3484.5104315261492047
 20
161.0964349868885961
 30
0.0
 40
0.3149606299999998
 50
0.0000000181913479
 51
89.9999998362697227
  0
LINE
  5
14FBD
  8
0
 10
3484.5104315270477855
 20
161.4113956168885977
 30
0.0
 11
3477.266337038849997
 21
161.4113956375884129
 31
0.0
  0
ARC
  5
14FBE
  8
0
 10
3477.2663370379509615
 20
161.0964350085866954
 30
0.0
 40
0.314960629001658
 50
89.9999998362697227
 51
180.0000039290054019
  0
LINE
  5
14FBF
  8
0
 10
3477.8824721876158037
 20
160.3540809656163901
 30
0.0
 11
3479.8942953719902107
 21
160.3540809656163901
 31
0.0
  0
ARC
  5
14FC0
  8
0
 10
3479.8942953719902107
 20
160.3304488080532053
 30
0.0
 40
0.0236321575631546
 50
0.6870056260490798
 51
90.0
  0
LINE
  5
14FC1
  8
0
 10
3479.9179258307481177
 20
160.3307321628886086
 30
0.0
 11
3479.9207411599481929
 21
160.0991237804886111
 31
0.0
  0
ARC
  5
14FC2
  8
0
 10
3478.553872684156886
 20
160.4641390533242031
 30
0.0
 40
1.414766970039983
 50
322.7723538291077716
 51
345.0483516231773251
  0
ARC
  5
14FC3
  8
0
 10
3478.6956011211727855
 20
160.3358122937891039
 30
0.0
 40
1.2243921444747301
 50
291.4513509616858755
 51
323.5414717267869946
  0
ARC
  5
14FC4
  8
0
 10
3478.872082186227999
 20
159.8985980177639874
 30
0.0
 40
0.7529359422492147
 50
271.2406292211630898
 51
291.1194288718298253
  0
ARC
  5
14FC6
  8
0
 10
3478.8893818083261067
 20
159.552164908493296
 30
0.0
 40
0.3516537872768806
 50
269.837470623665979
 51
271.9774104001095907
  0
ARC
  5
14FC7
  8
0
 10
3478.8895375984297971
 20
159.5476526579307119
 30
0.0
 40
0.3471388481082673
 50
271.9774104001095907
 51
276.695005570985586
  0
ARC
  5
14FC8
  8
0
 10
3478.8962595668740505
 20
159.4903881895154996
 30
0.0
 40
0.2894812015845356
 50
276.695005570985586
 51
281.429966019591177
  0
ARC
  5
14FC9
  8
0
 10
3478.9241593121628284
 20
159.3523933967595951
 30
0.0
 40
0.1486942752921865
 50
281.4299660196168134
 51
287.3041562210539723
  0
ARC
  5
14FCA
  8
0
 10
3478.9579195467349564
 20
159.2440294493615909
 30
0.0
 40
0.0351931804335556
 50
287.3041562210539723
 51
301.1922152587810046
  0
ARC
  5
14FCB
  8
0
 10
3478.975253176356091
 20
159.2153994468056055
 30
0.0
 40
0.00172481085599
 50
301.1922152587791857
 51
353.5095055584960733
  0
ARC
  5
14FCC
  8
0
 10
3478.9759045135701854
 20
159.2151505017135094
 30
0.0
 40
0.0010637888790778
 50
2.9083627199882072
 51
55.9831155949592869
  0
ARC
  5
14FCD
  8
0
 10
3478.9729249960878406
 20
159.2104595256998891
 30
0.0
 40
0.0066206707598362
 50
57.3217248553310412
 51
76.774954720271424
  0
ARC
  5
14FCE
  8
0
 10
3478.9568166222520631
 20
159.1058025398367874
 30
0.0
 40
0.1124910707285984
 50
80.9868256896715621
 51
91.1150462638459402
  0
ARC
  5
14FCF
  8
0
 10
3478.9656838274518122
 20
155.3056058378303135
 30
0.0
 40
3.9126820922092058
 50
90.1619040577946578
 51
90.8102332570037589
  0
ARC
  5
14FD0
  8
0
 10
3478.892993548675804
 20
161.1555673691854054
 30
0.0
 40
1.9377484330676329
 50
269.8637120704916015
 51
270.5133690121948007
  0
ARC
  5
14FD1
  8
0
 10
3867.3041777805060519
 20
135.8149837225317924
 30
0.0
 40
384.1741837479152082
 50
176.4264149204618946
 51
176.8554361042264134
  0
ARC
  5
14FD2
  8
0
 10
3482.3479534005491587
 20
156.958779679942495
 30
0.0
 40
1.3622760127616991
 50
343.7873446360346179
 51
357.0651063325926771
  0
ARC
  5
14FD3
  8
0
 10
3483.2361708381968128
 20
156.6953550535754971
 30
0.0
 40
0.4358603436797781
 50
294.6770879223147972
 51
344.4387955406066908
  0
ARC
  5
14FD4
  8
0
 10
3483.0996316489818128
 20
157.0204506752841951
 30
0.0
 40
0.7883585112678199
 50
274.4655783358790018
 51
293.8297223466906871
  0
ARC
  5
14FD5
  8
0
 10
3482.9133567838639465
 20
159.0220628225133908
 30
0.0
 40
2.7985570775132458
 50
269.5274246510592207
 51
275.0769960607673852
  0
ARC
  5
14FD6
  8
0
 10
3482.8691432604950933
 20
159.0582731720998879
 30
0.0
 40
2.8347509969195608
 50
265.0185832433219275
 51
270.4271082040939973
  0
ARC
  5
14FD7
  8
0
 10
3482.752771742999812
 20
157.4304122228805909
 30
0.0
 40
1.2032023162724019
 50
256.2822808246700106
 51
263.8080325912790158
  0
ARC
  5
14FD8
  8
0
 10
3482.5900703819829687
 20
156.7638803144081976
 30
0.0
 40
0.5170999056306717
 50
228.6006112561969132
 51
256.2822808246700106
  0
ARC
  5
14FD9
  8
0
 10
3482.5480118999148544
 20
156.6945365397631917
 30
0.0
 40
0.4375044869701882
 50
203.6483295727051086
 51
226.726432714417399
  0
ARC
  5
14FDA
  8
0
 10
3483.3260964330520437
 20
156.9507560568831082
 30
0.0
 40
1.255412836689044
 50
182.8182822598676012
 51
200.1134787632205132
  0
ARC
  5
14FDB
  8
0
 10
3529.6143219489317744
 20
160.2848726492335061
 30
0.0
 40
47.6632449513669982
 50
182.4326705045214112
 51
184.0855899382185044
  0
ARC
  5
14FDC
  8
0
 10
3185.5739421616199252
 20
141.1528643794628977
 30
0.0
 40
296.9134296960522192
 50
3.3033617886638349
 51
3.5931359145767381
  0
LINE
  5
14FDD
  8
0
 10
3477.8560274059482254
 20
160.0991237804886111
 30
0.0
 11
3479.9207411599481929
 21
160.0991237804886111
 31
0.0
  0
ARC
  5
14FDE
  8
0
 10
3478.894213417849187
 20
157.9877440919520097
 30
0.0
 40
1.797895459769199
 50
81.0042528230912353
 51
90.1857646457449675
  0
ARC
  5
14FDF
  8
0
 10
3479.049467245994947
 20
158.9684492526619977
 30
0.0
 40
0.8049773546884104
 50
74.9157410564304058
 51
81.004253450924864
  0
ARC
  5
14FE0
  8
0
 10
3479.1710219538440469
 20
159.3891140487558005
 30
0.0
 40
0.3672584353432984
 50
63.3540905910557512
 51
76.1472100573583646
  0
ARC
  5
14FE1
  8
0
 10
3479.283980430264819
 20
159.6172834622767027
 30
0.0
 40
0.1126709049570076
 50
48.9984925012206176
 51
62.6591110293858407
  0
ARC
  5
14FE2
  8
0
 10
3479.3224915369219161
 20
159.6614173794602038
 30
0.0
 40
0.0540971619451901
 50
29.2098218002339287
 51
49.1136251785772799
  0
ARC
  5
14FE3
  8
0
 10
3479.345492188388107
 20
159.6742436852352967
 30
0.0
 40
0.0277619683476742
 50
359.2177632852498164
 51
29.2701658352324188
  0
ARC
  5
14FE4
  8
0
 10
3479.337577924019115
 20
159.6773203254612099
 30
0.0
 40
0.0358406264835142
 50
317.3285035113277104
 51
354.4671080212751235
  0
ARC
  5
14FE5
  8
0
 10
3479.2503899490961885
 20
159.7683286858753036
 30
0.0
 40
0.161819661621049
 50
291.1205397794765872
 51
314.5590854523047142
  0
ARC
  5
14FE6
  8
0
 10
3479.1214442914629217
 20
160.0711261933819003
 30
0.0
 40
0.4908669687114076
 50
283.226980258316928
 51
292.425186049417789
  0
ARC
  5
14FE7
  8
0
 10
3479.0202412694170562
 20
160.4772438119117055
 30
0.0
 40
0.9093842035400111
 50
279.4711047075668944
 51
283.5794796842736218
  0
ARC
  5
14FE8
  8
0
 10
3478.8940830014262247
 20
160.7023799701636051
 30
0.0
 40
1.1582138806605891
 50
269.718088480664278
 51
271.9438117304537741
  0
ARC
  5
14FE9
  8
0
 10
3478.8826540666182154
 20
161.0391111394199868
 30
0.0
 40
1.495138947848119
 50
271.9438361271194253
 51
274.0749130619323068
  0
ARC
  5
14FEA
  8
0
 10
3478.914173770744128
 20
160.5966722333872951
 30
0.0
 40
1.0515787182065861
 50
274.0749130619323068
 51
278.0440515038667968
  0
ARC
  5
14FEB
  8
0
 10
3478.955510452838098
 20
160.3041783582345943
 30
0.0
 40
0.7561783318013848
 50
278.0440515038667968
 51
283.6888441627136217
  0
ARC
  5
14FEC
  8
0
 10
3479.0567792342280882
 20
159.8884053194935859
 30
0.0
 40
0.3282500833435029
 50
283.6888441627136217
 51
290.1548503232697271
  0
ARC
  5
14FED
  8
0
 10
3479.1172178018427985
 20
159.7331289460373114
 30
0.0
 40
0.1616898411074735
 50
289.0081484718704132
 51
303.0331154117749861
  0
ARC
  5
14FEE
  8
0
 10
3479.1202584770421709
 20
159.7101148719372077
 30
0.0
 40
0.1410928815283071
 50
307.0958921849701824
 51
322.1355226846877144
  0
ARC
  5
14FEF
  8
0
 10
3479.1805009163717841
 20
159.6592636489444033
 30
0.0
 40
0.0624018301974815
 50
325.0461852081676852
 51
348.9004197987727025
  0
ARC
  5
14FF0
  8
0
 10
3479.1868525173072157
 20
159.6575910768461881
 30
0.0
 40
0.0558486150837257
 50
349.32977636474061
 51
1.260836836783896
  0
LINE
  5
14FF1
  8
0
 10
3479.2426876105009796
 20
159.65881996855029
 30
0.0
 11
3479.2427149916488816
 21
159.7146464734886138
 31
0.0
  0
ARC
  5
14FF2
  8
0
 10
3479.2147331546739224
 20
159.7131355537991055
 30
0.0
 40
0.02802259942957
 50
3.0907668443676322
 51
55.3158716464997298
  0
ARC
  5
14FF3
  8
0
 10
3479.1578467330159583
 20
159.6473304138773983
 30
0.0
 40
0.1148851785853306
 50
50.6570282690158393
 51
66.7941549753482349
  0
ARC
  5
14FF4
  8
0
 10
3479.0940955459977886
 20
159.5090079520894903
 30
0.0
 40
0.26716822304928
 50
65.9171203385935911
 51
72.2975449726832693
  0
ARC
  5
14FF5
  8
0
 10
3479.2387975830388314
 20
159.7334048031393934
 30
0.0
 40
0.0236054229596194
 50
0.9096690561757771
 51
31.3629925351324097
  0
ARC
  5
14FF6
  8
0
 10
3479.240842791560226
 20
159.7334372770714026
 30
0.0
 40
0.0215599566427551
 50
323.8929140806512805
 51
0.9096690561741487
  0
ARC
  5
14FF7
  8
0
 10
3479.2009358025588881
 20
159.7625455144633975
 30
0.0
 40
0.0709548678708979
 50
313.5687121189724849
 51
323.8929140806527016
  0
ARC
  5
14FF8
  8
0
 10
3478.4649882241192245
 20
160.5362121376820994
 30
0.0
 40
1.138746459003763
 50
313.0759676727686838
 51
313.5687121189724849
  0
ARC
  5
14FF9
  8
0
 10
3479.1323630292667985
 20
160.0469658208764088
 30
0.0
 40
0.3951794783545246
 50
286.2116680153922061
 51
293.0983619848926196
  0
ARC
  5
14FFA
  8
0
 10
3479.2186136171799262
 20
159.8447381272021914
 30
0.0
 40
0.1753267913023782
 50
293.0983619848926196
 51
306.0211903207178921
  0
ARC
  5
14FFB
  8
0
 10
3479.2871250268099175
 20
159.7505135642497862
 30
0.0
 40
0.058827514424267
 50
306.0211903207178921
 51
325.7071542521184142
  0
ARC
  5
14FFC
  8
0
 10
3478.888404076588813
 20
158.2571111879915975
 30
0.0
 40
1.454228130831438
 50
88.635983367958147
 51
90.0007798584169052
  0
ARC
  5
14FFD
  8
0
 10
3478.8898875488621343
 20
158.3194129519771138
 30
0.0
 40
1.391908707810255
 50
85.8453932680760374
 51
88.635983367958147
  0
ARC
  5
14FFE
  8
0
 10
3478.9090514045228701
 20
158.5832364685907123
 30
0.0
 40
1.127390086004302
 50
81.4992763772387434
 51
85.8453932680760374
  0
ARC
  5
14FFF
  8
0
 10
3478.9801417875751213
 20
159.0588722364163061
 30
0.0
 40
0.646470938748208
 50
73.4116798827638348
 51
81.4992763772387434
  0
ARC
  5
15000
  8
0
 10
3479.1058512153258562
 20
159.4808703200100126
 30
0.0
 40
0.2061469185284775
 50
60.8970824112151305
 51
73.4116798827638348
  0
ARC
  5
15001
  8
0
 10
3479.168704346902814
 20
159.5937815790003071
 30
0.0
 40
0.0769204949311004
 50
45.5961942757124419
 51
60.8970824112151305
  0
ARC
  5
15002
  8
0
 10
3479.1998421943371795
 20
159.6255742772029009
 30
0.0
 40
0.0324194702033815
 50
22.4634388895997716
 51
45.5961942757124419
  0
ARC
  5
15003
  8
0
 10
3479.2128167059449879
 20
159.6309387987651007
 30
0.0
 40
0.0183796681021477
 50
356.2510797607047266
 51
22.4634388895997716
  0
ARC
  5
15004
  8
0
 10
3479.2096947757418093
 20
159.6311433617946136
 30
0.0
 40
0.0215082930754935
 50
338.0341747861742761
 51
356.2510797607047266
  0
ARC
  5
15005
  8
0
 10
3479.206485741708093
 20
159.632437669724311
 30
0.0
 40
0.0249685145201849
 50
328.1979102441122791
 51
338.0341747861742761
  0
ARC
  5
15006
  8
0
 10
3479.19613184239779
 20
159.6388578821108979
 30
0.0
 40
0.037151386021418
 50
322.7268857970108229
 51
328.1979102441122791
  0
ARC
  5
15007
  8
0
 10
3478.8885405626388092
 20
158.2992800018180048
 30
0.0
 40
1.4022167846794049
 50
87.1618146105978582
 51
90.0063857220956152
  0
ARC
  5
15008
  8
0
 10
3478.8984429303959587
 20
158.4990202149975005
 30
0.0
 40
1.2022312610828509
 50
82.1590661205202366
 51
87.1618145991977684
  0
ARC
  5
15009
  8
0
 10
3478.9699308793151431
 20
159.0181364586663051
 30
0.0
 40
0.6782158020728407
 50
75.433751169150554
 51
82.1590661205202366
  0
ARC
  5
1500A
  8
0
 10
3479.0618646421980884
 20
159.3719298590563938
 30
0.0
 40
0.3126729360264663
 50
68.2998272497613357
 51
75.433751169150554
  0
ARC
  5
1500B
  8
0
 10
3479.1222093570049765
 20
159.5235681002938009
 30
0.0
 40
0.1494686443834295
 50
53.9582774030108183
 51
68.2998272497613357
  0
ARC
  5
1500C
  8
0
 10
3479.1896312367712198
 20
159.6162243929856004
 30
0.0
 40
0.0348785119693466
 50
26.9090275069357503
 51
53.9582774030108183
  0
ARC
  5
1500D
  8
0
 10
3479.2022567168251044
 20
159.6226321660651877
 30
0.0
 40
0.020720040921072
 50
352.0842004495924016
 51
26.9090275069357503
  0
ARC
  5
1500E
  8
0
 10
3479.2049279441439467
 20
159.6222607518303107
 30
0.0
 40
0.0180231160199294
 50
331.037805926195972
 51
352.0842004495939932
  0
ARC
  5
1500F
  8
0
 10
3479.1837864857798195
 20
159.6339614240557125
 30
0.0
 40
0.042186455861496
 50
321.338116399189289
 51
331.037805926195972
  0
ARC
  5
15010
  8
0
 10
3479.1710988810218623
 20
159.6461039601740026
 30
0.0
 40
0.0596995097516642
 50
316.6329233128946044
 51
319.8453559819014913
  0
ARC
  5
15011
  8
0
 10
3478.8900854435469228
 20
158.442887728723008
 30
0.0
 40
1.253981598969574
 50
85.8083126271482968
 51
90.0777278969437845
  0
ARC
  5
15012
  8
0
 10
3478.9003661729029773
 20
158.583163242502593
 30
0.0
 40
1.1133298547136361
 50
82.5057107426375325
 51
85.8083126595171564
  0
ARC
  5
15013
  8
0
 10
3478.9562697354358534
 20
159.0081202552883042
 30
0.0
 40
0.6847115268044286
 50
76.0844006316710022
 51
82.5057107426375325
  0
ARC
  5
15014
  8
0
 10
3479.0490250185948753
 20
159.382489847308193
 30
0.0
 40
0.299022359231579
 50
66.35255859940672
 51
76.0844006316710022
  0
ARC
  5
15015
  8
0
 10
3479.1261670364888232
 20
159.5586631852916071
 30
0.0
 40
0.1066998801999998
 50
53.8096040153788095
 51
66.35255859940672
  0
ARC
  5
15016
  8
0
 10
3479.1608490288431312
 20
159.6060667887003888
 30
0.0
 40
0.0479636715223365
 50
42.2684434513051315
 51
53.8096040153788095
  0
ARC
  5
15017
  8
0
 10
3479.1743280756718377
 20
159.6183182139218957
 30
0.0
 40
0.0297487841121519
 50
15.3643672558629092
 51
42.2684434513051315
  0
ARC
  5
15018
  8
0
 10
3479.185047241338907
 20
159.6227942405755016
 30
0.0
 40
0.0182864259819562
 50
334.8663992265264255
 51
10.7348474669248599
  0
ARC
  5
15019
  8
0
 10
3479.1429960784598734
 20
159.6549103269315992
 30
0.0
 40
0.0708895948531041
 50
289.2034352947709976
 51
325.7638109285945802
  0
ARC
  5
1501A
  8
0
 10
3479.0314183523778411
 20
159.9152874468331902
 30
0.0
 40
0.3540288982794681
 50
281.3142508462323121
 51
292.3973809328508082
  0
ARC
  5
1501B
  8
0
 10
3478.9429269094639494
 20
160.319389355545411
 30
0.0
 40
0.7676751353257958
 50
276.773343690784202
 51
281.8733479584640236
  0
ARC
  5
1501C
  8
0
 10
3478.8978002862199901
 20
160.690247223874195
 30
0.0
 40
1.1412674233920139
 50
272.4566535082548171
 51
276.8271593495115894
  0
ARC
  5
1501D
  8
0
 10
3478.8889710496141561
 20
160.8561708131963996
 30
0.0
 40
1.307418087728937
 50
270.9511404752855128
 51
272.5315501333993211
  0
ARC
  5
1501E
  8
0
 10
3478.888397299358985
 20
160.8857388146145979
 30
0.0
 40
1.3369915417893761
 50
269.9994421914122995
 51
270.9546909146387179
  0
ARC
  5
1501F
  8
0
 10
3478.8884690121021777
 20
160.1835820726147119
 30
0.0
 40
0.603979150358207
 50
269.9919622674175912
 51
286.7147743456400235
  0
ARC
  5
15020
  8
0
 10
3478.890377325702957
 20
160.1772272861088879
 30
0.0
 40
0.597344018683689
 50
286.7147743456400235
 51
292.956502892555875
  0
ARC
  5
15021
  8
0
 10
3478.8889443183670664
 20
160.1806103783459889
 30
0.0
 40
0.6010180931403654
 50
292.956502892555875
 51
295.1821252361560823
  0
LINE
  5
15022
  8
0
 10
3479.0940061522478572
 20
159.6156623498306999
 30
0.0
 11
3479.0940061522478572
 21
159.610772806288594
 31
0.0
  0
LINE
  5
15023
  8
0
 10
3479.0940061522478572
 20
159.610772806288594
 30
0.0
 11
3479.1281840080491747
 21
159.610772806288594
 31
0.0
  0
LINE
  5
15024
  8
0
 10
3479.1281840080491747
 20
159.610772806288594
 30
0.0
 11
3479.1281840081001064
 21
159.6225098275851906
 31
0.0
  0
LINE
  5
15025
  8
0
 10
3479.1233607264939565
 20
159.6271921857625102
 30
0.0
 11
3479.1281840080309848
 21
159.6225098276231904
 31
0.0
  0
LINE
  5
15026
  8
0
 10
3479.1281840080309848
 20
159.6225098276231904
 30
0.0
 11
3479.1446757072089895
 21
159.6126434756642993
 31
0.0
  0
ARC
  5
15027
  8
0
 10
3478.890080936304912
 20
160.1540204857855088
 30
0.0
 40
0.5982537625957276
 50
288.7127808770221122
 51
295.1863157843519048
  0
ARC
  5
15028
  8
0
 10
3478.888864149526853
 20
160.1577448246326014
 30
0.0
 40
0.6021716044106893
 50
278.9725411173058092
 51
288.7087472979274025
  0
ARC
  5
15029
  8
0
 10
3478.888396331667991
 20
160.1604417478318965
 30
0.0
 40
0.6049084887045461
 50
269.9988587610691866
 51
278.9764698492796811
  0
LINE
  5
1502A
  8
0
 10
3479.1012525605478913
 20
159.610772806288594
 30
0.0
 11
3479.1012525605478913
 21
159.6183458444018868
 31
0.0
  0
LINE
  5
1502B
  8
0
 10
3479.1209375998478208
 20
159.610772806288594
 30
0.0
 11
3479.1209375998478208
 21
159.6261724748509039
 31
0.0
  0
LINE
  5
1502C
  8
0
 10
3479.1246913326849608
 20
159.6277574839122906
 30
0.0
 11
3479.1290914100791269
 21
159.623470321080589
 31
0.0
  0
LINE
  5
1502D
  8
0
 10
3479.1290914100791269
 20
159.623470321080589
 30
0.0
 11
3479.1451811228039332
 21
159.6138067303488128
 31
0.0
  0
LINE
  5
1502E
  8
0
 10
3479.1451811228039332
 20
159.6138067303488128
 30
0.0
 11
3479.1446757072121727
 21
159.6126434756631909
 31
0.0
  0
LINE
  5
1502F
  8
0
 10
3479.1290914100791269
 20
159.623470321080589
 30
0.0
 11
3479.1290914100791269
 21
159.6296547334671061
 31
0.0
  0
LINE
  5
15030
  8
0
 10
3479.1308983471922147
 20
159.6304449905024967
 30
0.0
 11
3479.1467587006768554
 21
159.6208293158788933
 31
0.0
  0
LINE
  5
15031
  8
0
 10
3479.1467587006768554
 20
159.6208293158788933
 30
0.0
 11
3479.148776449495017
 21
159.6217883453657862
 31
0.0
  0
LINE
  5
15032
  8
0
 10
3479.148776449495017
 20
159.6217883453657862
 30
0.0
 11
3479.1586189691702202
 21
159.6232016978244133
 31
0.0
  0
LINE
  5
15033
  8
0
 10
3479.1586189691702202
 20
159.6232016978244133
 30
0.0
 11
3479.1487764496218915
 21
159.6155149176238979
 31
0.0
  0
LINE
  5
15034
  8
0
 10
3479.1487764496218915
 20
159.6155149176238979
 30
0.0
 11
3479.1451811228771476
 21
159.6138067303832884
 31
0.0
  0
LINE
  5
15035
  8
0
 10
3479.1446757072139917
 20
159.6367131407722866
 30
0.0
 11
3479.1451811228212136
 21
159.6349161873548894
 31
0.0
  0
LINE
  5
15036
  8
0
 10
3479.1433209776491822
 20
159.6360779798247052
 30
0.0
 11
3479.1451811228212136
 21
159.6349161873548894
 31
0.0
  0
LINE
  5
15037
  8
0
 10
3479.1451811228212136
 20
159.6349161873548894
 30
0.0
 11
3479.1487764495718693
 21
159.6366243745951863
 31
0.0
  0
LINE
  5
15038
  8
0
 10
3479.1487764495718693
 20
159.6366243745951863
 30
0.0
 11
3479.158618969257077
 21
159.6362938696750859
 31
0.0
  0
LINE
  5
15039
  8
0
 10
3479.158618969257077
 20
159.6362938696750859
 30
0.0
 11
3479.1487764495568626
 21
159.6268632320849861
 31
0.0
  0
LINE
  5
1503A
  8
0
 10
3479.1487764495568626
 20
159.6268632320849861
 30
0.0
 11
3479.1467587006518443
 21
159.6259042025506858
 31
0.0
  0
LINE
  5
1503B
  8
0
 10
3479.1467587006518443
 20
159.6259042025506858
 30
0.0
 11
3479.1358108088911649
 21
159.6326315848556874
 31
0.0
  0
LINE
  5
1503C
  8
0
 10
3479.1467587269430624
 20
159.6259042150468872
 30
0.0
 11
3479.146758700646842
 21
159.6208293158649099
 31
0.0
  0
LINE
  5
1503D
  8
0
 10
3479.1470877401447979
 20
159.6234159079664039
 30
0.0
 11
3479.1569302598481954
 21
159.63246587698859
 31
0.0
  0
LINE
  5
1503E
  8
0
 10
3479.1569302598481954
 20
159.63246587698859
 30
0.0
 11
3479.1766152991490344
 21
159.6427007807413077
 31
0.0
  0
LINE
  5
1503F
  8
0
 10
3479.1766152991490344
 20
159.6427007807413077
 30
0.0
 11
3479.1864578187728512
 21
159.6438888600297048
 31
0.0
  0
LINE
  5
15040
  8
0
 10
3479.1864578187728512
 20
159.6438888600297048
 30
0.0
 11
3479.1766152991490344
 21
159.6346834954480016
 31
0.0
  0
LINE
  5
15041
  8
0
 10
3479.1766152991490344
 20
159.6346834954480016
 30
0.0
 11
3479.1569302598481954
 21
159.6244485918568046
 31
0.0
  0
LINE
  5
15042
  8
0
 10
3479.1569302598481954
 20
159.6244485918568046
 30
0.0
 11
3479.1470877401447979
 21
159.6234159079664039
 31
0.0
  0
LINE
  5
15043
  8
0
 10
3479.1470877401648067
 20
159.6131694566726935
 30
0.0
 11
3479.1569302598259128
 21
159.6204858070371984
 31
0.0
  0
LINE
  5
15044
  8
0
 10
3479.1569302598259128
 20
159.6204858070371984
 30
0.0
 11
3479.1766152991781382
 21
159.6307434942002033
 31
0.0
  0
LINE
  5
15045
  8
0
 10
3479.1766152991781382
 20
159.6307434942002033
 30
0.0
 11
3479.1864578188519772
 21
159.6337606781576994
 31
0.0
  0
LINE
  5
15046
  8
0
 10
3479.1864578188519772
 20
159.6337606781576994
 30
0.0
 11
3479.1766152991099261
 21
159.6263290479435
 31
0.0
  0
LINE
  5
15047
  8
0
 10
3479.1766152991099261
 20
159.6263290479435
 30
0.0
 11
3479.1569302597617934
 21
159.6159983620920002
 31
0.0
  0
LINE
  5
15048
  8
0
 10
3479.1569302597617934
 20
159.6159983620920002
 30
0.0
 11
3479.1470877401648067
 21
159.6131694566726935
 31
0.0
  0
LINE
  5
15049
  8
0
 10
3479.1586189691861364
 20
159.6158885522283981
 30
0.0
 11
3479.1487764500029698
 21
159.6126562647069136
 31
0.0
  0
LINE
  5
1504A
  8
0
 10
3479.1487764500029698
 20
159.6126562647069136
 30
0.0
 11
3479.137069888735823
 21
159.6071780236447069
 31
0.0
  0
LINE
  5
1504B
  8
0
 10
3479.137069888735823
 20
159.6071780236447069
 30
0.0
 11
3479.1321610635909565
 21
159.6033667553664941
 31
0.0
  0
LINE
  5
1504C
  8
0
 10
3479.1321610635909565
 20
159.6033667553664941
 30
0.0
 11
3479.1192488904298443
 21
159.5977218429385971
 31
0.0
  0
LINE
  5
1504D
  8
0
 10
3479.1192488904298443
 20
159.5977218429385971
 30
0.0
 11
3479.1290914100950431
 21
159.6008004768910098
 31
0.0
  0
LINE
  5
1504E
  8
0
 10
3479.1290914100950431
 20
159.6008004768910098
 30
0.0
 11
3479.1487764494740986
 21
159.6099295420841031
 31
0.0
  0
LINE
  5
1504F
  8
0
 10
3479.1487764494740986
 20
159.6099295420841031
 30
0.0
 11
3479.1586189691729487
 21
159.6158885522469006
 31
0.0
  0
LINE
  5
15050
  8
0
 10
3478.8965380932468179
 20
159.551594296888311
 30
0.0
 11
3478.9063806129479417
 21
159.5518920283886075
 31
0.0
  0
LINE
  5
15051
  8
0
 10
3478.9063806129479417
 20
159.5518920283886075
 30
0.0
 11
3478.9260656522487807
 21
159.5528041577885858
 31
0.0
  0
LINE
  5
15052
  8
0
 10
3478.9260656522487807
 20
159.5528041577885858
 30
0.0
 11
3478.9359081720149334
 21
159.5534196052198013
 31
0.0
  0
LINE
  5
15053
  8
0
 10
3478.9359081720149334
 20
159.5534196052198013
 30
0.0
 11
3478.9260656522487807
 21
159.5513321249885905
 31
0.0
  0
LINE
  5
15054
  8
0
 10
3478.9260656522487807
 20
159.5513321249885905
 30
0.0
 11
3478.9063806129429395
 21
159.5504156326167049
 31
0.0
  0
LINE
  5
15055
  8
0
 10
3478.9063806129429395
 20
159.5504156326167049
 30
0.0
 11
3478.8965380932468179
 21
159.551594296888311
 31
0.0
  0
LINE
  5
15056
  8
0
 10
3478.8785417632479948
 20
159.5506797551886109
 30
0.0
 11
3478.8982268026488782
 21
159.5506797551427098
 31
0.0
  0
LINE
  5
15057
  8
0
 10
3478.8982268026488782
 20
159.5506797551427098
 30
0.0
 11
3478.9080693221822003
 21
159.5498454959073911
 31
0.0
  0
LINE
  5
15058
  8
0
 10
3478.9080693221822003
 20
159.5498454959073911
 30
0.0
 11
3478.8982268026488782
 21
159.5490292248398987
 31
0.0
  0
LINE
  5
15059
  8
0
 10
3478.8982268026488782
 20
159.5490292248398987
 30
0.0
 11
3478.8785417632479948
 21
159.5490292248886135
 31
0.0
  0
LINE
  5
1505A
  8
0
 10
3478.9243769428999258
 20
159.5506072918142024
 30
0.0
 11
3478.9342194621021918
 21
159.5523530397537115
 31
0.0
  0
LINE
  5
1505B
  8
0
 10
3478.9342194621021918
 20
159.5523530397537115
 30
0.0
 11
3478.9539045019478181
 21
159.5541890339885924
 31
0.0
  0
LINE
  5
1505C
  8
0
 10
3478.9539045019478181
 20
159.5541890339885924
 30
0.0
 11
3478.9637470215948269
 21
159.5543001776333938
 31
0.0
  0
LINE
  5
1505D
  8
0
 10
3478.9637470215948269
 20
159.5543001776333938
 30
0.0
 11
3478.953904502091973
 21
159.5525786416044127
 31
0.0
  0
LINE
  5
1505E
  8
0
 10
3478.953904502091973
 20
159.5525786416044127
 30
0.0
 11
3478.9342194626001401
 21
159.5507215845780991
 31
0.0
  0
LINE
  5
1505F
  8
0
 10
3478.9342194626001401
 20
159.5507215845780991
 30
0.0
 11
3478.9243769429008353
 21
159.5506072917995084
 31
0.0
  0
LINE
  5
15060
  8
0
 10
3478.9522157925262036
 20
159.5549362076189084
 30
0.0
 11
3478.962058312247791
 21
159.554696350875588
 31
0.0
  0
LINE
  5
15061
  8
0
 10
3478.962058312247791
 20
159.554696350875588
 30
0.0
 11
3478.9817433516050187
 21
159.5574714228669109
 31
0.0
  0
LINE
  5
15062
  8
0
 10
3478.9817433516050187
 20
159.5574714228669109
 30
0.0
 11
3478.9915858712652152
 21
159.5604627211106958
 31
0.0
  0
LINE
  5
15063
  8
0
 10
3478.9915858712652152
 20
159.5604627211106958
 30
0.0
 11
3478.9817433516482197
 21
159.5589112046573064
 31
0.0
  0
LINE
  5
15064
  8
0
 10
3478.9817433516482197
 20
159.5589112046573064
 30
0.0
 11
3478.962058312247791
 21
159.5561520142886138
 31
0.0
  0
LINE
  5
15065
  8
0
 10
3478.962058312247791
 20
159.5561520142886138
 30
0.0
 11
3478.9522157923120176
 21
159.5549362076241096
 31
0.0
  0
LINE
  5
15066
  8
0
 10
3478.9800546422529806
 20
159.55660698320699
 30
0.0
 11
3478.9898971618490577
 21
159.559255511664901
 31
0.0
  0
LINE
  5
15067
  8
0
 10
3478.9898971618490577
 20
159.559255511664901
 30
0.0
 11
3479.0095822012199278
 21
159.5629793097556899
 31
0.0
  0
LINE
  5
15068
  8
0
 10
3479.0095822012199278
 20
159.5629793097556899
 30
0.0
 11
3479.0194247208942215
 21
159.5640982773597898
 31
0.0
  0
LINE
  5
15069
  8
0
 10
3479.0194247208942215
 20
159.5640982773597898
 30
0.0
 11
3479.009582201277226
 21
159.5614717278050989
 31
0.0
  0
LINE
  5
1506A
  8
0
 10
3479.009582201277226
 20
159.5614717278050989
 30
0.0
 11
3478.9898971618490577
 21
159.5577039739885947
 31
0.0
  0
LINE
  5
1506B
  8
0
 10
3478.9898971618490577
 20
159.5577039739885947
 30
0.0
 11
3478.9800546421811305
 21
159.5566069832725873
 31
0.0
  0
LINE
  5
1506C
  8
0
 10
3479.0078934918738014
 20
159.5635384669909058
 30
0.0
 11
3479.0177360115239935
 21
159.5642952970302133
 31
0.0
  0
LINE
  5
1506D
  8
0
 10
3479.0177360115239935
 20
159.5642952970302133
 30
0.0
 11
3479.0374210509489785
 21
159.5690094359885904
 31
0.0
  0
LINE
  5
1506E
  8
0
 10
3479.0374210509489785
 20
159.5690094359885904
 30
0.0
 11
3479.0472635705978064
 21
159.5729252188031069
 31
0.0
  0
LINE
  5
1506F
  8
0
 10
3479.0472635705978064
 20
159.5729252188031069
 30
0.0
 11
3479.0374210509489785
 21
159.570393773488604
 31
0.0
  0
LINE
  5
15070
  8
0
 10
3479.0374210509489785
 20
159.570393773488604
 30
0.0
 11
3479.0177360115480951
 21
159.5657033588884985
 31
0.0
  0
LINE
  5
15071
  8
0
 10
3479.0177360115480951
 20
159.5657033588884985
 30
0.0
 11
3479.0078934918678897
 21
159.5635384669321866
 31
0.0
  0
LINE
  5
15072
  8
0
 10
3479.0357323414777966
 20
159.5680174655005885
 30
0.0
 11
3479.0457556440987901
 21
159.5702320816386077
 31
0.0
  0
LINE
  5
15073
  8
0
 10
3479.0457556440987901
 20
159.5702320816386077
 30
0.0
 11
3479.0652599005479715
 21
159.5759757770481997
 31
0.0
  0
LINE
  5
15074
  8
0
 10
3479.0652599005479715
 20
159.5759757770481997
 30
0.0
 11
3479.0751024202518238
 21
159.5795340195084862
 31
0.0
  0
LINE
  5
15075
  8
0
 10
3479.0751024202518238
 20
159.5795340195084862
 30
0.0
 11
3479.0652599005838965
 21
159.5773084573935989
 31
0.0
  0
LINE
  5
15076
  8
0
 10
3479.0652599005838965
 20
159.5773084573935989
 30
0.0
 11
3479.0455748612098432
 21
159.571585586105499
 31
0.0
  0
LINE
  5
15077
  8
0
 10
3479.0455748612098432
 20
159.571585586105499
 30
0.0
 11
3479.0357323415209976
 21
159.5680174654829955
 31
0.0
  0
LINE
  5
15078
  8
0
 10
3479.0635711911809267
 20
159.5776514316004864
 30
0.0
 11
3479.0734137108938739
 21
159.5794979826760027
 31
0.0
  0
LINE
  5
15079
  8
0
 10
3479.0734137108938739
 20
159.5794979826760027
 30
0.0
 11
3479.0930987502488279
 21
159.5862989968996999
 31
0.0
  0
LINE
  5
1507A
  8
0
 10
3479.0930987502488279
 20
159.5862989968996999
 30
0.0
 11
3479.1029412699249406
 21
159.5911902884303117
 31
0.0
  0
LINE
  5
1507B
  8
0
 10
3479.1029412699249406
 20
159.5911902884303117
 30
0.0
 11
3479.0930987502488279
 21
159.5875890418693928
 31
0.0
  0
LINE
  5
1507C
  8
0
 10
3479.0930987502488279
 20
159.5875890418693928
 30
0.0
 11
3479.073413710848854
 21
159.5808272180885865
 31
0.0
  0
LINE
  5
1507D
  8
0
 10
3479.073413710848854
 20
159.5808272180885865
 30
0.0
 11
3479.0635711911809267
 21
159.5776514316004864
 31
0.0
  0
LINE
  5
1507E
  8
0
 10
3479.0914100407189835
 20
159.5851893978853013
 30
0.0
 11
3479.1012525598061984
 21
159.5897237275042073
 31
0.0
  0
LINE
  5
1507F
  8
0
 10
3479.1012525598061984
 20
159.5897237275042073
 30
0.0
 11
3479.1209375998478208
 21
159.5976345236715019
 31
0.0
  0
LINE
  5
15080
  8
0
 10
3479.1209375998478208
 20
159.5976345236715019
 30
0.0
 11
3479.1307801195348475
 21
159.6011169413883124
 31
0.0
  0
LINE
  5
15081
  8
0
 10
3479.1307801195348475
 20
159.6011169413883124
 30
0.0
 11
3479.1209375998478208
 21
159.5965697932755916
 31
0.0
  0
LINE
  5
15082
  8
0
 10
3479.1209375998478208
 20
159.5965697932755916
 30
0.0
 11
3479.1012525605237897
 21
159.5885504199472109
 31
0.0
  0
LINE
  5
15083
  8
0
 10
3479.1012525605237897
 20
159.5885504199472109
 30
0.0
 11
3479.0914100407189835
 21
159.5851893978853013
 31
0.0
  0
LINE
  5
15084
  8
0
 10
3478.8965380932431799
 20
159.6786037684335042
 30
0.0
 11
3478.90638061289701
 21
159.6909414038833006
 31
0.0
  0
LINE
  5
15085
  8
0
 10
3478.90638061289701
 20
159.6909414038833006
 30
0.0
 11
3478.9260656522487807
 21
159.6919547770552015
 31
0.0
  0
LINE
  5
15086
  8
0
 10
3478.9260656522487807
 20
159.6919547770552015
 30
0.0
 11
3478.935908172028121
 21
159.6805998912234088
 31
0.0
  0
LINE
  5
15087
  8
0
 10
3478.935908172028121
 20
159.6805998912234088
 30
0.0
 11
3478.9260656523601938
 21
159.6683625351597868
 31
0.0
  0
LINE
  5
15088
  8
0
 10
3478.9260656523601938
 20
159.6683625351597868
 30
0.0
 11
3478.9063806129879595
 21
159.6673791144471863
 31
0.0
  0
LINE
  5
15089
  8
0
 10
3478.9063806129879595
 20
159.6673791144471863
 30
0.0
 11
3478.8965380932399967
 21
159.6786037684366022
 31
0.0
  0
LINE
  5
1508A
  8
0
 10
3478.90638061289701
 20
159.6909414038833006
 30
0.0
 11
3478.9063806129879595
 21
159.6673791144471863
 31
0.0
  0
LINE
  5
1508B
  8
0
 10
3478.9260656523601938
 20
159.6683625351597868
 30
0.0
 11
3478.9260656522487807
 21
159.6919547770552015
 31
0.0
  0
LINE
  5
1508C
  8
0
 10
3478.9243769429131135
 20
159.6613113125208088
 30
0.0
 11
3478.9342194626301534
 21
159.6731148692238094
 31
0.0
  0
LINE
  5
1508D
  8
0
 10
3478.9342194626301534
 20
159.6731148692238094
 30
0.0
 11
3478.9539045020278536
 21
159.6750996770132929
 31
0.0
  0
LINE
  5
1508E
  8
0
 10
3478.9539045020278536
 20
159.6750996770132929
 30
0.0
 11
3478.9637470216380279
 21
159.6652296409068867
 31
0.0
  0
LINE
  5
1508F
  8
0
 10
3478.9637470216380279
 20
159.6652296409068867
 30
0.0
 11
3478.9538484946551762
 21
159.6534761534846893
 31
0.0
  0
LINE
  5
15090
  8
0
 10
3478.9538484946551762
 20
159.6534761534846893
 30
0.0
 11
3478.9342194625478442
 21
159.6515481689615115
 31
0.0
  0
LINE
  5
15091
  8
0
 10
3478.9342194625478442
 20
159.6515481689615115
 30
0.0
 11
3478.9243769429108397
 21
159.661311312523992
 31
0.0
  0
LINE
  5
15092
  8
0
 10
3478.9342194626301534
 20
159.6731148692238094
 30
0.0
 11
3478.9342194625478442
 21
159.6515481689615115
 31
0.0
  0
LINE
  5
15093
  8
0
 10
3478.9538484946551762
 20
159.6534761534846893
 30
0.0
 11
3478.9539045020278536
 21
159.6750996770132929
 31
0.0
  0
LINE
  5
15094
  8
0
 10
3478.8965380932390872
 20
159.6433584753303876
 30
0.0
 11
3478.9063806129001932
 21
159.6537560209114872
 31
0.0
  0
LINE
  5
15095
  8
0
 10
3478.9063806129001932
 20
159.6537560209114872
 30
0.0
 11
3478.926065652410216
 21
159.6547237139446054
 31
0.0
  0
LINE
  5
15096
  8
0
 10
3478.926065652410216
 20
159.6547237139446054
 30
0.0
 11
3478.9359081720240283
 21
159.6453545981202069
 31
0.0
  0
LINE
  5
15097
  8
0
 10
3478.9359081720240283
 20
159.6453545981202069
 30
0.0
 11
3478.9259380824692016
 21
159.6350810958873865
 31
0.0
  0
LINE
  5
15098
  8
0
 10
3478.9259380824692016
 20
159.6350810958873865
 30
0.0
 11
3478.9063806129479417
 21
159.6341422523886138
 31
0.0
  0
LINE
  5
15099
  8
0
 10
3478.9063806129479417
 20
159.6341422523886138
 30
0.0
 11
3478.8965380932359039
 21
159.643358475333514
 31
0.0
  0
LINE
  5
1509A
  8
0
 10
3478.9063806129001932
 20
159.6537560209114872
 30
0.0
 11
3478.9063806129479417
 21
159.6341422523886138
 31
0.0
  0
LINE
  5
1509B
  8
0
 10
3478.9259380824692016
 20
159.6350810958873865
 30
0.0
 11
3478.926065652410216
 21
159.6547237139446054
 31
0.0
  0
LINE
  5
1509C
  8
0
 10
3478.8965380931640539
 20
159.6142305077881076
 30
0.0
 11
3478.9064345253250394
 21
159.6228788783460004
 31
0.0
  0
LINE
  5
1509D
  8
0
 10
3478.9064345253250394
 20
159.6228788783460004
 30
0.0
 11
3478.9260540742179728
 21
159.6238130024555062
 31
0.0
  0
LINE
  5
1509E
  8
0
 10
3478.9260540742179728
 20
159.6238130024555062
 30
0.0
 11
3478.9359081719480855
 21
159.6162266305780122
 31
0.0
  0
LINE
  5
1509F
  8
0
 10
3478.9359081719480855
 20
159.6162266305780122
 30
0.0
 11
3478.9259496252020654
 21
159.6077304355748083
 31
0.0
  0
LINE
  5
150A0
  8
0
 10
3478.9259496252020654
 20
159.6077304355748083
 30
0.0
 11
3478.906380612895191
 21
159.6068147106271056
 31
0.0
  0
LINE
  5
150A1
  8
0
 10
3478.906380612895191
 20
159.6068147106271056
 30
0.0
 11
3478.8965380931608706
 21
159.6142305077912056
 31
0.0
  0
LINE
  5
150A2
  8
0
 10
3478.9064345253250394
 20
159.6228788783460004
 30
0.0
 11
3478.906380612895191
 21
159.6068147106271056
 31
0.0
  0
LINE
  5
150A3
  8
0
 10
3478.9259496252020654
 20
159.6077304355748083
 30
0.0
 11
3478.9260540742179728
 21
159.6238130024555062
 31
0.0
  0
LINE
  5
150A4
  8
0
 10
3478.9243769428207997
 20
159.6292357144012044
 30
0.0
 11
3478.9342194625851334
 21
159.639113998265799
 31
0.0
  0
LINE
  5
150A5
  8
0
 10
3478.9342194625851334
 20
159.639113998265799
 30
0.0
 11
3478.9538956327378401
 21
159.6410211718433061
 31
0.0
  0
LINE
  5
150A6
  8
0
 10
3478.9538956327378401
 20
159.6410211718433061
 30
0.0
 11
3478.9637470216412112
 21
159.6330177075844006
 31
0.0
  0
LINE
  5
150A7
  8
0
 10
3478.9637470216412112
 20
159.6330177075844006
 30
0.0
 11
3478.9537795521628141
 21
159.6231476323509924
 31
0.0
  0
LINE
  5
150A8
  8
0
 10
3478.9537795521628141
 20
159.6231476323509924
 30
0.0
 11
3478.9342597807672064
 21
159.6212905519601009
 31
0.0
  0
LINE
  5
150A9
  8
0
 10
3478.9342597807672064
 20
159.6212905519601009
 30
0.0
 11
3478.9243769428180713
 21
159.6292357144043024
 31
0.0
  0
LINE
  5
150AA
  8
0
 10
3478.9342194625851334
 20
159.639113998265799
 30
0.0
 11
3478.9342597807672064
 21
159.6212905519601009
 31
0.0
  0
LINE
  5
150AB
  8
0
 10
3478.9537795521628141
 20
159.6231476323509924
 30
0.0
 11
3478.9538956327378401
 21
159.6410211718433061
 31
0.0
  0
LINE
  5
150AC
  8
0
 10
3478.9522157925798638
 20
159.646945786425789
 30
0.0
 11
3478.962058312247791
 21
159.6582774430391112
 31
0.0
  0
LINE
  5
150AD
  8
0
 10
3478.962058312247791
 20
159.6582774430391112
 30
0.0
 11
3478.9817433516091114
 21
159.6612107005572057
 31
0.0
  0
LINE
  5
150AE
  8
0
 10
3478.9817433516091114
 20
159.6612107005572057
 30
0.0
 11
3478.9915858712838599
 21
159.6527477751182005
 31
0.0
  0
LINE
  5
150AF
  8
0
 10
3478.9915858712838599
 20
159.6527477751182005
 30
0.0
 11
3478.9817433516482197
 21
159.6414367533687084
 31
0.0
  0
LINE
  5
150B0
  8
0
 10
3478.9817433516482197
 20
159.6414367533687084
 30
0.0
 11
3478.962058312247791
 21
159.6385670422737917
 31
0.0
  0
LINE
  5
150B1
  8
0
 10
3478.962058312247791
 20
159.6385670422737917
 30
0.0
 11
3478.9522157925780448
 21
159.646945786428887
 31
0.0
  0
LINE
  5
150B2
  8
0
 10
3478.962058312247791
 20
159.6582774430391112
 30
0.0
 11
3478.962058312247791
 21
159.6385670422737917
 31
0.0
  0
LINE
  5
150B3
  8
0
 10
3478.9817433516482197
 20
159.6414367533687084
 30
0.0
 11
3478.9817433516091114
 21
159.6612107005572057
 31
0.0
  0
LINE
  5
150B4
  8
0
 10
3478.9800546422088701
 20
159.667678933217303
 30
0.0
 11
3478.9898971618490577
 21
159.6805825345886092
 31
0.0
  0
LINE
  5
150B5
  8
0
 10
3478.9898971618490577
 20
159.6805825345886092
 30
0.0
 11
3479.0095822012599456
 21
159.6846178456864038
 31
0.0
  0
LINE
  5
150B6
  8
0
 10
3479.0095822012599456
 20
159.6846178456864038
 30
0.0
 11
3479.0194247209838068
 21
159.6756420047609026
 31
0.0
  0
LINE
  5
150B7
  8
0
 10
3479.0194247209838068
 20
159.6756420047609026
 30
0.0
 11
3479.0095822012490316
 21
159.662754191829805
 31
0.0
  0
LINE
  5
150B8
  8
0
 10
3479.0095822012490316
 20
159.662754191829805
 30
0.0
 11
3478.9898971619090844
 21
159.658824505472694
 31
0.0
  0
LINE
  5
150B9
  8
0
 10
3478.9898971619090844
 20
159.658824505472694
 30
0.0
 11
3478.9800546422070511
 21
159.6676789332204009
 31
0.0
  0
LINE
  5
150BA
  8
0
 10
3478.9898971618490577
 20
159.6805825345886092
 30
0.0
 11
3478.9898971619090844
 21
159.658824505472694
 31
0.0
  0
LINE
  5
150BB
  8
0
 10
3479.0095822012490316
 20
159.662754191829805
 30
0.0
 11
3479.0095822012599456
 21
159.6846178456864038
 31
0.0
  0
LINE
  5
150BC
  8
0
 10
3478.9522157924839121
 20
159.6177717893226884
 30
0.0
 11
3478.962058312247791
 21
159.6273035870989077
 31
0.0
  0
LINE
  5
150BD
  8
0
 10
3478.962058312247791
 20
159.6273035870989077
 30
0.0
 11
3478.9817433516700476
 21
159.6300890218329016
 31
0.0
  0
LINE
  5
150BE
  8
0
 10
3478.9817433516700476
 20
159.6300890218329016
 30
0.0
 11
3478.9915858713020498
 21
159.6234037099426928
 31
0.0
  0
LINE
  5
150BF
  8
0
 10
3478.9915858713020498
 20
159.6234037099426928
 30
0.0
 11
3478.9817433516309393
 21
159.6139218113414984
 31
0.0
  0
LINE
  5
150C0
  8
0
 10
3478.9817433516309393
 20
159.6139218113414984
 30
0.0
 11
3478.9620583121932214
 21
159.6111264030143957
 31
0.0
  0
LINE
  5
150C1
  8
0
 10
3478.9620583121932214
 20
159.6111264030143957
 30
0.0
 11
3478.9522157924820931
 21
159.6177717893257864
 31
0.0
  0
LINE
  5
150C2
  8
0
 10
3478.962058312247791
 20
159.6273035870989077
 30
0.0
 11
3478.9620583121932214
 21
159.6111264030143957
 31
0.0
  0
LINE
  5
150C3
  8
0
 10
3478.9817433516309393
 20
159.6139218113414984
 30
0.0
 11
3478.9817433516700476
 21
159.6300890218329016
 31
0.0
  0
LINE
  5
150C4
  8
0
 10
3478.9243769428499036
 20
159.6029759792617142
 30
0.0
 11
3478.9342194625328375
 21
159.6111075572646882
 31
0.0
  0
LINE
  5
150C5
  8
0
 10
3478.9342194625328375
 20
159.6111075572646882
 30
0.0
 11
3478.953904501992838
 21
159.6129646141561125
 31
0.0
  0
LINE
  5
150C6
  8
0
 10
3478.953904501992838
 20
159.6129646141561125
 30
0.0
 11
3478.963747021627114
 21
159.6066688651931997
 31
0.0
  0
LINE
  5
150C7
  8
0
 10
3478.963747021627114
 20
159.6066688651931997
 30
0.0
 11
3478.9539045019578225
 21
159.5985404362697864
 31
0.0
  0
LINE
  5
150C8
  8
0
 10
3478.9539045019578225
 20
159.5985404362697864
 30
0.0
 11
3478.934219462620149
 21
159.5967044420995933
 31
0.0
  0
LINE
  5
150C9
  8
0
 10
3478.934219462620149
 20
159.5967044420995933
 30
0.0
 11
3478.9243769428480846
 21
159.6029759792648122
 31
0.0
  0
LINE
  5
150CA
  8
0
 10
3478.9342194625328375
 20
159.6111075572646882
 30
0.0
 11
3478.934219462620149
 21
159.5967044420995933
 31
0.0
  0
LINE
  5
150CB
  8
0
 10
3478.9539045019578225
 20
159.5985404362697864
 30
0.0
 11
3478.953904501992838
 21
159.6129646141561125
 31
0.0
  0
LINE
  5
150CC
  8
0
 10
3478.9800546421452054
 20
159.6089756707063998
 30
0.0
 11
3478.9898971619318218
 21
159.6180899466662879
 31
0.0
  0
LINE
  5
150CD
  8
0
 10
3478.9898971619318218
 20
159.6180899466662879
 30
0.0
 11
3479.0095766009108047
 21
159.6218565298723036
 31
0.0
  0
LINE
  5
150CE
  8
0
 10
3479.0095766009108047
 20
159.6218565298723036
 30
0.0
 11
3479.0194247208869456
 21
159.6164669647594962
 31
0.0
  0
LINE
  5
150CF
  8
0
 10
3479.0194247208869456
 20
159.6164669647594962
 30
0.0
 11
3479.0095137578127833
 21
159.6073165771568938
 31
0.0
  0
LINE
  5
150D0
  8
0
 10
3479.0095137578127833
 20
159.6073165771568938
 30
0.0
 11
3478.9898971619609256
 21
159.6036069140048994
 31
0.0
  0
LINE
  5
150D1
  8
0
 10
3478.9898971619609256
 20
159.6036069140048994
 30
0.0
 11
3478.9800546421429317
 21
159.6089756707094978
 31
0.0
  0
LINE
  5
150D2
  8
0
 10
3478.9898971619318218
 20
159.6180899466662879
 30
0.0
 11
3478.9898971619609256
 21
159.6036069140048994
 31
0.0
  0
LINE
  5
150D3
  8
0
 10
3479.0095137578127833
 20
159.6073165771568938
 30
0.0
 11
3479.0095766009108047
 21
159.6218565298723036
 31
0.0
  0
LINE
  5
150D4
  8
0
 10
3479.0078934919588391
 20
159.6265390532699939
 30
0.0
 11
3479.0177360115480951
 21
159.637067708488587
 31
0.0
  0
LINE
  5
150D5
  8
0
 10
3479.0177360115480951
 20
159.637067708488587
 30
0.0
 11
3479.0374210509171462
 21
159.6418911324684018
 31
0.0
  0
LINE
  5
150D6
  8
0
 10
3479.0374210509171462
 20
159.6418911324684018
 30
0.0
 11
3479.0472635705527864
 21
159.6361119581590913
 31
0.0
  0
LINE
  5
150D7
  8
0
 10
3479.0472635705527864
 20
159.6361119581590913
 30
0.0
 11
3479.0374210508980468
 21
159.6255466157234082
 31
0.0
  0
LINE
  5
150D8
  8
0
 10
3479.0374210508980468
 20
159.6255466157234082
 30
0.0
 11
3479.0177360115480951
 21
159.6207965722963138
 31
0.0
  0
LINE
  5
150D9
  8
0
 10
3479.0177360115480951
 20
159.6207965722963138
 30
0.0
 11
3479.0078934919570202
 21
159.6265390532732056
 31
0.0
  0
LINE
  5
150DA
  8
0
 10
3479.0177360115480951
 20
159.637067708488587
 30
0.0
 11
3479.0177360115480951
 21
159.6207965722963138
 31
0.0
  0
LINE
  5
150DB
  8
0
 10
3479.0374210508980468
 20
159.6255466157234082
 30
0.0
 11
3479.0374210509171462
 21
159.6418911324684018
 31
0.0
  0
LINE
  5
150DC
  8
0
 10
3478.9800546422129628
 20
159.6353807973621031
 30
0.0
 11
3478.989897161888166
 21
159.6462904950772952
 31
0.0
  0
LINE
  5
150DD
  8
0
 10
3478.989897161888166
 20
159.6462904950772952
 30
0.0
 11
3479.0095822013249744
 21
159.6501651346258939
 31
0.0
  0
LINE
  5
150DE
  8
0
 10
3479.0095822013249744
 20
159.6501651346258939
 30
0.0
 11
3479.0194247209151399
 21
159.6430582570152126
 31
0.0
  0
LINE
  5
150DF
  8
0
 10
3479.0194247209151399
 20
159.6430582570152126
 30
0.0
 11
3479.0095822012490316
 21
159.6321386832337907
 31
0.0
  0
LINE
  5
150E0
  8
0
 10
3479.0095822012490316
 20
159.6321386832337907
 30
0.0
 11
3478.9898971618490577
 21
159.628335024688397
 31
0.0
  0
LINE
  5
150E1
  8
0
 10
3478.9898971618490577
 20
159.628335024688397
 30
0.0
 11
3478.9800546422097796
 21
159.635380797365201
 31
0.0
  0
LINE
  5
150E2
  8
0
 10
3478.989897161888166
 20
159.6462904950772952
 30
0.0
 11
3478.9898971618490577
 21
159.628335024688397
 31
0.0
  0
LINE
  5
150E3
  8
0
 10
3479.0095822012490316
 20
159.6321386832337907
 30
0.0
 11
3479.0095822013249744
 21
159.6501651346258939
 31
0.0
  0
LINE
  5
150E4
  8
0
 10
3479.0078934919079074
 20
159.6559793889053935
 30
0.0
 11
3479.0177360115371812
 21
159.6684309245173097
 31
0.0
  0
LINE
  5
150E5
  8
0
 10
3479.0177360115371812
 20
159.6684309245173097
 30
0.0
 11
3479.0374210509489785
 21
159.6734251767886121
 31
0.0
  0
LINE
  5
150E6
  8
0
 10
3479.0374210509489785
 20
159.6734251767886121
 30
0.0
 11
3479.0472635705959874
 21
159.6658535318337897
 31
0.0
  0
LINE
  5
150E7
  8
0
 10
3479.0472635705959874
 20
159.6658535318337897
 30
0.0
 11
3479.0374210509739896
 21
159.6533791024720017
 31
0.0
  0
LINE
  5
150E8
  8
0
 10
3479.0374210509739896
 20
159.6533791024720017
 30
0.0
 11
3479.0177360115480951
 21
159.6484976088885901
 31
0.0
  0
LINE
  5
150E9
  8
0
 10
3479.0177360115480951
 20
159.6484976088885901
 30
0.0
 11
3479.0078934919060885
 21
159.6559793889086052
 31
0.0
  0
LINE
  5
150EA
  8
0
 10
3479.0177360115371812
 20
159.6684309245173097
 30
0.0
 11
3479.0177360115480951
 21
159.6484976088885901
 31
0.0
  0
LINE
  5
150EB
  8
0
 10
3479.0374210509739896
 20
159.6533791024720017
 30
0.0
 11
3479.0374210509489785
 21
159.6734251767886121
 31
0.0
  0
LINE
  5
150EC
  8
0
 10
3479.0357323414400526
 20
159.6470769571160986
 30
0.0
 11
3479.0455748611279887
 21
159.6591284054159132
 31
0.0
  0
LINE
  5
150ED
  8
0
 10
3479.0455748611279887
 20
159.6591284054159132
 30
0.0
 11
3479.0652599005479715
 21
159.6650953738528926
 31
0.0
  0
LINE
  5
150EE
  8
0
 10
3479.0652599005479715
 20
159.6650953738528926
 30
0.0
 11
3479.0751024201949804
 21
159.6588947216586973
 31
0.0
  0
LINE
  5
150EF
  8
0
 10
3479.0751024201949804
 20
159.6588947216586973
 30
0.0
 11
3479.0652599005479715
 21
159.646785755046011
 31
0.0
  0
LINE
  5
150F0
  8
0
 10
3479.0652599005479715
 20
159.646785755046011
 30
0.0
 11
3479.0455748611771014
 21
159.6409338389080119
 31
0.0
  0
LINE
  5
150F1
  8
0
 10
3479.0455748611771014
 20
159.6409338389080119
 30
0.0
 11
3479.0357323414377788
 21
159.6470769571191965
 31
0.0
  0
LINE
  5
150F2
  8
0
 10
3479.0455748611279887
 20
159.6591284054159132
 30
0.0
 11
3479.0455748611771014
 21
159.6409338389080119
 31
0.0
  0
LINE
  5
150F3
  8
0
 10
3479.0652599005479715
 20
159.646785755046011
 30
0.0
 11
3479.0652599005479715
 21
159.6650953738528926
 31
0.0
  0
LINE
  5
150F4
  8
0
 10
3479.0357323414459643
 20
159.6203861530115944
 30
0.0
 11
3479.0455748611479976
 21
159.6305679028886004
 31
0.0
  0
LINE
  5
150F5
  8
0
 10
3479.0455748611479976
 20
159.6305679028886004
 30
0.0
 11
3479.0652599005479715
 21
159.6363617496706979
 31
0.0
  0
LINE
  5
150F6
  8
0
 10
3479.0652599005479715
 20
159.6363617496706979
 30
0.0
 11
3479.0751024201908876
 21
159.6319027069920082
 31
0.0
  0
LINE
  5
150F7
  8
0
 10
3479.0751024201908876
 20
159.6319027069920082
 30
0.0
 11
3479.0652599005479715
 21
159.6216598596886058
 31
0.0
  0
LINE
  5
150F8
  8
0
 10
3479.0652599005479715
 20
159.6216598596886058
 30
0.0
 11
3479.0455748610829687
 21
159.6159369883604882
 31
0.0
  0
LINE
  5
150F9
  8
0
 10
3479.0455748610829687
 20
159.6159369883604882
 30
0.0
 11
3479.0357323414441453
 21
159.6203861530146924
 31
0.0
  0
LINE
  5
150FA
  8
0
 10
3479.0455748611479976
 20
159.6305679028886004
 30
0.0
 11
3479.0455748610829687
 21
159.6159369883604882
 31
0.0
  0
LINE
  5
150FB
  8
0
 10
3479.0652599005479715
 20
159.6216598596886058
 30
0.0
 11
3479.0652599005479715
 21
159.6363617496706979
 31
0.0
  0
LINE
  5
150FC
  8
0
 10
3479.0635711911049839
 20
159.6409344134748096
 30
0.0
 11
3479.073413710848854
 21
159.6526299716801134
 31
0.0
  0
LINE
  5
150FD
  8
0
 10
3479.073413710848854
 20
159.6526299716801134
 30
0.0
 11
3479.0930987502488279
 21
159.6595987782407065
 31
0.0
  0
LINE
  5
150FE
  8
0
 10
3479.0930987502488279
 20
159.6595987782407065
 30
0.0
 11
3479.1029412698721899
 21
159.6547588020667092
 31
0.0
  0
LINE
  5
150FF
  8
0
 10
3479.1029412698721899
 20
159.6547588020667092
 30
0.0
 11
3479.0930987502879361
 21
159.6429733985158066
 31
0.0
  0
LINE
  5
15100
  8
0
 10
3479.0930987502879361
 20
159.6429733985158066
 30
0.0
 11
3479.073413710848854
 21
159.6361173383886012
 31
0.0
  0
LINE
  5
15101
  8
0
 10
3479.073413710848854
 20
159.6361173383886012
 30
0.0
 11
3479.0635711911018007
 21
159.6409344134779076
 31
0.0
  0
LINE
  5
15102
  8
0
 10
3479.073413710848854
 20
159.6526299716801134
 30
0.0
 11
3479.073413710848854
 21
159.6361173383886012
 31
0.0
  0
LINE
  5
15103
  8
0
 10
3479.0930987502879361
 20
159.6429733985158066
 30
0.0
 11
3479.0930987502488279
 21
159.6595987782407065
 31
0.0
  0
LINE
  5
15104
  8
0
 10
3479.0914100408667764
 20
159.63755808528839
 30
0.0
 11
3479.1012525605478913
 21
159.6489363925886096
 31
0.0
  0
LINE
  5
15105
  8
0
 10
3479.1012525605478913
 20
159.6489363925886096
 30
0.0
 11
3479.1209326377411344
 21
159.6569506635738946
 31
0.0
  0
LINE
  5
15106
  8
0
 10
3479.1209326377411344
 20
159.6569506635738946
 30
0.0
 11
3479.1307801195598586
 21
159.6534856289324864
 31
0.0
  0
LINE
  5
15107
  8
0
 10
3479.1307801195598586
 20
159.6534856289324864
 30
0.0
 11
3479.1209375999192162
 21
159.6419859260277008
 31
0.0
  0
LINE
  5
15108
  8
0
 10
3479.1209375999192162
 20
159.6419859260277008
 30
0.0
 11
3479.1012525605478913
 21
159.6340751300886041
 31
0.0
  0
LINE
  5
15109
  8
0
 10
3479.1012525605478913
 20
159.6340751300886041
 30
0.0
 11
3479.0914100408649574
 21
159.6375580852916016
 31
0.0
  0
LINE
  5
1510A
  8
0
 10
3479.1012525605478913
 20
159.6489363925886096
 30
0.0
 11
3479.1012525605478913
 21
159.6340751300886041
 31
0.0
  0
LINE
  5
1510B
  8
0
 10
3479.1209375999192162
 20
159.6419859260277008
 30
0.0
 11
3479.1209326377411344
 21
159.6569506635738946
 31
0.0
  0
LINE
  5
1510C
  8
0
 10
3478.8965380932149856
 20
159.5908708125093938
 30
0.0
 11
3478.9063806129020122
 21
159.5977094334118931
 31
0.0
  0
LINE
  5
1510D
  8
0
 10
3478.9063806129020122
 20
159.5977094334118931
 30
0.0
 11
3478.9260656522851605
 21
159.5986259257095981
 31
0.0
  0
LINE
  5
1510E
  8
0
 10
3478.9260656522851605
 20
159.5986259257095981
 30
0.0
 11
3478.9359081719808273
 21
159.5926961209121941
 31
0.0
  0
LINE
  5
1510F
  8
0
 10
3478.9359081719808273
 20
159.5926961209121941
 30
0.0
 11
3478.8965380932481821
 21
159.5908708124885891
 31
0.0
  0
LINE
  5
15110
  8
0
 10
3478.9522157925480315
 20
159.5942127232885923
 30
0.0
 11
3478.962058312301906
 21
159.6019901516523873
 31
0.0
  0
LINE
  5
15111
  8
0
 10
3478.962058312301906
 20
159.6019901516523873
 30
0.0
 11
3478.9817433515781886
 21
159.6047652236628096
 31
0.0
  0
LINE
  5
15112
  8
0
 10
3478.9817433515781886
 20
159.6047652236628096
 30
0.0
 11
3478.9915858712611225
 21
159.5997392366824954
 31
0.0
  0
LINE
  5
15113
  8
0
 10
3478.9915858712611225
 20
159.5997392366824954
 30
0.0
 11
3478.9522157925480315
 21
159.5942127232885923
 31
0.0
  0
LINE
  5
15114
  8
0
 10
3479.0078934917978586
 20
159.6028149825453966
 30
0.0
 11
3479.0177360114939802
 21
159.6115890978012999
 31
0.0
  0
LINE
  5
15115
  8
0
 10
3479.0177360114939802
 20
159.6115890978012999
 30
0.0
 11
3479.0374210509407931
 21
159.616303236642608
 31
0.0
  0
LINE
  5
15116
  8
0
 10
3479.0374210509407931
 20
159.616303236642608
 30
0.0
 11
3479.0472635706269102
 21
159.6122017343205925
 31
0.0
  0
LINE
  5
15117
  8
0
 10
3479.0472635706269102
 20
159.6122017343205925
 30
0.0
 11
3479.0078934917978586
 21
159.6028149825453966
 31
0.0
  0
LINE
  5
15118
  8
0
 10
3479.0635711910931605
 20
159.6169279471556024
 30
0.0
 11
3479.0734137107770039
 21
159.6267917834362891
 31
0.0
  0
LINE
  5
15119
  8
0
 10
3479.0734137107770039
 20
159.6267917834362891
 30
0.0
 11
3479.0930987501628806
 21
159.6335927976554103
 31
0.0
  0
LINE
  5
1511A
  8
0
 10
3479.0930987501628806
 20
159.6335927976554103
 30
0.0
 11
3479.102941269933126
 21
159.630466804072995
 31
0.0
  0
LINE
  5
1511B
  8
0
 10
3479.102941269933126
 20
159.630466804072995
 30
0.0
 11
3479.0635711911590988
 21
159.6169279471722859
 31
0.0
  0
LINE
  5
1511C
  8
0
 10
3479.1192488904480342
 20
159.6369983585884995
 30
0.0
 11
3479.1290914101477938
 21
159.6480942776018139
 31
0.0
  0
LINE
  5
1511D
  8
0
 10
3479.1290914101477938
 20
159.6480942776018139
 30
0.0
 11
3479.1487764495350348
 21
159.6572233427991137
 31
0.0
  0
LINE
  5
1511E
  8
0
 10
3479.1487764495350348
 20
159.6572233427991137
 30
0.0
 11
3479.1586189692229709
 21
159.6551650677874079
 31
0.0
  0
LINE
  5
1511F
  8
0
 10
3479.1586189692229709
 20
159.6551650677874079
 30
0.0
 11
3479.1487764495491319
 21
159.6439154948868122
 31
0.0
  0
LINE
  5
15120
  8
0
 10
3479.1487764495491319
 20
159.6439154948868122
 30
0.0
 11
3479.1370698887490107
 21
159.6384372539885987
 31
0.0
  0
LINE
  5
15121
  8
0
 10
3479.1370698887490107
 20
159.6384372539885987
 30
0.0
 11
3479.1321610637478443
 21
159.642248522188595
 31
0.0
  0
LINE
  5
15122
  8
0
 10
3479.1321610637478443
 20
159.642248522188595
 30
0.0
 11
3479.1192488904798665
 21
159.636998358580513
 31
0.0
  0
LINE
  5
15123
  8
0
 10
3479.147087740158895
 20
159.6393538004531081
 30
0.0
 11
3479.1569302597890783
 21
159.6501999908815037
 31
0.0
  0
LINE
  5
15124
  8
0
 10
3479.1569302597890783
 20
159.6501999908815037
 30
0.0
 11
3479.1689651748502001
 21
159.6564035750365917
 31
0.0
  0
LINE
  5
15125
  8
0
 10
3479.1789121226788666
 20
159.6514145751328044
 30
0.0
 11
3479.1766152991490344
 21
159.6489105527886068
 31
0.0
  0
LINE
  5
15126
  8
0
 10
3479.1766152991490344
 20
159.6489105527886068
 30
0.0
 11
3479.1569302597799833
 21
159.6386528656493056
 31
0.0
  0
LINE
  5
15127
  8
0
 10
3479.1569302597799833
 20
159.6386528656493056
 30
0.0
 11
3479.1470877400938662
 21
159.6393538004529944
 31
0.0
  0
LINE
  5
15128
  8
0
 10
3479.1267108361748797
 20
159.6712445616724096
 30
0.0
 11
3479.1192488904980564
 21
159.6614335763134136
 31
0.0
  0
LINE
  5
15129
  8
0
 10
3479.1192488904980564
 20
159.6614335763134136
 30
0.0
 11
3479.1290914101477938
 21
159.6575971676201959
 31
0.0
  0
LINE
  5
1512A
  8
0
 10
3479.1290914101477938
 20
159.6575971676201959
 30
0.0
 11
3479.1458754893769765
 21
159.665393289545591
 31
0.0
  0
LINE
  5
1512B
  8
0
 10
3479.1007865687211051
 20
159.6774070098535105
 30
0.0
 11
3479.0914100408499507
 21
159.6647030202551036
 31
0.0
  0
LINE
  5
1512C
  8
0
 10
3479.0914100408581362
 20
159.6647030202663018
 30
0.0
 11
3479.101252560382818
 21
159.65949094451679
 31
0.0
  0
LINE
  5
1512D
  8
0
 10
3479.101252560382818
 20
159.65949094451679
 30
0.0
 11
3479.1209375998341784
 21
159.6675939631954861
 31
0.0
  0
LINE
  5
1512E
  8
0
 10
3479.1209375998341784
 20
159.6675939631954861
 30
0.0
 11
3479.124160841228786
 21
159.6719185595632098
 31
0.0
  0
LINE
  5
1512F
  8
0
 10
3479.0979566393129971
 20
159.6780118108468969
 30
0.0
 11
3479.0930987502488279
 21
159.6713094087116929
 31
0.0
  0
LINE
  5
15130
  8
0
 10
3479.0930987502488279
 20
159.6713094087116929
 30
0.0
 11
3479.073413710848854
 21
159.6642511427459965
 31
0.0
  0
LINE
  5
15131
  8
0
 10
3479.073413710848854
 20
159.6642511427459965
 30
0.0
 11
3479.0635711912018451
 21
159.6708320528136937
 31
0.0
  0
LINE
  5
15132
  8
0
 10
3479.0635711912018451
 20
159.6708320528136937
 30
0.0
 11
3479.0722819867492035
 21
159.6829319076198885
 31
0.0
  0
LINE
  5
15133
  8
0
 10
3479.0691870409700641
 20
159.6834568802761964
 30
0.0
 11
3479.0652599006211858
 21
159.6779044225717996
 31
0.0
  0
LINE
  5
15134
  8
0
 10
3479.0652599006211858
 20
159.6779044225717996
 30
0.0
 11
3479.0455748612298521
 21
159.6718479943814089
 31
0.0
  0
LINE
  5
15135
  8
0
 10
3479.0455748612298521
 20
159.6718479943814089
 30
0.0
 11
3479.0357323415350947
 21
159.6798136851120091
 31
0.0
  0
LINE
  5
15136
  8
0
 10
3479.0357323415350947
 20
159.6798136851120091
 30
0.0
 11
3479.0411939265550245
 21
159.6875503617673928
 31
0.0
  0
LINE
  5
15137
  8
0
 10
3479.0083414176160659
 20
159.691244788204898
 30
0.0
 11
3479.0177360115480951
 21
159.6822989634885914
 31
0.0
  0
LINE
  5
15138
  8
0
 10
3479.0177360115480951
 20
159.6822989634885914
 30
0.0
 11
3479.0374210508662145
 21
159.6873798385227872
 31
0.0
  0
LINE
  5
15139
  8
0
 10
3479.0374210508662145
 20
159.6873798385227872
 30
0.0
 11
3479.0378323879181153
 21
159.6879738168213123
 31
0.0
  0
LINE
  5
1513A
  8
0
 10
3478.9614605101078268
 20
159.6948363899753076
 30
0.0
 11
3478.9522157926121508
 21
159.6822593811000104
 31
0.0
  0
LINE
  5
1513B
  8
0
 10
3478.9522157926121508
 20
159.6822593811000104
 30
0.0
 11
3478.9620583122959943
 21
159.6719745263366121
 31
0.0
  0
LINE
  5
1513C
  8
0
 10
3478.9620583122959943
 20
159.6719745263366121
 30
0.0
 11
3478.9817433515149787
 21
159.674956479003896
 31
0.0
  0
LINE
  5
1513D
  8
0
 10
3478.9817433515149787
 20
159.674956479003896
 30
0.0
 11
3478.9915858712520276
 21
159.688314107049905
 31
0.0
  0
LINE
  5
1513E
  8
0
 10
3478.9915858712520276
 20
159.688314107049905
 30
0.0
 11
3478.9869596062580968
 21
159.6931204230714911
 31
0.0
  0
LINE
  5
1513F
  8
0
 10
3478.9272599732589697
 20
159.6963181834782972
 30
0.0
 11
3478.9342194625878619
 21
159.6880567309457035
 31
0.0
  0
LINE
  5
15140
  8
0
 10
3478.9342194625878619
 20
159.6880567309457035
 30
0.0
 11
3478.9539045019478181
 21
159.6900798792127034
 31
0.0
  0
LINE
  5
15141
  8
0
 10
3478.9539045019478181
 20
159.6900798792127034
 30
0.0
 11
3478.9575039946998913
 21
159.6950556104341956
 31
0.0
  0
LINE
  5
15142
  8
0
 10
3478.8785417632129793
 20
159.6862141006097033
 30
0.0
 11
3478.8982268026611564
 21
159.6862141005975104
 31
0.0
  0
LINE
  5
15143
  8
0
 10
3478.8982268026611564
 20
159.6862141005975104
 30
0.0
 11
3478.9063897911401
 21
159.6967633281624046
 31
0.0
  0
LINE
  5
15144
  8
0
 10
3478.8982268026611564
 20
159.6862141005975104
 30
0.0
 11
3478.8982963975731764
 21
159.6968424451627016
 31
0.0
  0
LINE
  5
15145
  8
0
 10
3478.9342194625878619
 20
159.6880567309457035
 30
0.0
 11
3478.9345039255149459
 21
159.696082385994913
 31
0.0
  0
LINE
  5
15146
  8
0
 10
3478.9539045019478181
 20
159.6900798792127034
 30
0.0
 11
3478.9539045019478181
 21
159.6952442986834058
 31
0.0
  0
LINE
  5
15147
  8
0
 10
3478.9620583122959943
 20
159.6719745263366121
 30
0.0
 11
3478.9620583122959943
 21
159.6948021653768137
 31
0.0
  0
LINE
  5
15148
  8
0
 10
3478.9817433515149787
 20
159.674956479003896
 30
0.0
 11
3478.9817433515149787
 21
159.6935150426982943
 31
0.0
  0
LINE
  5
15149
  8
0
 10
3479.0177360115480951
 20
159.6822989634885914
 30
0.0
 11
3479.0177360115480951
 21
159.6902891099508963
 31
0.0
  0
LINE
  5
1514A
  8
0
 10
3479.0374210508662145
 20
159.6873798385227872
 30
0.0
 11
3479.0374210508662145
 21
159.6880249197380124
 31
0.0
  0
LINE
  5
1514B
  8
0
 10
3479.0455748612298521
 20
159.6718479943814089
 30
0.0
 11
3479.0455748612298521
 21
159.6869828845777874
 31
0.0
  0
LINE
  5
1514C
  8
0
 10
3479.0652599006211858
 20
159.6779044225717996
 30
0.0
 11
3479.0652599006211858
 21
159.6841017778405103
 31
0.0
  0
LINE
  5
1514D
  8
0
 10
3479.073413710848854
 20
159.6642511427459965
 30
0.0
 11
3479.073413710848854
 21
159.6827365639879872
 31
0.0
  0
LINE
  5
1514E
  8
0
 10
3479.0930987502488279
 20
159.6713094087116929
 30
0.0
 11
3479.0930987502488279
 21
159.6790209153301134
 31
0.0
  0
LINE
  5
1514F
  8
0
 10
3479.101252560382818
 20
159.65949094451679
 30
0.0
 11
3479.101252560382818
 21
159.6773062200317099
 31
0.0
  0
LINE
  5
15150
  8
0
 10
3479.1209375998341784
 20
159.6675939631954861
 30
0.0
 11
3479.1209375998341784
 21
159.6727362115923086
 31
0.0
  0
LINE
  5
15151
  8
0
 10
3479.1290914101477938
 20
159.6575971676201959
 30
0.0
 11
3479.1290914101477938
 21
159.6705935513178929
 31
0.0
  0
LINE
  5
15152
  8
0
 10
3479.1370698887490107
 20
159.6384372539885987
 30
0.0
 11
3479.1370698887490107
 21
159.6517943490053995
 31
0.0
  0
LINE
  5
15153
  8
0
 10
3479.1487764495491319
 20
159.6439154948868122
 30
0.0
 11
3479.1487764495350348
 21
159.6572233427991137
 31
0.0
  0
LINE
  5
15154
  8
0
 10
3479.1569302597799833
 20
159.6386528656493056
 30
0.0
 11
3479.1569302597890783
 21
159.6501999908815037
 31
0.0
  0
LINE
  5
15155
  8
0
 10
3479.1766152991490344
 20
159.6489105527886068
 30
0.0
 11
3479.1766152991490344
 21
159.6526835938703925
 31
0.0
  0
LINE
  5
15156
  8
0
 10
3479.1569302598481954
 20
159.63246587698859
 30
0.0
 11
3479.1569302598481954
 21
159.6244485918568046
 31
0.0
  0
LINE
  5
15157
  8
0
 10
3479.1766152991490344
 20
159.6346834954480016
 30
0.0
 11
3479.1766152991490344
 21
159.6427007807413077
 31
0.0
  0
LINE
  5
15158
  8
0
 10
3479.1569302598259128
 20
159.6204858070371984
 30
0.0
 11
3479.1569302597617934
 21
159.6159983620920002
 31
0.0
  0
LINE
  5
15159
  8
0
 10
3479.1766152991099261
 20
159.6263290479435
 30
0.0
 11
3479.1766152991781382
 21
159.6307434942002033
 31
0.0
  0
ARC
  5
1515A
  8
0
 10
3479.2228958817399871
 20
160.4641390533242031
 30
0.0
 40
1.414766970039983
 50
194.9516483768227033
 51
217.2276461708920863
  0
ARC
  5
1515B
  8
0
 10
3479.0811674447240875
 20
160.3358122937891039
 30
0.0
 40
1.2243921444747301
 50
216.4585282732130054
 51
248.5486490383140108
  0
ARC
  5
1515C
  8
0
 10
3478.9046863796679645
 20
159.8985980177639874
 30
0.0
 40
0.7529359422492125
 50
248.8805711281702031
 51
268.7593707788369102
  0
ARC
  5
1515D
  8
0
 10
3478.8873867575712211
 20
159.552164908493296
 30
0.0
 40
0.3516537872768282
 50
268.0225895998904093
 51
270.162529376334021
  0
ARC
  5
1515E
  8
0
 10
3478.8872309674679855
 20
159.5476526579307119
 30
0.0
 40
0.3471388481082673
 50
263.304994429014414
 51
268.0225895998904093
  0
ARC
  5
1515F
  8
0
 10
3478.880508999021913
 20
159.4903881895154996
 30
0.0
 40
0.2894812015845356
 50
258.5700339804087093
 51
263.304994429014414
  0
ARC
  5
15160
  8
0
 10
3478.8526092537340446
 20
159.3523933967595951
 30
0.0
 40
0.1486942752921865
 50
252.6958437789459992
 51
258.5700339803831866
  0
ARC
  5
15161
  8
0
 10
3478.8188490191619167
 20
159.2440294493615909
 30
0.0
 40
0.0351931804335556
 50
238.807784741219109
 51
252.6958437789459992
  0
ARC
  5
15162
  8
0
 10
3478.8015153895407821
 20
159.2153994468056055
 30
0.0
 40
0.00172481085599
 50
186.4904944415038983
 51
238.8077847412207007
  0
ARC
  5
15163
  8
0
 10
3478.8008640523280519
 20
159.2151505017135094
 30
0.0
 40
0.0010637888790778
 50
124.0168844050406989
 51
177.0916372800118097
  0
ARC
  5
15164
  8
0
 10
3478.8038435698090325
 20
159.2104595256998891
 30
0.0
 40
0.0066206707598362
 50
103.2250452797286044
 51
122.6782751446689019
  0
ARC
  5
15165
  8
0
 10
3478.8199519436448099
 20
159.1058025398367874
 30
0.0
 40
0.1124910707285984
 50
88.8849537361540456
 51
99.0131743103284663
  0
ARC
  5
15166
  8
0
 10
3478.8110847384450608
 20
155.3056058378303135
 30
0.0
 40
3.9126820922092058
 50
89.1897667429962411
 51
89.8380959422053564
  0
ARC
  5
15167
  8
0
 10
3478.8837750172219785
 20
161.1555673691850927
 30
0.0
 40
1.9377484330672849
 50
269.4866309878050856
 51
270.1362879295082848
  0
ARC
  5
15168
  8
0
 10
3478.8825551480467766
 20
157.9877440919518961
 30
0.0
 40
1.7978954597692129
 50
89.8142353542550183
 51
98.9957471769087789
  0
ARC
  5
15169
  8
0
 10
3478.727301319901926
 20
158.9684492526619977
 30
0.0
 40
0.8049773546884104
 50
98.9957465490751218
 51
105.0842589435695942
  0
ARC
  5
1516A
  8
0
 10
3478.6057466120528261
 20
159.3891140487558005
 30
0.0
 40
0.3672584353432984
 50
103.852789942641607
 51
116.6459094089442061
  0
ARC
  5
1516B
  8
0
 10
3478.492788135632054
 20
159.6172834622767027
 30
0.0
 40
0.1126709049570076
 50
117.3408889706141025
 51
131.0015074987794037
  0
ARC
  5
1516C
  8
0
 10
3478.4542770289749569
 20
159.6614173794602038
 30
0.0
 40
0.0540971619451901
 50
130.8863748214226916
 51
150.7901781997659896
  0
ARC
  5
1516D
  8
0
 10
3478.4312763775092208
 20
159.6742436852352967
 30
0.0
 40
0.0277619683476742
 50
150.7298341647675954
 51
180.7822367147500984
  0
ARC
  5
1516E
  8
0
 10
3478.4391906418782128
 20
159.6773203254612099
 30
0.0
 40
0.0358406264835142
 50
185.5328919787233133
 51
222.6714964886722896
  0
ARC
  5
1516F
  8
0
 10
3478.5263786168011393
 20
159.7683286858753036
 30
0.0
 40
0.161819661621049
 50
225.4409145476952858
 51
248.8794602205234128
  0
ARC
  5
15170
  8
0
 10
3478.6553242744330419
 20
160.0711261933819003
 30
0.0
 40
0.4908669687114076
 50
247.574813950582211
 51
256.773019741683072
  0
ARC
  5
15171
  8
0
 10
3478.7565272964798169
 20
160.4772438119117055
 30
0.0
 40
0.9093842035400111
 50
256.4205203157263782
 51
260.5288952924329919
  0
ARC
  5
15172
  8
0
 10
3478.8826855644711031
 20
160.7023799701636051
 30
0.0
 40
1.158213880660574
 50
268.0561882695462259
 51
270.2819115193356083
  0
ARC
  5
15173
  8
0
 10
3478.8941144992791124
 20
161.0391111394199868
 30
0.0
 40
1.495138947848119
 50
265.9250869380676932
 51
268.0561638728805747
  0
ARC
  5
15174
  8
0
 10
3478.8625947951531998
 20
160.5966722333872951
 30
0.0
 40
1.0515787182065861
 50
261.9559484961332032
 51
265.9250869380676932
  0
ARC
  5
15175
  8
0
 10
3478.8212581130587751
 20
160.3041783582345943
 30
0.0
 40
0.7561783318013848
 50
256.3111558372863215
 51
261.9559484961332032
  0
ARC
  5
15176
  8
0
 10
3478.7199893316678754
 20
159.8884053194935859
 30
0.0
 40
0.3282500833435029
 50
249.8451496767303013
 51
256.3111558372863215
  0
ARC
  5
15177
  8
0
 10
3478.659550764053165
 20
159.7331289460373114
 30
0.0
 40
0.1616898411074735
 50
236.9668845882250992
 51
250.9918515281295868
  0
ARC
  5
15178
  8
0
 10
3478.6565100888537927
 20
159.7101148719372077
 30
0.0
 40
0.1410928815283071
 50
217.8644773153122003
 51
232.9041078150297039
  0
ARC
  5
15179
  8
0
 10
3478.5962676495250889
 20
159.6592636489444033
 30
0.0
 40
0.0624018301974815
 50
191.0995802012272975
 51
214.9538147918322863
  0
ARC
  5
1517A
  8
0
 10
3478.5899160485910215
 20
159.6575910768461881
 30
0.0
 40
0.0558486150837257
 50
178.7391631632160909
 51
190.6702236352577131
  0
LINE
  5
1517B
  8
0
 10
3478.5340809553968029
 20
159.65881996855029
 30
0.0
 11
3478.5340535742479915
 21
159.7146464734886138
 31
0.0
  0
ARC
  5
1517C
  8
0
 10
3478.5620354112229506
 20
159.7131355537991055
 30
0.0
 40
0.02802259942957
 50
124.6841283535001992
 51
176.9092331556323927
  0
ARC
  5
1517D
  8
0
 10
3478.6189218328800052
 20
159.6473304138773983
 30
0.0
 40
0.1148851785853306
 50
113.2058450246516941
 51
129.3429717309840896
  0
ARC
  5
1517E
  8
0
 10
3478.6826730198990845
 20
159.5090079520894903
 30
0.0
 40
0.26716822304928
 50
107.7024550273167023
 51
114.0828796614063947
  0
ARC
  5
1517F
  8
0
 10
3478.5379709828580417
 20
159.7334048031393934
 30
0.0
 40
0.0236054229596194
 50
148.6370074648675939
 51
179.090330943824199
  0
ARC
  5
15180
  8
0
 10
3478.5359257743371018
 20
159.7334372770714026
 30
0.0
 40
0.0215599566427551
 50
179.0903309438257907
 51
216.107085919348691
  0
ARC
  5
15181
  8
0
 10
3478.5758327633379849
 20
159.7625455144633975
 30
0.0
 40
0.0709548678708979
 50
216.1070859193472984
 51
226.4312878810274867
  0
ARC
  5
15182
  8
0
 10
3479.3117803417781033
 20
160.5362121376820994
 30
0.0
 40
1.138746459003763
 50
226.4312878810274867
 51
226.9240323272312025
  0
ARC
  5
15183
  8
0
 10
3478.6444055366300745
 20
160.0469658208764088
 30
0.0
 40
0.3951794783545246
 50
246.9016380151074088
 51
253.7883319846077086
  0
ARC
  5
15184
  8
0
 10
3478.5581549487169468
 20
159.8447381272021914
 30
0.0
 40
0.1753267913023782
 50
233.9788096792821932
 51
246.9016380151074088
  0
ARC
  5
15185
  8
0
 10
3478.4896435390869556
 20
159.7505135642497862
 30
0.0
 40
0.058827514424267
 50
214.2928457478815858
 51
233.9788096792821932
  0
ARC
  5
15186
  8
0
 10
3478.88836448930806
 20
158.2571111879915975
 30
0.0
 40
1.454228130831438
 50
89.9992201415830664
 51
91.3640166320418388
  0
ARC
  5
15187
  8
0
 10
3478.8868810170351935
 20
158.3194129519771138
 30
0.0
 40
1.391908707810255
 50
91.3640166320418388
 51
94.1546067319239484
  0
ARC
  5
15188
  8
0
 10
3478.8677171613730934
 20
158.5832364685907123
 30
0.0
 40
1.127390086004302
 50
94.1546067319239484
 51
98.500723622761285
  0
ARC
  5
15189
  8
0
 10
3478.7966267783222065
 20
159.0588722364163061
 30
0.0
 40
0.646470938748208
 50
98.500723622761285
 51
106.5883201172360941
  0
ARC
  5
1518A
  8
0
 10
3478.6709173505701074
 20
159.4808703200100126
 30
0.0
 40
0.2061469185284775
 50
106.5883201172360941
 51
119.102917588784905
  0
ARC
  5
1518B
  8
0
 10
3478.608064218994059
 20
159.5937815790003071
 30
0.0
 40
0.0769204949311004
 50
119.102917588784905
 51
134.4038057242875084
  0
ARC
  5
1518C
  8
0
 10
3478.5769263715601483
 20
159.6255742772029009
 30
0.0
 40
0.0324194702033815
 50
134.4038057242875084
 51
157.5365611104002141
  0
ARC
  5
1518D
  8
0
 10
3478.5639518599518851
 20
159.6309387987651007
 30
0.0
 40
0.0183796681021477
 50
157.5365611104002141
 51
183.7489202392953018
  0
ARC
  5
1518E
  8
0
 10
3478.5670737901559733
 20
159.6311433617946136
 30
0.0
 40
0.0215082930754935
 50
183.7489202392953018
 51
201.9658252138256955
  0
ARC
  5
1518F
  8
0
 10
3478.5702828241887801
 20
159.632437669724311
 30
0.0
 40
0.0249685145201849
 50
201.9658252138256955
 51
211.8020897558876925
  0
ARC
  5
15190
  8
0
 10
3478.580636723499083
 20
159.6388578821108979
 30
0.0
 40
0.037151386021418
 50
211.8020897558876925
 51
217.2731142029892055
  0
ARC
  5
15191
  8
0
 10
3478.8882280032580638
 20
158.2992800018180048
 30
0.0
 40
1.402216784679376
 50
89.9936142779043848
 51
92.838185389402156
  0
ARC
  5
15192
  8
0
 10
3478.8783256355009144
 20
158.4990202149975005
 30
0.0
 40
1.2022312610828509
 50
92.8381854008022458
 51
97.8409338794797776
  0
ARC
  5
15193
  8
0
 10
3478.8068376865821847
 20
159.0181364586663051
 30
0.0
 40
0.6782158020728407
 50
97.8409338794797776
 51
104.5662488308494034
  0
ARC
  5
15194
  8
0
 10
3478.7149039236987846
 20
159.3719298590563938
 30
0.0
 40
0.3126729360264663
 50
104.5662488308494034
 51
111.700172750238707
  0
ARC
  5
15195
  8
0
 10
3478.6545592088918966
 20
159.5235681002938009
 30
0.0
 40
0.1494686443834295
 50
111.700172750238707
 51
126.041722596989203
  0
ARC
  5
15196
  8
0
 10
3478.5871373291251984
 20
159.6162243929856004
 30
0.0
 40
0.0348785119693466
 50
126.041722596989203
 51
153.0909724930642142
  0
ARC
  5
15197
  8
0
 10
3478.5745118490722234
 20
159.6226321660651877
 30
0.0
 40
0.020720040921072
 50
153.0909724930642142
 51
187.9157995504075132
  0
ARC
  5
15198
  8
0
 10
3478.5718406217538359
 20
159.6222607518303107
 30
0.0
 40
0.0180231160199294
 50
187.9157995504058931
 51
208.9621940738039996
  0
ARC
  5
15199
  8
0
 10
3478.5929820801179631
 20
159.6339614240557125
 30
0.0
 40
0.042186455861496
 50
208.9621940738039996
 51
218.6618836008105973
  0
ARC
  5
1519A
  8
0
 10
3478.6056696848750107
 20
159.6461039601740026
 30
0.0
 40
0.0596995097516642
 50
220.154644018098395
 51
223.3670766871053956
  0
ARC
  5
1519B
  8
0
 10
3478.8866831223490408
 20
158.442887728723008
 30
0.0
 40
1.2539815989695671
 50
89.9222721030562298
 51
94.1916873728517174
  0
ARC
  5
1519C
  8
0
 10
3478.8764023929948053
 20
158.583163242502593
 30
0.0
 40
1.1133298547136361
 50
94.1916873404828436
 51
97.4942892573624533
  0
ARC
  5
1519D
  8
0
 10
3478.8204988304601102
 20
159.0081202552883042
 30
0.0
 40
0.6847115268044286
 50
97.4942892573624533
 51
103.9155993683289978
  0
ARC
  5
1519E
  8
0
 10
3478.7277435473010883
 20
159.382489847308193
 30
0.0
 40
0.299022359231579
 50
103.9155993683289978
 51
113.6474414005932942
  0
ARC
  5
1519F
  8
0
 10
3478.6506015294080498
 20
159.5586631852916071
 30
0.0
 40
0.1066998801999998
 50
113.6474414005932942
 51
126.1903959846212047
  0
ARC
  5
151A0
  8
0
 10
3478.6159195370541966
 20
159.6060667887003888
 30
0.0
 40
0.0479636715223365
 50
126.1903959846212047
 51
137.7315565486948117
  0
ARC
  5
151A1
  8
0
 10
3478.6024404902250353
 20
159.6183182139218957
 30
0.0
 40
0.0297487841121519
 50
137.7315565486948117
 51
164.6356327441370979
  0
ARC
  5
151A2
  8
0
 10
3478.591721324557966
 20
159.6227942405755016
 30
0.0
 40
0.0182864259819562
 50
169.2651525330751099
 51
205.1336007734736029
  0
ARC
  5
151A3
  8
0
 10
3478.6337724874360902
 20
159.6549103269315992
 30
0.0
 40
0.0708895948531041
 50
214.2361890714053914
 51
250.7965647052290024
  0
ARC
  5
151A4
  8
0
 10
3478.7453502135181225
 20
159.9152874468331902
 30
0.0
 40
0.3540288982794681
 50
247.6026190671491918
 51
258.6857491537676879
  0
ARC
  5
151A5
  8
0
 10
3478.8338416564320141
 20
160.319389355545411
 30
0.0
 40
0.7676751353257958
 50
258.1266520415359764
 51
263.2266563092159117
  0
ARC
  5
151A6
  8
0
 10
3478.878968279676883
 20
160.690247223874195
 30
0.0
 40
1.1412674233920139
 50
263.1728406504881832
 51
267.5433464917451829
  0
ARC
  5
151A7
  8
0
 10
3478.8877975162831717
 20
160.8561708131963996
 30
0.0
 40
1.307418087728937
 50
267.468449866600622
 51
269.0488595247144872
  0
ARC
  5
151A8
  8
0
 10
3478.888371266537888
 20
160.8857388146142
 30
0.0
 40
1.336991541789017
 50
269.0453090853612821
 51
270.0005578085875868
  0
ARC
  5
151A9
  8
0
 10
3478.8882995537951501
 20
160.1835820726147119
 30
0.0
 40
0.603979150358207
 50
253.2852256543598912
 51
270.0080377325824088
  0
ARC
  5
151AA
  8
0
 10
3478.8863912401930065
 20
160.1772272861088879
 30
0.0
 40
0.597344018683689
 50
247.0434971074440966
 51
253.2852256543598912
  0
ARC
  5
151AB
  8
0
 10
3478.8878242475311708
 20
160.1806103783459889
 30
0.0
 40
0.6010180931403654
 50
244.8178747638438892
 51
247.0434971074440966
  0
LINE
  5
151AC
  8
0
 10
3478.6827624136490158
 20
159.6156623498306999
 30
0.0
 11
3478.6827624136490158
 21
159.610772806288594
 31
0.0
  0
LINE
  5
151AD
  8
0
 10
3478.6827624136490158
 20
159.610772806288594
 30
0.0
 11
3478.6485845578481531
 21
159.610772806288594
 31
0.0
  0
LINE
  5
151AE
  8
0
 10
3478.6485845578481531
 20
159.610772806288594
 30
0.0
 11
3478.6485845577972214
 21
159.6225098275851906
 31
0.0
  0
LINE
  5
151AF
  8
0
 10
3478.6534078394020071
 20
159.6271921857625102
 30
0.0
 11
3478.6485845578658882
 21
159.6225098276231904
 31
0.0
  0
LINE
  5
151B0
  8
0
 10
3478.6485845578658882
 20
159.6225098276231904
 30
0.0
 11
3478.6320928586869741
 21
159.6126434756642993
 31
0.0
  0
ARC
  5
151B1
  8
0
 10
3478.886687629591961
 20
160.1540204857855088
 30
0.0
 40
0.5982537625957276
 50
244.8136842156480952
 51
251.2872191229778878
  0
ARC
  5
151B2
  8
0
 10
3478.8879044163709295
 20
160.1577448246326014
 30
0.0
 40
0.6021716044106893
 50
251.2912527020725975
 51
261.0274588826940771
  0
ARC
  5
151B3
  8
0
 10
3478.888372234228882
 20
160.1604417478318965
 30
0.0
 40
0.6049084887045461
 50
261.0235301507203189
 51
270.0011412389308134
  0
LINE
  5
151B4
  8
0
 10
3478.6755160053480722
 20
159.610772806288594
 30
0.0
 11
3478.6755160053480722
 21
159.6183458444018868
 31
0.0
  0
LINE
  5
151B5
  8
0
 10
3478.6558309660490522
 20
159.610772806288594
 30
0.0
 11
3478.6558309660490522
 21
159.6261724748509039
 31
0.0
  0
LINE
  5
151B6
  8
0
 10
3478.6520772332110027
 20
159.6277574839122906
 30
0.0
 11
3478.6476771558168366
 21
159.623470321080589
 31
0.0
  0
LINE
  5
151B7
  8
0
 10
3478.6476771558168366
 20
159.623470321080589
 30
0.0
 11
3478.6315874430929398
 21
159.6138067303488128
 31
0.0
  0
LINE
  5
151B8
  8
0
 10
3478.6315874430929398
 20
159.6138067303488128
 30
0.0
 11
3478.6320928586851551
 21
159.6126434756631909
 31
0.0
  0
LINE
  5
151B9
  8
0
 10
3478.6476771558168366
 20
159.623470321080589
 30
0.0
 11
3478.6476771558168366
 21
159.6296547334671061
 31
0.0
  0
LINE
  5
151BA
  8
0
 10
3478.6458702187060226
 20
159.6304449905024967
 30
0.0
 11
3478.6300098652200177
 21
159.6208293158788933
 31
0.0
  0
LINE
  5
151BB
  8
0
 10
3478.6300098652200177
 20
159.6208293158788933
 30
0.0
 11
3478.627992116401856
 21
159.6217883453657862
 31
0.0
  0
LINE
  5
151BC
  8
0
 10
3478.627992116401856
 20
159.6217883453657862
 30
0.0
 11
3478.6181495967271076
 21
159.6232016978244133
 31
0.0
  0
LINE
  5
151BD
  8
0
 10
3478.6181495967271076
 20
159.6232016978244133
 30
0.0
 11
3478.6279921162749815
 21
159.6155149176238979
 31
0.0
  0
LINE
  5
151BE
  8
0
 10
3478.6279921162749815
 20
159.6155149176238979
 30
0.0
 11
3478.6315874430201802
 21
159.6138067303832884
 31
0.0
  0
LINE
  5
151BF
  8
0
 10
3478.6320928586837908
 20
159.6367131407722866
 30
0.0
 11
3478.6315874430761141
 21
159.6349161873548894
 31
0.0
  0
LINE
  5
151C0
  8
0
 10
3478.6334475882481456
 20
159.6360779798247052
 30
0.0
 11
3478.6315874430761141
 21
159.6349161873548894
 31
0.0
  0
LINE
  5
151C1
  8
0
 10
3478.6315874430761141
 20
159.6349161873548894
 30
0.0
 11
3478.6279921163250037
 21
159.6366243745951863
 31
0.0
  0
LINE
  5
151C2
  8
0
 10
3478.6279921163250037
 20
159.6366243745951863
 30
0.0
 11
3478.6181495966397961
 21
159.6362938696750859
 31
0.0
  0
LINE
  5
151C3
  8
0
 10
3478.6181495966397961
 20
159.6362938696750859
 30
0.0
 11
3478.6279921163391009
 21
159.6268632320849861
 31
0.0
  0
LINE
  5
151C4
  8
0
 10
3478.6279921163391009
 20
159.6268632320849861
 30
0.0
 11
3478.6300098652450288
 21
159.6259042025506858
 31
0.0
  0
LINE
  5
151C5
  8
0
 10
3478.6300098652450288
 20
159.6259042025506858
 30
0.0
 11
3478.6409577570061629
 21
159.6326315848556874
 31
0.0
  0
LINE
  5
151C6
  8
0
 10
3478.6300098389529012
 20
159.6259042150468872
 30
0.0
 11
3478.6300098652491215
 21
159.6208293158649099
 31
0.0
  0
LINE
  5
151C7
  8
0
 10
3478.6296808257520752
 20
159.6234159079664039
 30
0.0
 11
3478.6198383060482229
 21
159.63246587698859
 31
0.0
  0
LINE
  5
151C8
  8
0
 10
3478.6198383060482229
 20
159.63246587698859
 30
0.0
 11
3478.6001532667492029
 21
159.6427007807413077
 31
0.0
  0
LINE
  5
151C9
  8
0
 10
3478.6001532667492029
 20
159.6427007807413077
 30
0.0
 11
3478.5903107471240219
 21
159.6438888600297048
 31
0.0
  0
LINE
  5
151CA
  8
0
 10
3478.5903107471240219
 20
159.6438888600297048
 30
0.0
 11
3478.6001532667492029
 21
159.6346834954480016
 31
0.0
  0
LINE
  5
151CB
  8
0
 10
3478.6001532667492029
 20
159.6346834954480016
 30
0.0
 11
3478.6198383060482229
 21
159.6244485918568046
 31
0.0
  0
LINE
  5
151CC
  8
0
 10
3478.6198383060482229
 20
159.6244485918568046
 30
0.0
 11
3478.6296808257520752
 21
159.6234159079664039
 31
0.0
  0
LINE
  5
151CD
  8
0
 10
3478.6296808257311568
 20
159.6131694566726935
 30
0.0
 11
3478.6198383060709602
 21
159.6204858070371984
 31
0.0
  0
LINE
  5
151CE
  8
0
 10
3478.6198383060709602
 20
159.6204858070371984
 30
0.0
 11
3478.6001532667191896
 21
159.6307434942002033
 31
0.0
  0
LINE
  5
151CF
  8
0
 10
3478.6001532667191896
 20
159.6307434942002033
 30
0.0
 11
3478.5903107470448958
 21
159.6337606781576994
 31
0.0
  0
LINE
  5
151D0
  8
0
 10
3478.5903107470448958
 20
159.6337606781576994
 30
0.0
 11
3478.6001532667860374
 21
159.6263290479435
 31
0.0
  0
LINE
  5
151D1
  8
0
 10
3478.6001532667860374
 20
159.6263290479435
 30
0.0
 11
3478.6198383061341701
 21
159.6159983620920002
 31
0.0
  0
LINE
  5
151D2
  8
0
 10
3478.6198383061341701
 20
159.6159983620920002
 30
0.0
 11
3478.6296808257311568
 21
159.6131694566726935
 31
0.0
  0
LINE
  5
151D3
  8
0
 10
3478.6181495967111914
 20
159.6158885522283981
 30
0.0
 11
3478.6279921158929938
 21
159.6126562647069136
 31
0.0
  0
LINE
  5
151D4
  8
0
 10
3478.6279921158929938
 20
159.6126562647069136
 30
0.0
 11
3478.63969867716105
 21
159.6071780236447069
 31
0.0
  0
LINE
  5
151D5
  8
0
 10
3478.63969867716105
 20
159.6071780236447069
 30
0.0
 11
3478.6446075023059166
 21
159.6033667553664941
 31
0.0
  0
LINE
  5
151D6
  8
0
 10
3478.6446075023059166
 20
159.6033667553664941
 30
0.0
 11
3478.6575196754670287
 21
159.5977218429385971
 31
0.0
  0
LINE
  5
151D7
  8
0
 10
3478.6575196754670287
 20
159.5977218429385971
 30
0.0
 11
3478.6476771558018299
 21
159.6008004768910098
 31
0.0
  0
LINE
  5
151D8
  8
0
 10
3478.6476771558018299
 20
159.6008004768910098
 30
0.0
 11
3478.6279921164227744
 21
159.6099295420841031
 31
0.0
  0
LINE
  5
151D9
  8
0
 10
3478.6279921164227744
 20
159.6099295420841031
 30
0.0
 11
3478.6181495967239243
 21
159.6158885522469006
 31
0.0
  0
LINE
  5
151DA
  8
0
 10
3478.8802304726500552
 20
159.551594296888311
 30
0.0
 11
3478.8703879529480218
 21
159.5518920283886075
 31
0.0
  0
LINE
  5
151DB
  8
0
 10
3478.8703879529480218
 20
159.5518920283886075
 30
0.0
 11
3478.8507029136490019
 21
159.5528041577885858
 31
0.0
  0
LINE
  5
151DC
  8
0
 10
3478.8507029136490019
 20
159.5528041577885858
 30
0.0
 11
3478.8408603938810302
 21
159.5534196052198013
 31
0.0
  0
LINE
  5
151DD
  8
0
 10
3478.8408603938810302
 20
159.5534196052198013
 30
0.0
 11
3478.8507029136490019
 21
159.5513321249885905
 31
0.0
  0
LINE
  5
151DE
  8
0
 10
3478.8507029136490019
 20
159.5513321249885905
 30
0.0
 11
3478.8703879529539336
 21
159.5504156326167049
 31
0.0
  0
LINE
  5
151DF
  8
0
 10
3478.8703879529539336
 20
159.5504156326167049
 30
0.0
 11
3478.8802304726500552
 21
159.551594296888311
 31
0.0
  0
LINE
  5
151E0
  8
0
 10
3478.8785417632479948
 20
159.5506797551427098
 30
0.0
 11
3478.8686992437151275
 21
159.5498454959073911
 31
0.0
  0
LINE
  5
151E1
  8
0
 10
3478.8686992437151275
 20
159.5498454959073911
 30
0.0
 11
3478.8785417632479948
 21
159.5490292248398987
 31
0.0
  0
LINE
  5
151E2
  8
0
 10
3478.8523916229960378
 20
159.5506072918142024
 30
0.0
 11
3478.8425491037942265
 21
159.5523530397537115
 31
0.0
  0
LINE
  5
151E3
  8
0
 10
3478.8425491037942265
 20
159.5523530397537115
 30
0.0
 11
3478.8228640639481455
 21
159.5541890339885924
 31
0.0
  0
LINE
  5
151E4
  8
0
 10
3478.8228640639481455
 20
159.5541890339885924
 30
0.0
 11
3478.8130215443011366
 21
159.5543001776333938
 31
0.0
  0
LINE
  5
151E5
  8
0
 10
3478.8130215443011366
 20
159.5543001776333938
 30
0.0
 11
3478.8228640638049001
 21
159.5525786416044127
 31
0.0
  0
LINE
  5
151E6
  8
0
 10
3478.8228640638049001
 20
159.5525786416044127
 30
0.0
 11
3478.8425491032980972
 21
159.5507215845780991
 31
0.0
  0
LINE
  5
151E7
  8
0
 10
3478.8425491032980972
 20
159.5507215845780991
 30
0.0
 11
3478.8523916229960378
 21
159.5506072917995084
 31
0.0
  0
LINE
  5
151E8
  8
0
 10
3478.8245527733711242
 20
159.5549362076189084
 30
0.0
 11
3478.814710253649082
 21
159.554696350875588
 31
0.0
  0
LINE
  5
151E9
  8
0
 10
3478.814710253649082
 20
159.554696350875588
 30
0.0
 11
3478.7950252142909449
 21
159.5574714228669109
 31
0.0
  0
LINE
  5
151EA
  8
0
 10
3478.7950252142909449
 20
159.5574714228669109
 30
0.0
 11
3478.7851826946321125
 21
159.5604627211106958
 31
0.0
  0
LINE
  5
151EB
  8
0
 10
3478.7851826946321125
 20
159.5604627211106958
 30
0.0
 11
3478.7950252142481986
 21
159.5589112046573064
 31
0.0
  0
LINE
  5
151EC
  8
0
 10
3478.7950252142481986
 20
159.5589112046573064
 30
0.0
 11
3478.814710253649082
 21
159.5561520142886138
 31
0.0
  0
LINE
  5
151ED
  8
0
 10
3478.814710253649082
 20
159.5561520142886138
 30
0.0
 11
3478.824552773583946
 21
159.5549362076241096
 31
0.0
  0
LINE
  5
151EE
  8
0
 10
3478.7967139236438925
 20
159.55660698320699
 30
0.0
 11
3478.7868714040491795
 21
159.559255511664901
 31
0.0
  0
LINE
  5
151EF
  8
0
 10
3478.7868714040491795
 20
159.559255511664901
 30
0.0
 11
3478.7671863646760357
 21
159.5629793097556899
 31
0.0
  0
LINE
  5
151F0
  8
0
 10
3478.7671863646760357
 20
159.5629793097556899
 30
0.0
 11
3478.7573438450031063
 21
159.5640982773597898
 31
0.0
  0
LINE
  5
151F1
  8
0
 10
3478.7573438450031063
 20
159.5640982773597898
 30
0.0
 11
3478.7671863646201018
 21
159.5614717278050989
 31
0.0
  0
LINE
  5
151F2
  8
0
 10
3478.7671863646201018
 20
159.5614717278050989
 30
0.0
 11
3478.7868714040491795
 21
159.5577039739885947
 31
0.0
  0
LINE
  5
151F3
  8
0
 10
3478.7868714040491795
 20
159.5577039739885947
 30
0.0
 11
3478.7967139237161973
 21
159.5566069832725873
 31
0.0
  0
LINE
  5
151F4
  8
0
 10
3478.7688750740230716
 20
159.5635384669909058
 30
0.0
 11
3478.7590325543728795
 21
159.5642952970302133
 31
0.0
  0
LINE
  5
151F5
  8
0
 10
3478.7590325543728795
 20
159.5642952970302133
 30
0.0
 11
3478.739347514948804
 21
159.5690094359885904
 31
0.0
  0
LINE
  5
151F6
  8
0
 10
3478.739347514948804
 20
159.5690094359885904
 30
0.0
 11
3478.7295049952999761
 21
159.5729252188031069
 31
0.0
  0
LINE
  5
151F7
  8
0
 10
3478.7295049952999761
 20
159.5729252188031069
 30
0.0
 11
3478.739347514948804
 21
159.570393773488604
 31
0.0
  0
LINE
  5
151F8
  8
0
 10
3478.739347514948804
 20
159.570393773488604
 30
0.0
 11
3478.7590325543487779
 21
159.5657033588884985
 31
0.0
  0
LINE
  5
151F9
  8
0
 10
3478.7590325543487779
 20
159.5657033588884985
 30
0.0
 11
3478.7688750740280739
 21
159.5635384669321866
 31
0.0
  0
LINE
  5
151FA
  8
0
 10
3478.741036224419986
 20
159.5680174655005885
 30
0.0
 11
3478.731012921798083
 21
159.5702320816386077
 31
0.0
  0
LINE
  5
151FB
  8
0
 10
3478.731012921798083
 20
159.5702320816386077
 30
0.0
 11
3478.7115086653479921
 21
159.5759757770481997
 31
0.0
  0
LINE
  5
151FC
  8
0
 10
3478.7115086653479921
 20
159.5759757770481997
 30
0.0
 11
3478.7016661456450493
 21
159.5795340195084862
 31
0.0
  0
LINE
  5
151FD
  8
0
 10
3478.7016661456450493
 20
159.5795340195084862
 30
0.0
 11
3478.7115086653129765
 21
159.5773084573935989
 31
0.0
  0
LINE
  5
151FE
  8
0
 10
3478.7115086653129765
 20
159.5773084573935989
 30
0.0
 11
3478.7311937046870298
 21
159.571585586105499
 31
0.0
  0
LINE
  5
151FF
  8
0
 10
3478.7311937046870298
 20
159.571585586105499
 30
0.0
 11
3478.7410362243758755
 21
159.5680174654829955
 31
0.0
  0
LINE
  5
15200
  8
0
 10
3478.7131973747159464
 20
159.5776514316004864
 30
0.0
 11
3478.7033548550029991
 21
159.5794979826760027
 31
0.0
  0
LINE
  5
15201
  8
0
 10
3478.7033548550029991
 20
159.5794979826760027
 30
0.0
 11
3478.6836698156480452
 21
159.5862989968996999
 31
0.0
  0
LINE
  5
15202
  8
0
 10
3478.6836698156480452
 20
159.5862989968996999
 30
0.0
 11
3478.673827295971023
 21
159.5911902884303117
 31
0.0
  0
LINE
  5
15203
  8
0
 10
3478.673827295971023
 20
159.5911902884303117
 30
0.0
 11
3478.6836698156480452
 21
159.5875890418693928
 31
0.0
  0
LINE
  5
15204
  8
0
 10
3478.6836698156480452
 20
159.5875890418693928
 30
0.0
 11
3478.7033548550480191
 21
159.5808272180885865
 31
0.0
  0
LINE
  5
15205
  8
0
 10
3478.7033548550480191
 20
159.5808272180885865
 30
0.0
 11
3478.7131973747159464
 21
159.5776514316004864
 31
0.0
  0
LINE
  5
15206
  8
0
 10
3478.6853585251778895
 20
159.5851893978853013
 30
0.0
 11
3478.6755160060911294
 21
159.5897237275042073
 31
0.0
  0
LINE
  5
15207
  8
0
 10
3478.6755160060911294
 20
159.5897237275042073
 30
0.0
 11
3478.6558309660490522
 21
159.5976345236715019
 31
0.0
  0
LINE
  5
15208
  8
0
 10
3478.6558309660490522
 20
159.5976345236715019
 30
0.0
 11
3478.6459884463611161
 21
159.6011169413883124
 31
0.0
  0
LINE
  5
15209
  8
0
 10
3478.6459884463611161
 20
159.6011169413883124
 30
0.0
 11
3478.6558309660490522
 21
159.5965697932755916
 31
0.0
  0
LINE
  5
1520A
  8
0
 10
3478.6558309660490522
 20
159.5965697932755916
 30
0.0
 11
3478.6755160053730833
 21
159.5885504199472109
 31
0.0
  0
LINE
  5
1520B
  8
0
 10
3478.6755160053730833
 20
159.5885504199472109
 30
0.0
 11
3478.6853585251778895
 21
159.5851893978853013
 31
0.0
  0
LINE
  5
1520C
  8
0
 10
3478.8802304726541479
 20
159.6786037684335042
 30
0.0
 11
3478.870387952999863
 21
159.6909414038833006
 31
0.0
  0
LINE
  5
1520D
  8
0
 10
3478.870387952999863
 20
159.6909414038833006
 30
0.0
 11
3478.8507029136490019
 21
159.6919547770552015
 31
0.0
  0
LINE
  5
1520E
  8
0
 10
3478.8507029136490019
 20
159.6919547770552015
 30
0.0
 11
3478.8408603938692067
 21
159.6805998912234088
 31
0.0
  0
LINE
  5
1520F
  8
0
 10
3478.8408603938692067
 20
159.6805998912234088
 30
0.0
 11
3478.8507029135362245
 21
159.6683625351597868
 31
0.0
  0
LINE
  5
15210
  8
0
 10
3478.8507029135362245
 20
159.6683625351597868
 30
0.0
 11
3478.8703879529089136
 21
159.6673791144471863
 31
0.0
  0
LINE
  5
15211
  8
0
 10
3478.8703879529089136
 20
159.6673791144471863
 30
0.0
 11
3478.8802304726568764
 21
159.6786037684366022
 31
0.0
  0
LINE
  5
15212
  8
0
 10
3478.870387952999863
 20
159.6909414038833006
 30
0.0
 11
3478.8703879529089136
 21
159.6673791144471863
 31
0.0
  0
LINE
  5
15213
  8
0
 10
3478.8507029135362245
 20
159.6683625351597868
 30
0.0
 11
3478.8507029136490019
 21
159.6919547770552015
 31
0.0
  0
LINE
  5
15214
  8
0
 10
3478.8523916229828501
 20
159.6613113125208088
 30
0.0
 11
3478.8425491032658101
 21
159.6731148692238094
 31
0.0
  0
LINE
  5
15215
  8
0
 10
3478.8425491032658101
 20
159.6731148692238094
 30
0.0
 11
3478.8228640638690194
 21
159.6750996770132929
 31
0.0
  0
LINE
  5
15216
  8
0
 10
3478.8228640638690194
 20
159.6750996770132929
 30
0.0
 11
3478.8130215442588451
 21
159.6652296409068867
 31
0.0
  0
LINE
  5
15217
  8
0
 10
3478.8130215442588451
 20
159.6652296409068867
 30
0.0
 11
3478.8229200712407874
 21
159.6534761534846893
 31
0.0
  0
LINE
  5
15218
  8
0
 10
3478.8229200712407874
 20
159.6534761534846893
 30
0.0
 11
3478.8425491033481194
 21
159.6515481689615115
 31
0.0
  0
LINE
  5
15219
  8
0
 10
3478.8425491033481194
 20
159.6515481689615115
 30
0.0
 11
3478.8523916229860333
 21
159.661311312523992
 31
0.0
  0
LINE
  5
1521A
  8
0
 10
3478.8425491032658101
 20
159.6731148692238094
 30
0.0
 11
3478.8425491033481194
 21
159.6515481689615115
 31
0.0
  0
LINE
  5
1521B
  8
0
 10
3478.8229200712407874
 20
159.6534761534846893
 30
0.0
 11
3478.8228640638690194
 21
159.6750996770132929
 31
0.0
  0
LINE
  5
1521C
  8
0
 10
3478.8802304726577859
 20
159.6433584753303876
 30
0.0
 11
3478.8703879529971346
 21
159.6537560209114872
 31
0.0
  0
LINE
  5
1521D
  8
0
 10
3478.8703879529971346
 20
159.6537560209114872
 30
0.0
 11
3478.8507029134862023
 21
159.6547237139446054
 31
0.0
  0
LINE
  5
1521E
  8
0
 10
3478.8507029134862023
 20
159.6547237139446054
 30
0.0
 11
3478.8408603938728447
 21
159.6453545981202069
 31
0.0
  0
LINE
  5
1521F
  8
0
 10
3478.8408603938728447
 20
159.6453545981202069
 30
0.0
 11
3478.8508304834281262
 21
159.6350810958873865
 31
0.0
  0
LINE
  5
15220
  8
0
 10
3478.8508304834281262
 20
159.6350810958873865
 30
0.0
 11
3478.8703879529480218
 21
159.6341422523886138
 31
0.0
  0
LINE
  5
15221
  8
0
 10
3478.8703879529480218
 20
159.6341422523886138
 30
0.0
 11
3478.8802304726609691
 21
159.643358475333514
 31
0.0
  0
LINE
  5
15222
  8
0
 10
3478.8703879529971346
 20
159.6537560209114872
 30
0.0
 11
3478.8703879529480218
 21
159.6341422523886138
 31
0.0
  0
LINE
  5
15223
  8
0
 10
3478.8508304834281262
 20
159.6350810958873865
 30
0.0
 11
3478.8507029134862023
 21
159.6547237139446054
 31
0.0
  0
LINE
  5
15224
  8
0
 10
3478.8802304727328192
 20
159.6142305077881076
 30
0.0
 11
3478.8703340405718336
 21
159.6228788783460004
 31
0.0
  0
LINE
  5
15225
  8
0
 10
3478.8703340405718336
 20
159.6228788783460004
 30
0.0
 11
3478.8507144916798097
 21
159.6238130024555062
 31
0.0
  0
LINE
  5
15226
  8
0
 10
3478.8507144916798097
 20
159.6238130024555062
 30
0.0
 11
3478.8408603939487875
 21
159.6162266305780122
 31
0.0
  0
LINE
  5
15227
  8
0
 10
3478.8408603939487875
 20
159.6162266305780122
 30
0.0
 11
3478.8508189406948077
 21
159.6077304355748083
 31
0.0
  0
LINE
  5
15228
  8
0
 10
3478.8508189406948077
 20
159.6077304355748083
 30
0.0
 11
3478.8703879530012273
 21
159.6068147106271056
 31
0.0
  0
LINE
  5
15229
  8
0
 10
3478.8703879530012273
 20
159.6068147106271056
 30
0.0
 11
3478.8802304727360024
 21
159.6142305077912056
 31
0.0
  0
LINE
  5
1522A
  8
0
 10
3478.8703340405718336
 20
159.6228788783460004
 30
0.0
 11
3478.8703879530012273
 21
159.6068147106271056
 31
0.0
  0
LINE
  5
1522B
  8
0
 10
3478.8508189406948077
 20
159.6077304355748083
 30
0.0
 11
3478.8507144916798097
 21
159.6238130024555062
 31
0.0
  0
LINE
  5
1522C
  8
0
 10
3478.8523916230760733
 20
159.6292357144012044
 30
0.0
 11
3478.8425491033121943
 21
159.639113998265799
 31
0.0
  0
LINE
  5
1522D
  8
0
 10
3478.8425491033121943
 20
159.639113998265799
 30
0.0
 11
3478.8228729331599425
 21
159.6410211718433061
 31
0.0
  0
LINE
  5
1522E
  8
0
 10
3478.8228729331599425
 20
159.6410211718433061
 30
0.0
 11
3478.8130215442552071
 21
159.6330177075844006
 31
0.0
  0
LINE
  5
1522F
  8
0
 10
3478.8130215442552071
 20
159.6330177075844006
 30
0.0
 11
3478.822989013734059
 21
159.6231476323509924
 31
0.0
  0
LINE
  5
15230
  8
0
 10
3478.822989013734059
 20
159.6231476323509924
 30
0.0
 11
3478.8425087851301214
 21
159.6212905519601009
 31
0.0
  0
LINE
  5
15231
  8
0
 10
3478.8425087851301214
 20
159.6212905519601009
 30
0.0
 11
3478.8523916230788018
 21
159.6292357144043024
 31
0.0
  0
LINE
  5
15232
  8
0
 10
3478.8425491033121943
 20
159.639113998265799
 30
0.0
 11
3478.8425087851301214
 21
159.6212905519601009
 31
0.0
  0
LINE
  5
15233
  8
0
 10
3478.822989013734059
 20
159.6231476323509924
 30
0.0
 11
3478.8228729331599425
 21
159.6410211718433061
 31
0.0
  0
LINE
  5
15234
  8
0
 10
3478.8245527733160998
 20
159.646945786425789
 30
0.0
 11
3478.814710253649082
 21
159.6582774430391112
 31
0.0
  0
LINE
  5
15235
  8
0
 10
3478.814710253649082
 20
159.6582774430391112
 30
0.0
 11
3478.7950252142882164
 21
159.6612107005572057
 31
0.0
  0
LINE
  5
15236
  8
0
 10
3478.7950252142882164
 20
159.6612107005572057
 30
0.0
 11
3478.7851826946130132
 21
159.6527477751182005
 31
0.0
  0
LINE
  5
15237
  8
0
 10
3478.7851826946130132
 20
159.6527477751182005
 30
0.0
 11
3478.7950252142481986
 21
159.6414367533687084
 31
0.0
  0
LINE
  5
15238
  8
0
 10
3478.7950252142481986
 20
159.6414367533687084
 30
0.0
 11
3478.814710253649082
 21
159.6385670422737917
 31
0.0
  0
LINE
  5
15239
  8
0
 10
3478.814710253649082
 20
159.6385670422737917
 30
0.0
 11
3478.8245527733188283
 21
159.646945786428887
 31
0.0
  0
LINE
  5
1523A
  8
0
 10
3478.814710253649082
 20
159.6582774430391112
 30
0.0
 11
3478.814710253649082
 21
159.6385670422737917
 31
0.0
  0
LINE
  5
1523B
  8
0
 10
3478.7950252142481986
 20
159.6414367533687084
 30
0.0
 11
3478.7950252142882164
 21
159.6612107005572057
 31
0.0
  0
LINE
  5
1523C
  8
0
 10
3478.7967139236870935
 20
159.667678933217303
 30
0.0
 11
3478.7868714040491795
 21
159.6805825345886092
 31
0.0
  0
LINE
  5
1523D
  8
0
 10
3478.7868714040491795
 20
159.6805825345886092
 30
0.0
 11
3478.767186364636018
 21
159.6846178456864038
 31
0.0
  0
LINE
  5
1523E
  8
0
 10
3478.767186364636018
 20
159.6846178456864038
 30
0.0
 11
3478.7573438449130663
 21
159.6756420047609026
 31
0.0
  0
LINE
  5
1523F
  8
0
 10
3478.7573438449130663
 20
159.6756420047609026
 30
0.0
 11
3478.7671863646492056
 21
159.662754191829805
 31
0.0
  0
LINE
  5
15240
  8
0
 10
3478.7671863646492056
 20
159.662754191829805
 30
0.0
 11
3478.7868714039868792
 21
159.658824505472694
 31
0.0
  0
LINE
  5
15241
  8
0
 10
3478.7868714039868792
 20
159.658824505472694
 30
0.0
 11
3478.796713923689822
 21
159.6676789332204009
 31
0.0
  0
LINE
  5
15242
  8
0
 10
3478.7868714040491795
 20
159.6805825345886092
 30
0.0
 11
3478.7868714039868792
 21
159.658824505472694
 31
0.0
  0
LINE
  5
15243
  8
0
 10
3478.7671863646492056
 20
159.662754191829805
 30
0.0
 11
3478.767186364636018
 21
159.6846178456864038
 31
0.0
  0
LINE
  5
15244
  8
0
 10
3478.824552773412961
 20
159.6177717893226884
 30
0.0
 11
3478.814710253649082
 21
159.6273035870989077
 31
0.0
  0
LINE
  5
15245
  8
0
 10
3478.814710253649082
 20
159.6273035870989077
 30
0.0
 11
3478.7950252142268255
 21
159.6300890218329016
 31
0.0
  0
LINE
  5
15246
  8
0
 10
3478.7950252142268255
 20
159.6300890218329016
 30
0.0
 11
3478.7851826945948233
 21
159.6234037099426928
 31
0.0
  0
LINE
  5
15247
  8
0
 10
3478.7851826945948233
 20
159.6234037099426928
 30
0.0
 11
3478.7950252142659338
 21
159.6139218113414984
 31
0.0
  0
LINE
  5
15248
  8
0
 10
3478.7950252142659338
 20
159.6139218113414984
 30
0.0
 11
3478.8147102537031969
 21
159.6111264030143957
 31
0.0
  0
LINE
  5
15249
  8
0
 10
3478.8147102537031969
 20
159.6111264030143957
 30
0.0
 11
3478.8245527734161442
 21
159.6177717893257864
 31
0.0
  0
LINE
  5
1524A
  8
0
 10
3478.814710253649082
 20
159.6273035870989077
 30
0.0
 11
3478.8147102537031969
 21
159.6111264030143957
 31
0.0
  0
LINE
  5
1524B
  8
0
 10
3478.7950252142659338
 20
159.6139218113414984
 30
0.0
 11
3478.7950252142268255
 21
159.6300890218329016
 31
0.0
  0
LINE
  5
1524C
  8
0
 10
3478.85239162304606
 20
159.6029759792617142
 30
0.0
 11
3478.8425491033640355
 21
159.6111075572646882
 31
0.0
  0
LINE
  5
1524D
  8
0
 10
3478.8425491033640355
 20
159.6111075572646882
 30
0.0
 11
3478.822864063904035
 21
159.6129646141561125
 31
0.0
  0
LINE
  5
1524E
  8
0
 10
3478.822864063904035
 20
159.6129646141561125
 30
0.0
 11
3478.8130215442711233
 21
159.6066688651931997
 31
0.0
  0
LINE
  5
1524F
  8
0
 10
3478.8130215442711233
 20
159.6066688651931997
 30
0.0
 11
3478.822864063938141
 21
159.5985404362697864
 31
0.0
  0
LINE
  5
15250
  8
0
 10
3478.822864063938141
 20
159.5985404362697864
 30
0.0
 11
3478.8425491032771788
 21
159.5967044420995933
 31
0.0
  0
LINE
  5
15251
  8
0
 10
3478.8425491032771788
 20
159.5967044420995933
 30
0.0
 11
3478.8523916230487885
 21
159.6029759792648122
 31
0.0
  0
LINE
  5
15252
  8
0
 10
3478.8425491033640355
 20
159.6111075572646882
 30
0.0
 11
3478.8425491032771788
 21
159.5967044420995933
 31
0.0
  0
LINE
  5
15253
  8
0
 10
3478.822864063938141
 20
159.5985404362697864
 30
0.0
 11
3478.822864063904035
 21
159.6129646141561125
 31
0.0
  0
LINE
  5
15254
  8
0
 10
3478.7967139237521224
 20
159.6089756707063998
 30
0.0
 11
3478.7868714039650513
 21
159.6180899466662879
 31
0.0
  0
LINE
  5
15255
  8
0
 10
3478.7868714039650513
 20
159.6180899466662879
 30
0.0
 11
3478.7671919649860683
 21
159.6218565298723036
 31
0.0
  0
LINE
  5
15256
  8
0
 10
3478.7671919649860683
 20
159.6218565298723036
 30
0.0
 11
3478.757343845009018
 21
159.6164669647594962
 31
0.0
  0
LINE
  5
15257
  8
0
 10
3478.757343845009018
 20
159.6164669647594962
 30
0.0
 11
3478.7672548080840897
 21
159.6073165771568938
 31
0.0
  0
LINE
  5
15258
  8
0
 10
3478.7672548080840897
 20
159.6073165771568938
 30
0.0
 11
3478.7868714039359475
 21
159.6036069140048994
 31
0.0
  0
LINE
  5
15259
  8
0
 10
3478.7868714039359475
 20
159.6036069140048994
 30
0.0
 11
3478.7967139237539413
 21
159.6089756707094978
 31
0.0
  0
LINE
  5
1525A
  8
0
 10
3478.7868714039650513
 20
159.6180899466662879
 30
0.0
 11
3478.7868714039359475
 21
159.6036069140048994
 31
0.0
  0
LINE
  5
1525B
  8
0
 10
3478.7672548080840897
 20
159.6073165771568938
 30
0.0
 11
3478.7671919649860683
 21
159.6218565298723036
 31
0.0
  0
LINE
  5
1525C
  8
0
 10
3478.7688750739389434
 20
159.6265390532699939
 30
0.0
 11
3478.7590325543487779
 21
159.637067708488587
 31
0.0
  0
LINE
  5
1525D
  8
0
 10
3478.7590325543487779
 20
159.637067708488587
 30
0.0
 11
3478.7393475149810911
 21
159.6418911324684018
 31
0.0
  0
LINE
  5
1525E
  8
0
 10
3478.7393475149810911
 20
159.6418911324684018
 30
0.0
 11
3478.7295049953440866
 21
159.6361119581590913
 31
0.0
  0
LINE
  5
1525F
  8
0
 10
3478.7295049953440866
 20
159.6361119581590913
 30
0.0
 11
3478.7393475149988262
 21
159.6255466157234082
 31
0.0
  0
LINE
  5
15260
  8
0
 10
3478.7393475149988262
 20
159.6255466157234082
 30
0.0
 11
3478.7590325543487779
 21
159.6207965722963138
 31
0.0
  0
LINE
  5
15261
  8
0
 10
3478.7590325543487779
 20
159.6207965722963138
 30
0.0
 11
3478.7688750739412171
 21
159.6265390532732056
 31
0.0
  0
LINE
  5
15262
  8
0
 10
3478.7590325543487779
 20
159.637067708488587
 30
0.0
 11
3478.7590325543487779
 21
159.6207965722963138
 31
0.0
  0
LINE
  5
15263
  8
0
 10
3478.7393475149988262
 20
159.6255466157234082
 30
0.0
 11
3478.7393475149810911
 21
159.6418911324684018
 31
0.0
  0
LINE
  5
15264
  8
0
 10
3478.7967139236839103
 20
159.6353807973621031
 30
0.0
 11
3478.7868714040077975
 21
159.6462904950772952
 31
0.0
  0
LINE
  5
15265
  8
0
 10
3478.7868714040077975
 20
159.6462904950772952
 30
0.0
 11
3478.7671863645709891
 21
159.6501651346258939
 31
0.0
  0
LINE
  5
15266
  8
0
 10
3478.7671863645709891
 20
159.6501651346258939
 30
0.0
 11
3478.7573438449821879
 21
159.6430582570152126
 31
0.0
  0
LINE
  5
15267
  8
0
 10
3478.7573438449821879
 20
159.6430582570152126
 30
0.0
 11
3478.7671863646492056
 21
159.6321386832337907
 31
0.0
  0
LINE
  5
15268
  8
0
 10
3478.7671863646492056
 20
159.6321386832337907
 30
0.0
 11
3478.7868714040491795
 21
159.628335024688397
 31
0.0
  0
LINE
  5
15269
  8
0
 10
3478.7868714040491795
 20
159.628335024688397
 30
0.0
 11
3478.7967139236870935
 21
159.635380797365201
 31
0.0
  0
LINE
  5
1526A
  8
0
 10
3478.7868714040077975
 20
159.6462904950772952
 30
0.0
 11
3478.7868714040491795
 21
159.628335024688397
 31
0.0
  0
LINE
  5
1526B
  8
0
 10
3478.7671863646492056
 20
159.6321386832337907
 30
0.0
 11
3478.7671863645709891
 21
159.6501651346258939
 31
0.0
  0
LINE
  5
1526C
  8
0
 10
3478.7688750739889656
 20
159.6559793889053935
 30
0.0
 11
3478.7590325543587824
 21
159.6684309245173097
 31
0.0
  0
LINE
  5
1526D
  8
0
 10
3478.7590325543587824
 20
159.6684309245173097
 30
0.0
 11
3478.739347514948804
 21
159.6734251767886121
 31
0.0
  0
LINE
  5
1526E
  8
0
 10
3478.739347514948804
 20
159.6734251767886121
 30
0.0
 11
3478.7295049953008856
 21
159.6658535318337897
 31
0.0
  0
LINE
  5
1526F
  8
0
 10
3478.7295049953008856
 20
159.6658535318337897
 30
0.0
 11
3478.7393475149228834
 21
159.6533791024720017
 31
0.0
  0
LINE
  5
15270
  8
0
 10
3478.7393475149228834
 20
159.6533791024720017
 30
0.0
 11
3478.7590325543487779
 21
159.6484976088885901
 31
0.0
  0
LINE
  5
15271
  8
0
 10
3478.7590325543487779
 20
159.6484976088885901
 30
0.0
 11
3478.7688750739907846
 21
159.6559793889086052
 31
0.0
  0
LINE
  5
15272
  8
0
 10
3478.7590325543587824
 20
159.6684309245173097
 30
0.0
 11
3478.7590325543487779
 21
159.6484976088885901
 31
0.0
  0
LINE
  5
15273
  8
0
 10
3478.7393475149228834
 20
159.6533791024720017
 30
0.0
 11
3478.739347514948804
 21
159.6734251767886121
 31
0.0
  0
LINE
  5
15274
  8
0
 10
3478.741036224455911
 20
159.6470769571160986
 30
0.0
 11
3478.7311937047679749
 21
159.6591284054159132
 31
0.0
  0
LINE
  5
15275
  8
0
 10
3478.7311937047679749
 20
159.6591284054159132
 30
0.0
 11
3478.7115086653479921
 21
159.6650953738528926
 31
0.0
  0
LINE
  5
15276
  8
0
 10
3478.7115086653479921
 20
159.6650953738528926
 30
0.0
 11
3478.7016661457018927
 21
159.6588947216586973
 31
0.0
  0
LINE
  5
15277
  8
0
 10
3478.7016661457018927
 20
159.6588947216586973
 30
0.0
 11
3478.7115086653479921
 21
159.646785755046011
 31
0.0
  0
LINE
  5
15278
  8
0
 10
3478.7115086653479921
 20
159.646785755046011
 30
0.0
 11
3478.7311937047202264
 21
159.6409338389080119
 31
0.0
  0
LINE
  5
15279
  8
0
 10
3478.7311937047202264
 20
159.6409338389080119
 30
0.0
 11
3478.7410362244590942
 21
159.6470769571191965
 31
0.0
  0
LINE
  5
1527A
  8
0
 10
3478.7311937047679749
 20
159.6591284054159132
 30
0.0
 11
3478.7311937047202264
 21
159.6409338389080119
 31
0.0
  0
LINE
  5
1527B
  8
0
 10
3478.7115086653479921
 20
159.646785755046011
 30
0.0
 11
3478.7115086653479921
 21
159.6650953738528926
 31
0.0
  0
LINE
  5
1527C
  8
0
 10
3478.7410362244509088
 20
159.6203861530115944
 30
0.0
 11
3478.731193704747966
 21
159.6305679028886004
 31
0.0
  0
LINE
  5
1527D
  8
0
 10
3478.731193704747966
 20
159.6305679028886004
 30
0.0
 11
3478.7115086653479921
 21
159.6363617496706979
 31
0.0
  0
LINE
  5
1527E
  8
0
 10
3478.7115086653479921
 20
159.6363617496706979
 30
0.0
 11
3478.7016661457059854
 21
159.6319027069920082
 31
0.0
  0
LINE
  5
1527F
  8
0
 10
3478.7016661457059854
 20
159.6319027069920082
 30
0.0
 11
3478.7115086653479921
 21
159.6216598596886058
 31
0.0
  0
LINE
  5
15280
  8
0
 10
3478.7115086653479921
 20
159.6216598596886058
 30
0.0
 11
3478.7311937048129948
 21
159.6159369883604882
 31
0.0
  0
LINE
  5
15281
  8
0
 10
3478.7311937048129948
 20
159.6159369883604882
 30
0.0
 11
3478.741036224454092
 21
159.6203861530146924
 31
0.0
  0
LINE
  5
15282
  8
0
 10
3478.731193704747966
 20
159.6305679028886004
 30
0.0
 11
3478.7311937048129948
 21
159.6159369883604882
 31
0.0
  0
LINE
  5
15283
  8
0
 10
3478.7115086653479921
 20
159.6216598596886058
 30
0.0
 11
3478.7115086653479921
 21
159.6363617496706979
 31
0.0
  0
LINE
  5
15284
  8
0
 10
3478.7131973747918892
 20
159.6409344134748096
 30
0.0
 11
3478.7033548550480191
 21
159.6526299716801134
 31
0.0
  0
LINE
  5
15285
  8
0
 10
3478.7033548550480191
 20
159.6526299716801134
 30
0.0
 11
3478.6836698156480452
 21
159.6595987782407065
 31
0.0
  0
LINE
  5
15286
  8
0
 10
3478.6836698156480452
 20
159.6595987782407065
 30
0.0
 11
3478.6738272960237737
 21
159.6547588020667092
 31
0.0
  0
LINE
  5
15287
  8
0
 10
3478.6738272960237737
 20
159.6547588020667092
 30
0.0
 11
3478.6836698156089369
 21
159.6429733985158066
 31
0.0
  0
LINE
  5
15288
  8
0
 10
3478.6836698156089369
 20
159.6429733985158066
 30
0.0
 11
3478.7033548550480191
 21
159.6361173383886012
 31
0.0
  0
LINE
  5
15289
  8
0
 10
3478.7033548550480191
 20
159.6361173383886012
 30
0.0
 11
3478.7131973747941629
 21
159.6409344134779076
 31
0.0
  0
LINE
  5
1528A
  8
0
 10
3478.7033548550480191
 20
159.6526299716801134
 30
0.0
 11
3478.7033548550480191
 21
159.6361173383886012
 31
0.0
  0
LINE
  5
1528B
  8
0
 10
3478.6836698156089369
 20
159.6429733985158066
 30
0.0
 11
3478.6836698156480452
 21
159.6595987782407065
 31
0.0
  0
LINE
  5
1528C
  8
0
 10
3478.6853585250291871
 20
159.63755808528839
 30
0.0
 11
3478.6755160053480722
 21
159.6489363925886096
 31
0.0
  0
LINE
  5
1528D
  8
0
 10
3478.6755160053480722
 20
159.6489363925886096
 30
0.0
 11
3478.6558359281561934
 21
159.6569506635738946
 31
0.0
  0
LINE
  5
1528E
  8
0
 10
3478.6558359281561934
 20
159.6569506635738946
 30
0.0
 11
3478.6459884463370145
 21
159.6534856289324864
 31
0.0
  0
LINE
  5
1528F
  8
0
 10
3478.6459884463370145
 20
159.6534856289324864
 30
0.0
 11
3478.6558309659781116
 21
159.6419859260277008
 31
0.0
  0
LINE
  5
15290
  8
0
 10
3478.6558309659781116
 20
159.6419859260277008
 30
0.0
 11
3478.6755160053480722
 21
159.6340751300886041
 31
0.0
  0
LINE
  5
15291
  8
0
 10
3478.6755160053480722
 20
159.6340751300886041
 30
0.0
 11
3478.6853585250319156
 21
159.6375580852916016
 31
0.0
  0
LINE
  5
15292
  8
0
 10
3478.6755160053480722
 20
159.6489363925886096
 30
0.0
 11
3478.6755160053480722
 21
159.6340751300886041
 31
0.0
  0
LINE
  5
15293
  8
0
 10
3478.6558309659781116
 20
159.6419859260277008
 30
0.0
 11
3478.6558359281561934
 21
159.6569506635738946
 31
0.0
  0
LINE
  5
15294
  8
0
 10
3478.880230472680978
 20
159.5908708125093938
 30
0.0
 11
3478.8703879529948608
 21
159.5977094334118931
 31
0.0
  0
LINE
  5
15295
  8
0
 10
3478.8703879529948608
 20
159.5977094334118931
 30
0.0
 11
3478.8507029136108031
 21
159.5986259257095981
 31
0.0
  0
LINE
  5
15296
  8
0
 10
3478.8507029136108031
 20
159.5986259257095981
 30
0.0
 11
3478.8408603939160457
 21
159.5926961209121941
 31
0.0
  0
LINE
  5
15297
  8
0
 10
3478.8408603939160457
 20
159.5926961209121941
 30
0.0
 11
3478.8802304726477814
 21
159.5908708124885891
 31
0.0
  0
LINE
  5
15298
  8
0
 10
3478.8245527733488416
 20
159.5942127232885923
 30
0.0
 11
3478.8147102535949671
 21
159.6019901516523873
 31
0.0
  0
LINE
  5
15299
  8
0
 10
3478.8147102535949671
 20
159.6019901516523873
 30
0.0
 11
3478.7950252143191392
 21
159.6047652236628096
 31
0.0
  0
LINE
  5
1529A
  8
0
 10
3478.7950252143191392
 20
159.6047652236628096
 30
0.0
 11
3478.785182694634841
 21
159.5997392366824954
 31
0.0
  0
LINE
  5
1529B
  8
0
 10
3478.785182694634841
 20
159.5997392366824954
 30
0.0
 11
3478.8245527733488416
 21
159.5942127232885923
 31
0.0
  0
LINE
  5
1529C
  8
0
 10
3478.7688750740990145
 20
159.6028149825453966
 30
0.0
 11
3478.7590325544028929
 21
159.6115890978012999
 31
0.0
  0
LINE
  5
1529D
  8
0
 10
3478.7590325544028929
 20
159.6115890978012999
 30
0.0
 11
3478.73934751495608
 21
159.616303236642608
 31
0.0
  0
LINE
  5
1529E
  8
0
 10
3478.73934751495608
 20
159.616303236642608
 30
0.0
 11
3478.7295049952699628
 21
159.6122017343205925
 31
0.0
  0
LINE
  5
1529F
  8
0
 10
3478.7295049952699628
 20
159.6122017343205925
 30
0.0
 11
3478.7688750740990145
 21
159.6028149825453966
 31
0.0
  0
LINE
  5
152A0
  8
0
 10
3478.7131973748041673
 20
159.6169279471556024
 30
0.0
 11
3478.7033548551198692
 21
159.6267917834362891
 31
0.0
  0
LINE
  5
152A1
  8
0
 10
3478.7033548551198692
 20
159.6267917834362891
 30
0.0
 11
3478.6836698157330829
 21
159.6335927976554103
 31
0.0
  0
LINE
  5
152A2
  8
0
 10
3478.6836698157330829
 20
159.6335927976554103
 30
0.0
 11
3478.6738272959628375
 21
159.630466804072995
 31
0.0
  0
LINE
  5
152A3
  8
0
 10
3478.6738272959628375
 20
159.630466804072995
 30
0.0
 11
3478.7131973747368647
 21
159.6169279471722859
 31
0.0
  0
LINE
  5
152A4
  8
0
 10
3478.6575196754488388
 20
159.6369983585884995
 30
0.0
 11
3478.6476771557481698
 21
159.6480942776018139
 31
0.0
  0
LINE
  5
152A5
  8
0
 10
3478.6476771557481698
 20
159.6480942776018139
 30
0.0
 11
3478.6279921163609288
 21
159.6572233427991137
 31
0.0
  0
LINE
  5
152A6
  8
0
 10
3478.6279921163609288
 20
159.6572233427991137
 30
0.0
 11
3478.6181495966739021
 21
159.6551650677874079
 31
0.0
  0
LINE
  5
152A7
  8
0
 10
3478.6181495966739021
 20
159.6551650677874079
 30
0.0
 11
3478.6279921163481959
 21
159.6439154948868122
 31
0.0
  0
LINE
  5
152A8
  8
0
 10
3478.6279921163481959
 20
159.6439154948868122
 30
0.0
 11
3478.6396986771492266
 21
159.6384372539885987
 31
0.0
  0
LINE
  5
152A9
  8
0
 10
3478.6396986771492266
 20
159.6384372539885987
 30
0.0
 11
3478.6446075021481192
 21
159.642248522188595
 31
0.0
  0
LINE
  5
152AA
  8
0
 10
3478.6446075021481192
 20
159.642248522188595
 30
0.0
 11
3478.657519675416097
 21
159.636998358580513
 31
0.0
  0
LINE
  5
152AB
  8
0
 10
3478.6296808257370685
 20
159.6393538004531081
 30
0.0
 11
3478.6198383061077948
 21
159.6501999908815037
 31
0.0
  0
LINE
  5
152AC
  8
0
 10
3478.6198383061077948
 20
159.6501999908815037
 30
0.0
 11
3478.6078033910471277
 21
159.6564035750365917
 31
0.0
  0
LINE
  5
152AD
  8
0
 10
3478.5978564432180065
 20
159.6514145751328044
 30
0.0
 11
3478.6001532667492029
 21
159.6489105527886068
 31
0.0
  0
LINE
  5
152AE
  8
0
 10
3478.6001532667492029
 20
159.6489105527886068
 30
0.0
 11
3478.6198383061177992
 21
159.6386528656493056
 31
0.0
  0
LINE
  5
152AF
  8
0
 10
3478.6198383061177992
 20
159.6386528656493056
 30
0.0
 11
3478.6296808258039164
 21
159.6393538004529944
 31
0.0
  0
LINE
  5
152B0
  8
0
 10
3478.6500577297229029
 20
159.6712445616724096
 30
0.0
 11
3478.6575196753988166
 21
159.6614335763134136
 31
0.0
  0
LINE
  5
152B1
  8
0
 10
3478.6575196753988166
 20
159.6614335763134136
 30
0.0
 11
3478.6476771557481698
 21
159.6575971676201959
 31
0.0
  0
LINE
  5
152B2
  8
0
 10
3478.6476771557481698
 20
159.6575971676201959
 30
0.0
 11
3478.6308930765198966
 21
159.665393289545591
 31
0.0
  0
LINE
  5
152B3
  8
0
 10
3478.6759819971762226
 20
159.6774070098535105
 30
0.0
 11
3478.6853585250469223
 21
159.6647030202551036
 31
0.0
  0
LINE
  5
152B4
  8
0
 10
3478.6853585250391916
 20
159.6647030202663018
 30
0.0
 11
3478.6755160055149645
 21
159.65949094451679
 31
0.0
  0
LINE
  5
152B5
  8
0
 10
3478.6755160055149645
 20
159.65949094451679
 30
0.0
 11
3478.6558309660640589
 21
159.6675939631954861
 31
0.0
  0
LINE
  5
152B6
  8
0
 10
3478.6558309660640589
 20
159.6675939631954861
 30
0.0
 11
3478.6526077246671775
 21
159.6719185595632098
 31
0.0
  0
LINE
  5
152B7
  8
0
 10
3478.6788119265838759
 20
159.6780118108468969
 30
0.0
 11
3478.6836698156480452
 21
159.6713094087116929
 31
0.0
  0
LINE
  5
152B8
  8
0
 10
3478.6836698156480452
 20
159.6713094087116929
 30
0.0
 11
3478.7033548550480191
 21
159.6642511427459965
 31
0.0
  0
LINE
  5
152B9
  8
0
 10
3478.7033548550480191
 20
159.6642511427459965
 30
0.0
 11
3478.713197374695028
 21
159.6708320528136937
 31
0.0
  0
LINE
  5
152BA
  8
0
 10
3478.713197374695028
 20
159.6708320528136937
 30
0.0
 11
3478.7044865791481243
 21
159.6829319076198885
 31
0.0
  0
LINE
  5
152BB
  8
0
 10
3478.7075815249281732
 20
159.6834568802761964
 30
0.0
 11
3478.711508665276142
 21
159.6779044225717996
 31
0.0
  0
LINE
  5
152BC
  8
0
 10
3478.711508665276142
 20
159.6779044225717996
 30
0.0
 11
3478.7311937046661114
 21
159.6718479943814089
 31
0.0
  0
LINE
  5
152BD
  8
0
 10
3478.7311937046661114
 20
159.6718479943814089
 30
0.0
 11
3478.7410362243631425
 21
159.6798136851120091
 31
0.0
  0
LINE
  5
152BE
  8
0
 10
3478.7410362243631425
 20
159.6798136851120091
 30
0.0
 11
3478.7355746393418485
 21
159.6875503617673928
 31
0.0
  0
LINE
  5
152BF
  8
0
 10
3478.7684271482798977
 20
159.691244788204898
 30
0.0
 11
3478.7590325543487779
 21
159.6822989634885914
 31
0.0
  0
LINE
  5
152C0
  8
0
 10
3478.7590325543487779
 20
159.6822989634885914
 30
0.0
 11
3478.7393475150311133
 21
159.6873798385227872
 31
0.0
  0
LINE
  5
152C1
  8
0
 10
3478.7393475150311133
 20
159.6873798385227872
 30
0.0
 11
3478.7389361779792125
 21
159.6879738168213123
 31
0.0
  0
LINE
  5
152C2
  8
0
 10
3478.8153080557881367
 20
159.6948363899753076
 30
0.0
 11
3478.8245527732860864
 21
159.6822593811000104
 31
0.0
  0
LINE
  5
152C3
  8
0
 10
3478.8245527732860864
 20
159.6822593811000104
 30
0.0
 11
3478.8147102536008788
 21
159.6719745263366121
 31
0.0
  0
LINE
  5
152C4
  8
0
 10
3478.8147102536008788
 20
159.6719745263366121
 30
0.0
 11
3478.7950252143809848
 21
159.674956479003896
 31
0.0
  0
LINE
  5
152C5
  8
0
 10
3478.7950252143809848
 20
159.674956479003896
 30
0.0
 11
3478.7851826946448455
 21
159.688314107049905
 31
0.0
  0
LINE
  5
152C6
  8
0
 10
3478.7851826946448455
 20
159.688314107049905
 30
0.0
 11
3478.7898089596378668
 21
159.6931204230714911
 31
0.0
  0
LINE
  5
152C7
  8
0
 10
3478.8495085926379033
 20
159.6963181834782972
 30
0.0
 11
3478.8425491033090111
 21
159.6880567309457035
 31
0.0
  0
LINE
  5
152C8
  8
0
 10
3478.8425491033090111
 20
159.6880567309457035
 30
0.0
 11
3478.8228640639481455
 21
159.6900798792127034
 31
0.0
  0
LINE
  5
152C9
  8
0
 10
3478.8228640639481455
 20
159.6900798792127034
 30
0.0
 11
3478.8192645711960722
 21
159.6950556104341956
 31
0.0
  0
LINE
  5
152CA
  8
0
 10
3478.8785417632361714
 20
159.6862141005975104
 30
0.0
 11
3478.8703787747558636
 21
159.6967633281624046
 31
0.0
  0
LINE
  5
152CB
  8
0
 10
3478.8785417632361714
 20
159.6862141005975104
 30
0.0
 11
3478.8784721683241514
 21
159.6968424451627016
 31
0.0
  0
LINE
  5
152CC
  8
0
 10
3478.8425491033090111
 20
159.6880567309457035
 30
0.0
 11
3478.8422646403819272
 21
159.696082385994913
 31
0.0
  0
LINE
  5
152CD
  8
0
 10
3478.8228640639481455
 20
159.6900798792127034
 30
0.0
 11
3478.8228640639481455
 21
159.6952442986834058
 31
0.0
  0
LINE
  5
152CE
  8
0
 10
3478.8147102536008788
 20
159.6719745263366121
 30
0.0
 11
3478.8147102536008788
 21
159.6948021653768137
 31
0.0
  0
LINE
  5
152CF
  8
0
 10
3478.7950252143809848
 20
159.674956479003896
 30
0.0
 11
3478.7950252143809848
 21
159.6935150426982943
 31
0.0
  0
LINE
  5
152D0
  8
0
 10
3478.7590325543487779
 20
159.6822989634885914
 30
0.0
 11
3478.7590325543487779
 21
159.6902891099508963
 31
0.0
  0
LINE
  5
152D1
  8
0
 10
3478.7393475150311133
 20
159.6873798385227872
 30
0.0
 11
3478.7393475150311133
 21
159.6880249197380124
 31
0.0
  0
LINE
  5
152D2
  8
0
 10
3478.7311937046661114
 20
159.6718479943814089
 30
0.0
 11
3478.7311937046661114
 21
159.6869828845777874
 31
0.0
  0
LINE
  5
152D3
  8
0
 10
3478.711508665276142
 20
159.6779044225717996
 30
0.0
 11
3478.711508665276142
 21
159.6841017778405103
 31
0.0
  0
LINE
  5
152D4
  8
0
 10
3478.7033548550480191
 20
159.6642511427459965
 30
0.0
 11
3478.7033548550480191
 21
159.6827365639879872
 31
0.0
  0
LINE
  5
152D5
  8
0
 10
3478.6836698156480452
 20
159.6713094087116929
 30
0.0
 11
3478.6836698156480452
 21
159.6790209153301134
 31
0.0
  0
LINE
  5
152D6
  8
0
 10
3478.6755160055149645
 20
159.65949094451679
 30
0.0
 11
3478.6755160055149645
 21
159.6773062200317099
 31
0.0
  0
LINE
  5
152D7
  8
0
 10
3478.6558309660640589
 20
159.6675939631954861
 30
0.0
 11
3478.6558309660640589
 21
159.6727362115923086
 31
0.0
  0
LINE
  5
152D8
  8
0
 10
3478.6476771557481698
 20
159.6575971676201959
 30
0.0
 11
3478.6476771557481698
 21
159.6705935513178929
 31
0.0
  0
LINE
  5
152D9
  8
0
 10
3478.6396986771492266
 20
159.6384372539885987
 30
0.0
 11
3478.6396986771492266
 21
159.6517943490053995
 31
0.0
  0
LINE
  5
152DA
  8
0
 10
3478.6279921163481959
 20
159.6439154948868122
 30
0.0
 11
3478.6279921163609288
 21
159.6572233427991137
 31
0.0
  0
LINE
  5
152DB
  8
0
 10
3478.6198383061177992
 20
159.6386528656493056
 30
0.0
 11
3478.6198383061077948
 21
159.6501999908815037
 31
0.0
  0
LINE
  5
152DC
  8
0
 10
3478.6001532667492029
 20
159.6489105527886068
 30
0.0
 11
3478.6001532667492029
 21
159.6526835938703925
 31
0.0
  0
LINE
  5
152DD
  8
0
 10
3478.6198383060482229
 20
159.63246587698859
 30
0.0
 11
3478.6198383060482229
 21
159.6244485918568046
 31
0.0
  0
LINE
  5
152DE
  8
0
 10
3478.6001532667492029
 20
159.6346834954480016
 30
0.0
 11
3478.6001532667492029
 21
159.6427007807413077
 31
0.0
  0
LINE
  5
152DF
  8
0
 10
3478.6198383060709602
 20
159.6204858070371984
 30
0.0
 11
3478.6198383061341701
 21
159.6159983620920002
 31
0.0
  0
LINE
  5
152E0
  8
0
 10
3478.6001532667860374
 20
159.6263290479435
 30
0.0
 11
3478.6001532667191896
 21
159.6307434942002033
 31
0.0
  0
ARC
  5
152E1
  8
0
 10
3477.8824679332587948
 20
160.3304541319552072
 30
0.0
 40
0.0236268340442535
 50
89.9896830548566555
 51
179.325751105443203
  0
LINE
  5
152E2
  8
0
 10
3477.8588427351492101
 20
160.3307321628886086
 30
0.0
 11
3477.8560274059482254
 21
160.0991237804886111
 31
0.0
  0
ARC
  5
152E3
  8
0
 10
3478.6808272641019357
 20
160.2187471579572957
 30
0.0
 40
0.5992781613852247
 50
253.1260697981043961
 51
256.2198487517509875
  0
ARC
  5
152E4
  8
0
 10
3478.6206266675199004
 20
160.0202790470306979
 30
0.0
 40
0.3918807098975753
 50
243.6208061992639955
 51
253.1260697981043961
  0
ARC
  5
152E5
  8
0
 10
3478.4957289165331531
 20
159.7684445787280936
 30
0.0
 40
0.1107756625808459
 50
228.3548759457142978
 51
243.6208061992639955
  0
ARC
  5
152E6
  8
0
 10
3478.4681505286657739
 20
159.7374315228902049
 30
0.0
 40
0.0692741311666089
 50
216.7623047335206934
 51
228.3548759457142978
  0
ARC
  5
152E7
  8
0
 10
3479.1105165942690292
 20
160.1645918150790919
 30
0.0
 40
0.5432106668062527
 50
283.6477017528283113
 51
289.9448744384152974
  0
ARC
  5
152E8
  8
0
 10
3479.2009500505610049
 20
159.9153821643772062
 30
0.0
 40
0.2781000106269333
 50
289.9448744384152974
 51
297.00391484084372
  0
ARC
  5
152E9
  8
0
 10
3479.2570150652700249
 20
159.8053669611950909
 30
0.0
 40
0.1546227624978486
 50
297.00391484084372
 51
307.4889925411795844
  0
ARC
  5
152EA
  8
0
 10
3479.3119027530838139
 20
159.7338074725365118
 30
0.0
 40
0.0644372942083642
 50
307.4889925411795844
 51
318.5218191084779846
  0
ARC
  5
152EB
  8
0
 10
3479.3062338168028873
 20
159.7388190763751084
 30
0.0
 40
0.0720038661921535
 50
318.5218191084779846
 51
323.4908227117405772
  0
LINE
  5
152EC
  8
0
 10
3478.8686992436228138
 20
159.6605034125653049
 30
0.0
 11
3478.8785417632630015
 21
159.6713069034994135
 31
0.0
  0
LINE
  5
152ED
  8
0
 10
3478.8785417632630015
 20
159.6713069034994135
 30
0.0
 11
3478.8982268026338716
 21
159.6713069034595947
 31
0.0
  0
LINE
  5
152EE
  8
0
 10
3478.8982268026338716
 20
159.6713069034595947
 30
0.0
 11
3478.908069322314077
 21
159.6605034125240934
 31
0.0
  0
LINE
  5
152EF
  8
0
 10
3478.908069322314077
 20
159.6605034125240934
 30
0.0
 11
3478.8982268026488782
 21
159.6497857364886102
 31
0.0
  0
LINE
  5
152F0
  8
0
 10
3478.8982268026488782
 20
159.6497857364886102
 30
0.0
 11
3478.8785417632479948
 21
159.6497857364886102
 31
0.0
  0
LINE
  5
152F1
  8
0
 10
3478.8785417632479948
 20
159.6497857364886102
 30
0.0
 11
3478.8686992455709515
 21
159.6605034147027027
 31
0.0
  0
LINE
  5
152F2
  8
0
 10
3478.8686992435609682
 20
159.6284556873565919
 30
0.0
 11
3478.8785417632479948
 21
159.6373753503879129
 31
0.0
  0
LINE
  5
152F3
  8
0
 10
3478.8785417632479948
 20
159.6373753503879129
 30
0.0
 11
3478.8982268026488782
 21
159.6373753503879129
 31
0.0
  0
LINE
  5
152F4
  8
0
 10
3478.8982268026488782
 20
159.6373753503879129
 30
0.0
 11
3478.9080693224150309
 21
159.6284556873359008
 31
0.0
  0
LINE
  5
152F5
  8
0
 10
3478.9080693224150309
 20
159.6284556873359008
 30
0.0
 11
3478.8982268026488782
 21
159.6195794717251033
 31
0.0
  0
LINE
  5
152F6
  8
0
 10
3478.8982268026488782
 20
159.6195794717251033
 30
0.0
 11
3478.8785417632689132
 21
159.6195794716566922
 31
0.0
  0
LINE
  5
152F7
  8
0
 10
3478.8785417632689132
 20
159.6195794716566922
 30
0.0
 11
3478.8686992435841603
 21
159.6284556873594056
 31
0.0
  0
LINE
  5
152F8
  8
0
 10
3478.8686992435991669
 20
159.6022141833618946
 30
0.0
 11
3478.8785417632479948
 21
159.6094151974473903
 31
0.0
  0
LINE
  5
152F9
  8
0
 10
3478.8785417632479948
 20
159.6094151974473903
 30
0.0
 11
3478.8982268026338716
 21
159.6094151974496071
 31
0.0
  0
LINE
  5
152FA
  8
0
 10
3478.8982268026338716
 20
159.6094151974496071
 30
0.0
 11
3478.9080693222967966
 21
159.6022141834461081
 31
0.0
  0
LINE
  5
152FB
  8
0
 10
3478.9080693222967966
 20
159.6022141834461081
 30
0.0
 11
3478.8982268026279598
 21
159.5950311574216016
 31
0.0
  0
LINE
  5
152FC
  8
0
 10
3478.8982268026279598
 20
159.5950311574216016
 30
0.0
 11
3478.8785417632479948
 21
159.5950311574216016
 31
0.0
  0
LINE
  5
152FD
  8
0
 10
3478.8785417632479948
 20
159.5950311574216016
 30
0.0
 11
3478.8686992452007871
 21
159.6022141845338922
 31
0.0
  0
LINE
  5
152FE
  8
0
 10
3478.8785417642079665
 20
159.5950311567214897
 30
0.0
 11
3478.8785417642079665
 21
159.6094151981492075
 31
0.0
  0
LINE
  5
152FF
  8
0
 10
3478.8785417642079665
 20
159.6195794708104927
 30
0.0
 11
3478.8785417642079665
 21
159.6373753512571909
 31
0.0
  0
LINE
  5
15300
  8
0
 10
3478.8785417642079665
 20
159.6497857354439986
 30
0.0
 11
3478.8785417642079665
 21
159.6713069045358964
 31
0.0
  0
LINE
  5
15301
  8
0
 10
3478.8982268016889066
 20
159.5950311567362121
 30
0.0
 11
3478.8982268016889066
 21
159.6094151974496071
 31
0.0
  0
LINE
  5
15302
  8
0
 10
3478.8982268016889066
 20
159.6195794717251033
 30
0.0
 11
3478.8982268016889066
 21
159.6373753503879129
 31
0.0
  0
LINE
  5
15303
  8
0
 10
3478.8982268016889066
 20
159.6497857364886102
 30
0.0
 11
3478.8982268016889066
 21
159.6713069034595947
 31
0.0
  0
ARC
  5
15304
  8
0
 10
3480.3142162640619972
 20
161.3905537485373998
 30
0.0
 40
2.578398826971656
 50
210.0573041273966055
 51
216.33416407701759
  0
ARC
  5
15305
  8
0
 10
3481.1172640626109569
 20
161.9811885423837907
 30
0.0
 40
3.575261518848452
 50
216.33416407701759
 51
219.192900380803394
  0
ARC
  5
15306
  8
0
 10
3479.2151537172489952
 20
160.4895677960028877
 30
0.0
 40
1.159389443406351
 50
221.4651223515371044
 51
225.845772806030908
  0
ARC
  5
15307
  8
0
 10
3479.0382772873040267
 20
160.3611650249713989
 30
0.0
 40
0.9447967781421867
 50
228.117994776774907
 51
228.5539958207097868
  0
ARC
  5
15308
  8
0
 10
3477.2206247069598248
 20
161.5674469359919954
 30
0.0
 40
2.8765691561854418
 50
324.7592144670610992
 51
329.306690967334589
  0
ARC
  5
15309
  8
0
 10
3477.7944756327178766
 20
161.0778864584457892
 30
0.0
 40
2.126512902752923
 50
322.9622242233645011
 51
326.6111219355502726
  0
ARC
  5
1530A
  8
0
 10
3478.916282808474989
 20
160.2028686404707116
 30
0.0
 40
0.7043515594022787
 50
316.010660149215596
 51
324.8141316918541861
  0
ARC
  5
1530B
  8
0
 10
3478.6387110622072214
 20
160.4159855830529011
 30
0.0
 40
1.0528101310907449
 50
314.4845806547701272
 51
318.1580655541167744
  0
ARC
  5
1530C
  8
0
 10
3479.2595851862420204
 20
159.7752440127059117
 30
0.0
 40
0.1607357188999388
 50
310.4114008067872987
 51
316.631986059679889
  0
ARC
  5
1530E
  8
0
 10
3482.8884837645350672
 20
159.8339227047513873
 30
0.0
 40
0.9672384981890662
 50
89.8892652032930926
 51
92.4707072482060255
  0
ARC
  5
1530F
  8
0
 10
3482.8883555950319533
 20
159.8368931170651877
 30
0.0
 40
0.9642653219858806
 50
92.4707072482060255
 51
98.4305816798523949
  0
ARC
  5
15310
  8
0
 10
3482.8884370924620271
 20
159.8363432485751048
 30
0.0
 40
0.9648211971405368
 50
98.4305816798523949
 51
105.4974547512165941
  0
ARC
  5
15311
  8
0
 10
3482.8883060400808063
 20
159.8368158897253863
 30
0.0
 40
0.9643307235086719
 50
105.4974547512165941
 51
113.1032041480790014
  0
ARC
  5
15312
  8
0
 10
3482.8884844678291302
 20
159.8363976365401129
 30
0.0
 40
0.9647854456087088
 50
113.1032041480790014
 51
121.3226046833602965
  0
ARC
  5
15313
  8
0
 10
3482.9583718447670435
 20
159.7215551861555127
 30
0.0
 40
1.0992214298750529
 50
121.3226046833602965
 51
132.5826228780852034
  0
ARC
  5
15314
  8
0
 10
3482.6737691832809105
 20
160.0312467154197122
 30
0.0
 40
0.6786176754653778
 50
132.5826228780852034
 51
143.2401148189956075
  0
ARC
  5
15315
  8
0
 10
3483.0156271594728423
 20
159.7758773762228941
 30
0.0
 40
1.105326446512475
 50
143.2401148189956075
 51
165.8849880682608955
  0
ARC
  5
15316
  8
0
 10
3483.3459050320770984
 20
159.7034662244678032
 30
0.0
 40
1.4433283564570989
 50
166.2946504342143044
 51
177.7269014422028874
  0
ARC
  5
15317
  8
0
 10
3482.889358867133069
 20
159.9174005878834066
 30
0.0
 40
0.8773823968649045
 50
89.9350713911038184
 51
91.0330229657644878
  0
ARC
  5
15318
  8
0
 10
3482.8906721392490908
 20
159.8445689096880074
 30
0.0
 40
0.9502259143006826
 50
91.0330229657644878
 51
93.4981627680604248
  0
ARC
  5
15319
  8
0
 10
3482.8916076494160734
 20
159.8292654005072961
 30
0.0
 40
0.9655579908891059
 50
93.4981627680604248
 51
98.6138087692039136
  0
ARC
  5
1531A
  8
0
 10
3482.8974025150300804
 20
159.7910109958594944
 30
0.0
 40
1.004248815931478
 50
98.6138087692039136
 51
115.5678870205474027
  0
ARC
  5
1531B
  8
0
 10
3482.9055484397799773
 20
159.7739846562346884
 30
0.0
 40
1.023123463770216
 50
115.5678870205474027
 51
125.2874952456215993
  0
ARC
  5
1531C
  8
0
 10
3482.858070713332836
 20
159.8410708948580066
 30
0.0
 40
0.9409364944795511
 50
125.2874952456215993
 51
134.7820070873600002
  0
ARC
  5
1531D
  8
0
 10
3482.7568256158028817
 20
159.9430893517597951
 30
0.0
 40
0.7972064164778092
 50
134.7820070873600002
 51
147.2126586006239108
  0
ARC
  5
1531E
  8
0
 10
3482.8922225001620063
 20
159.8339227047513873
 30
0.0
 40
0.9672384981890662
 50
87.5292927517939745
 51
90.1107347967069217
  0
ARC
  5
1531F
  8
0
 10
3482.8923506696651202
 20
159.8368931170651877
 30
0.0
 40
0.9642653219858806
 50
81.5694183201476193
 51
87.5292927517939745
  0
ARC
  5
15320
  8
0
 10
3482.8922691722341369
 20
159.8363432485751048
 30
0.0
 40
0.9648211971405368
 50
74.5025452487834201
 51
81.5694183201476193
  0
ARC
  5
15321
  8
0
 10
3482.892400224614903
 20
159.8368158897253863
 30
0.0
 40
0.9643307235086719
 50
66.8967958519209702
 51
74.5025452487834201
  0
ARC
  5
15322
  8
0
 10
3482.8922217968679433
 20
159.8363976365401129
 30
0.0
 40
0.9647854456087088
 50
58.6773953166397106
 51
66.8967958519209702
  0
ARC
  5
15323
  8
0
 10
3482.8223344199291205
 20
159.7215551861555127
 30
0.0
 40
1.0992214298750529
 50
47.4173771219147682
 51
58.6773953166397106
  0
ARC
  5
15324
  8
0
 10
3483.106937081416163
 20
160.0312467154197122
 30
0.0
 40
0.6786176754653778
 50
36.7598851810043428
 51
47.4173771219147682
  0
ARC
  5
15325
  8
0
 10
3482.7650791052228669
 20
159.7758773762228941
 30
0.0
 40
1.105326446512475
 50
14.1150119317390903
 51
36.7598851810043428
  0
ARC
  5
15326
  8
0
 10
3482.4348238388379286
 20
159.7034705568621007
 30
0.0
 40
1.443305367437725
 50
2.2729626616512562
 51
13.7053951000297296
  0
ARC
  5
15327
  8
0
 10
3482.8913473975640045
 20
159.9174005878834066
 30
0.0
 40
0.8773823968649045
 50
88.966977034235498
 51
90.0649286088961958
  0
ARC
  5
15328
  8
0
 10
3482.8900341254479827
 20
159.8445689096880074
 30
0.0
 40
0.9502259143006826
 50
86.5018372319396036
 51
88.966977034235498
  0
ARC
  5
15329
  8
0
 10
3482.8890986152810001
 20
159.8292654005072961
 30
0.0
 40
0.9655579908891059
 50
81.3861912307960864
 51
86.5018372319396036
  0
ARC
  5
1532A
  8
0
 10
3482.8833037496660836
 20
159.7910109958594944
 30
0.0
 40
1.004248815931478
 50
64.4321129794525689
 51
81.3861912307960864
  0
ARC
  5
1532B
  8
0
 10
3482.8751578249170961
 20
159.7739846562346884
 30
0.0
 40
1.023123463770216
 50
54.712504754378358
 51
64.4321129794525689
  0
ARC
  5
1532C
  8
0
 10
3482.9226355513637827
 20
159.8410708948580066
 30
0.0
 40
0.9409364944795511
 50
45.2179929126399998
 51
54.712504754378358
  0
ARC
  5
1532D
  8
0
 10
3483.0238806488941918
 20
159.9430893517597951
 30
0.0
 40
0.7972064164778092
 50
32.7873413993761318
 51
45.2179929126399998
  0
ENDSEC
  0
EOF
