  0
SECTION
  2
HEADER
  9
$ACADVER
  1
AC1009
  9
$INSBASE
 10
3496.4506533917679008
 20
159.8421410859185983
 30
0.0
  9
$EXTMIN
 10
3487.7654152799259464
 20
156.2248836679777071
 30
-0.0015258207003583
  9
$EXTMAX
 10
3496.5684536303538152
 20
161.4218706741488063
 30
0.0000000349246037
  9
$LIMMIN
 10
0.0
 20
0.0
  9
$LIMMAX
 10
11.6929133858000007
 20
8.2677165353999982
  9
$ORTHOMODE
 70
     0
  9
$REGENMODE
 70
     1
  9
$FILLMODE
 70
     1
  9
$QTEXTMODE
 70
     0
  9
$MIRRTEXT
 70
     0
  9
$DRAGMODE
 70
     2
  9
$LTSCALE
 40
0.6431102362
  9
$OSMODE
 70
  4095
  9
$ATTMODE
 70
     1
  9
$TEXTSIZE
 40
0.2
  9
$TRACEWID
 40
0.05
  9
$TEXTSTYLE
  7
STANDARD
  9
$CLAYER
  8
0
  9
$CELTYPE
  6
BYLAYER
  9
$CECOLOR
 62
   256
  9
$DIMSCALE
 40
1.0
  9
$DIMASZ
 40
0.1875
  9
$DIMEXO
 40
0.0625
  9
$DIMDLI
 40
0.4443307087
  9
$DIMRND
 40
0.0
  9
$DIMDLE
 40
0.0
  9
$DIMEXE
 40
0.125
  9
$DIMTP
 40
0.01
  9
$DIMTM
 40
0.01
  9
$DIMTXT
 40
2.0
  9
$DIMCEN
 40
0.1052362205
  9
$DIMTSZ
 40
0.0
  9
$DIMTOL
 70
     1
  9
$DIMLIM
 70
     0
  9
$DIMTIH
 70
     1
  9
$DIMTOH
 70
     1
  9
$DIMSE1
 70
     0
  9
$DIMSE2
 70
     0
  9
$DIMTAD
 70
     0
  9
$DIMZIN
 70
     0
  9
$DIMBLK
  1

  9
$DIMASO
 70
     1
  9
$DIMSHO
 70
     1
  9
$DIMPOST
  1
\X
  9
$DIMAPOST
  1

  9
$DIMALT
 70
     1
  9
$DIMALTD
 70
     2
  9
$DIMALTF
 40
25.3999999999999986
  9
$DIMLFAC
 40
1.0
  9
$DIMTOFL
 70
     0
  9
$DIMTVP
 40
0.0
  9
$DIMTIX
 70
     0
  9
$DIMSOXD
 70
     0
  9
$DIMSAH
 70
     0
  9
$DIMBLK1
  1

  9
$DIMBLK2
  1

  9
$DIMSTYLE
  2
STANDARD
  9
$DIMCLRD
 70
     0
  9
$DIMCLRE
 70
     0
  9
$DIMCLRT
 70
     0
  9
$DIMTFAC
 40
1.0
  9
$DIMGAP
 40
0.09
  9
$LUNITS
 70
     2
  9
$LUPREC
 70
     4
  9
$SKETCHINC
 40
0.1
  9
$FILLETRAD
 40
0.0
  9
$AUNITS
 70
     0
  9
$AUPREC
 70
     0
  9
$MENU
  1
.
  9
$ELEVATION
 40
0.0
  9
$PELEVATION
 40
0.0
  9
$THICKNESS
 40
0.0
  9
$LIMCHECK
 70
     0
  9
$BLIPMODE
 70
     0
  9
$CHAMFERA
 40
0.0
  9
$CHAMFERB
 40
0.0
  9
$SKPOLY
 70
     0
  9
$TDCREATE
 40
2458060.468368056230247
  9
$TDUPDATE
 40
2459107.4479513890109956
  9
$TDINDWG
 40
0.5714190971999999
  9
$TDUSRTIMER
 40
0.5714190971999999
  9
$USRTIMER
 70
     1
  9
$ANGBASE
 50
0.0
  9
$ANGDIR
 70
     0
  9
$PDMODE
 70
     0
  9
$PDSIZE
 40
0.3125
  9
$PLINEWID
 40
0.0
  9
$COORDS
 70
     1
  9
$SPLFRAME
 70
     0
  9
$SPLINETYPE
 70
     6
  9
$SPLINESEGS
 70
     8
  9
$ATTDIA
 70
     1
  9
$ATTREQ
 70
     1
  9
$HANDLING
 70
     1
  9
$HANDSEED
  5
152A7
  9
$SURFTAB1
 70
     6
  9
$SURFTAB2
 70
     6
  9
$SURFTYPE
 70
     6
  9
$SURFU
 70
     6
  9
$SURFV
 70
     6
  9
$UCSNAME
  2

  9
$UCSORG
 10
0.0
 20
0.0
 30
0.0
  9
$UCSXDIR
 10
1.0
 20
0.0
 30
0.0
  9
$UCSYDIR
 10
0.0
 20
1.0
 30
0.0
  9
$PUCSNAME
  2

  9
$PUCSORG
 10
0.0
 20
0.0
 30
0.0
  9
$PUCSXDIR
 10
1.0
 20
0.0
 30
0.0
  9
$PUCSYDIR
 10
0.0
 20
1.0
 30
0.0
  9
$USERI1
 70
     0
  9
$USERI2
 70
     0
  9
$USERI3
 70
     0
  9
$USERI4
 70
     0
  9
$USERI5
 70
     0
  9
$USERR1
 40
0.0
  9
$USERR2
 40
0.0
  9
$USERR3
 40
0.0
  9
$USERR4
 40
0.0
  9
$USERR5
 40
0.0
  9
$WORLDVIEW
 70
     1
  9
$SHADEDGE
 70
     3
  9
$SHADEDIF
 70
    70
  9
$TILEMODE
 70
     1
  9
$MAXACTVP
 70
    64
  9
$PLIMCHECK
 70
     0
  9
$PEXTMIN
 10
1.0000000000000000E+20
 20
1.0000000000000000E+20
 30
1.0000000000000000E+20
  9
$PEXTMAX
 10
-1.0000000000000000E+20
 20
-1.0000000000000000E+20
 30
-1.0000000000000000E+20
  9
$PLIMMIN
 10
0.0
 20
0.0
  9
$PLIMMAX
 10
12.0
 20
9.0
  9
$UNITMODE
 70
     0
  9
$VISRETAIN
 70
     1
  9
$PLINEGEN
 70
     0
  9
$PSLTSCALE
 70
     1
  0
ENDSEC
  0
SECTION
  2
TABLES
  0
TABLE
  2
VPORT
 70
     1
  0
VPORT
  2
*ACTIVE
 70
     0
 10
0.0
 20
0.0
 11
1.0
 21
1.0
 12
188.4738192207651082
 22
-36.4381344048244671
 13
0.0
 23
0.0
 14
1.0
 24
1.0
 15
0.0
 25
0.0
 16
0.0
 26
0.0
 36
96.5995694866707311
 17
3303.693115234375
 27
195.2615115758877096
 37
0.0
 40
5.2402351643362124
 41
2.6486111111111108
 42
50.0
 43
0.0
 44
0.0
 50
0.0
 51
0.0
 71
     0
 72
   100
 73
     1
 74
     1
 75
     0
 76
     0
 77
     0
 78
     0
  0
ENDTAB
  0
TABLE
  2
LTYPE
 70
     2
  0
LTYPE
  2
CONTINUOUS
 70
     0
  3
Solid line
 72
    65
 73
     0
 40
0.0
  0
LTYPE
  2
PHANTOM2
 70
     0
  3
___ _ _ ___ _ _ ___ _ _ ___ _ _
 72
    65
 73
     6
 40
1.25
 49
0.625
 49
-0.125
 49
0.125
 49
-0.125
 49
0.125
 49
-0.125
  0
ENDTAB
  0
TABLE
  2
LAYER
 70
     2
  0
LAYER
  2
0
 70
     0
 62
   255
  6
CONTINUOUS
  0
LAYER
  2
DEFPOINTS
 70
     0
 62
     7
  6
CONTINUOUS
  0
ENDTAB
  0
TABLE
  2
STYLE
 70
     1
  0
STYLE
  2
STANDARD
 70
     0
 40
0.0
 41
0.8
 50
0.0
 71
     0
 42
0.2
  3
txt
  4

  0
ENDTAB
  0
TABLE
  2
VIEW
 70
     0
  0
ENDTAB
  0
TABLE
  2
UCS
 70
     0
  0
ENDTAB
  0
TABLE
  2
APPID
 70
     9
  0
APPID
  2
ACAD
 70
     0
  0
APPID
  2
ACAD_MLEADERVER
 70
     0
  0
APPID
  2
ACAD_EXEMPT_FROM_CAD_STANDARDS
 70
     0
  0
APPID
  2
ACAD_NAV_VCDISPLAY
 70
     0
  0
APPID
  2
ACAECLAYERSTANDARD
 70
     0
  0
APPID
  2
ACCMTRANSPARENCY
 70
     0
  0
APPID
  2
ACAD_DSTYLE_DIMJAG
 70
     0
  0
APPID
  2
ACAD_DSTYLE_DIMTALN
 70
     0
  0
APPID
  2
ACDBATTR
 70
     0
  0
ENDTAB
  0
TABLE
  2
DIMSTYLE
 70
     1
  0
DIMSTYLE
  2
STANDARD
 70
     0
  3

  4

  5

  6

  7

 40
1.0
 41
0.1875
 42
0.0625
 43
0.38
 44
0.125
 45
0.0
 46
0.0
 47
0.01
 48
0.01
140
0.15625
141
0.09
142
0.0
143
25.3999999999999986
144
1.0
145
0.0
146
1.0
147
0.09
 71
     1
 72
     0
 73
     1
 74
     1
 75
     0
 76
     0
 77
     0
 78
     4
170
     0
171
     2
172
     0
173
     0
174
     0
175
     0
176
     0
177
     0
178
     0
  0
ENDTAB
  0
ENDSEC
  0
SECTION
  2
BLOCKS
  0
BLOCK
  8
0
  2
$MODEL_SPACE
 70
     0
 10
0.0
 20
0.0
 30
0.0
  3
$MODEL_SPACE
  1

  0
ENDBLK
  5
21
  8
0
  0
BLOCK
 67
     1
  8
0
  2
$PAPER_SPACE
 70
     0
 10
0.0
 20
0.0
 30
0.0
  3
$PAPER_SPACE
  1

  0
ENDBLK
  5
1D
 67
     1
  8
0
  0
BLOCK
  8
0
  2
_FILLED
 70
     0
 10
0.0
 20
0.0
 30
0.0
  3
_FILLED
  1

  0
SOLID
  5
1223D
  8
0
  6
BYBLOCK
 62
     0
 10
0.0
 20
0.0
 30
0.0
 11
-1.0
 21
0.1666666667
 31
0.0
 12
-1.0
 22
-0.1666666667
 32
0.0
 13
-1.0
 23
-0.1666666667
 33
0.0
  0
ENDBLK
  5
1223E
  8
0
  6
BYBLOCK
 62
     0
  0
ENDSEC
  0
SECTION
  2
ENTITIES
  0
ATTDEF
  5
135EF
  8
DEFPOINTS
 10
3496.4510752783558019
 20
159.8461779582841018
 30
0.0
 40
0.001
  1
K-79018T-4ND
  3

  2
MODELNUMBER
 70
     0
1001
ACDBATTR
1070
     0
1070
     1
  0
ATTDEF
  5
135F0
  8
DEFPOINTS
 10
3496.4510752783558019
 20
159.8445112916174082
 30
0.0
 40
0.001
  1
ALEO
  3

  2
TRADENAME
 70
     0
1001
ACDBATTR
1070
     0
1070
     1
  0
ATTDEF
  5
135F1
  8
DEFPOINTS
 10
3496.4510752783558019
 20
159.8428446249507999
 30
0.0
 40
0.001
  1
BATHROOM SINK FAUCET
  3

  2
PRODUCT
 70
     0
1001
ACDBATTR
1070
     0
1070
     1
  0
LINE
  5
14E2B
  8
0
 10
3496.4506533917679008
 20
161.4169442441082936
 30
0.0
 11
3496.4506533917679008
 21
158.267337927728903
 31
0.0
  0
LINE
  5
14E2C
  8
0
 10
3496.4506533917679008
 20
158.267337927728903
 30
0.0
 11
3496.3325431554690113
 21
158.267337927728903
 31
0.0
  0
ARC
  5
14E2D
  8
0
 10
3496.3325431563480379
 20
158.2870229680081025
 30
0.0
 40
0.0196850402791711
 50
180.0000010599509039
 51
269.999997441050084
  0
LINE
  5
14E2E
  8
0
 10
3496.3128581160681279
 20
158.2870229676439067
 30
0.0
 11
3496.3128581160690374
 21
161.3972591881438916
 31
0.0
  0
ARC
  5
14E2F
  8
0
 10
3496.3325431827938701
 20
161.397259176784388
 30
0.0
 40
0.0196850667244405
 50
90.0000795313288364
 51
179.9999669365876116
  0
LINE
  5
14E30
  8
0
 10
3496.3325431554690113
 20
161.4169442435087944
 30
0.0
 11
3496.4506533917679008
 21
161.4169442435087944
 31
0.0
  0
LINE
  5
14E31
  8
0
 10
3496.3128581161681723
 20
160.8067080070439943
 30
0.0
 11
3495.8758502420691912
 21
160.8067080070439943
 31
0.0
  0
ARC
  5
14E32
  8
0
 10
3495.8758502420691912
 20
160.7752119440440026
 30
0.0
 40
0.0314960629999988
 50
90.0
 51
180.0
  0
LINE
  5
14E33
  8
0
 10
3495.8443541791689313
 20
160.7870149845439016
 30
0.0
 11
3495.8443541791689313
 21
158.8972671712438967
 31
0.0
  0
ARC
  5
14E34
  8
0
 10
3495.9276434386479195
 20
160.1933882302070913
 30
0.0
 40
1.2987944026027229
 50
250.4936127617447141
 51
266.3232056343276781
  0
LINE
  5
14E35
  8
0
 10
3495.4939604783689902
 20
158.8362382162439133
 30
0.0
 11
3495.4939604783689902
 21
159.6588382096439034
 31
0.0
  0
ARC
  5
14E36
  8
0
 10
3494.903409223853032
 20
159.6588382096439034
 30
0.0
 40
0.5905512545158267
 50
0.0
 51
10.4628490527296307
  0
ARC
  5
14E37
  8
0
 10
3494.9034091443550096
 20
159.6588381949632094
 30
0.0
 40
0.5905513353580883
 50
10.4628490527296307
 51
24.9999969907470607
  0
LINE
  5
14E38
  8
0
 10
3495.4386304313429719
 20
159.9084159456702992
 30
0.0
 11
3495.0227277602439244
 21
160.8003222244020947
 31
0.0
  0
LINE
  5
14E39
  8
0
 10
3495.0227277602439244
 20
160.8003222244020947
 30
0.0
 11
3494.1750628419681561
 21
160.8003398338439069
 31
0.0
  0
ARC
  5
14E3A
  8
0
 10
3494.1750624330388746
 20
160.7806552030891964
 30
0.0
 40
0.0196846307589634
 50
89.9988097340399378
 51
179.9990067582594122
  0
LINE
  5
14E3B
  8
0
 10
3494.1553778022830556
 20
160.7806555443289938
 30
0.0
 11
3494.1552992421347881
 21
156.2488636505248962
 31
0.0
  0
ARC
  5
14E3C
  8
0
 10
3494.175153568703081
 20
156.248924653616001
 30
0.0
 40
0.0198544202836653
 50
180.1760426701432891
 51
269.572596386857299
  0
ARC
  5
14E3D
  8
0
 10
3494.0960311748399363
 20
156.4366967491505989
 30
0.0
 40
0.2234667176497229
 50
292.8042463851815
 51
306.3245301941058756
  0
ARC
  5
14E3E
  8
0
 10
3494.0414514315439192
 20
156.4828730175240992
 30
0.0
 40
0.2934715568702317
 50
309.571188371423375
 51
339.8389724990519198
  0
ARC
  5
14E3F
  8
0
 10
3493.4360952172150974
 20
156.710628607367795
 30
0.0
 40
0.9402485270259587
 50
339.5246251796370984
 51
354.6199209959311247
  0
ARC
  5
14E40
  8
0
 10
3491.1760225350190012
 20
156.9722648942610022
 30
0.0
 40
3.2152632631474041
 50
353.7542958859897908
 51
358.6083606722461923
  0
ARC
  5
14E41
  8
0
 10
3563.8273494057771131
 20
155.7061276221106141
 30
0.0
 40
69.4471748512815026
 50
178.1651693240117993
 51
179.0197787612086984
  0
ARC
  5
14E42
  8
0
 10
3508.6104227100840944
 20
156.9075480917946948
 30
0.0
 40
14.2313969930829796
 50
174.7003149024777997
 51
175.8812070261830911
  0
ARC
  5
14E43
  8
0
 10
3495.1754915000778965
 20
158.1537945029828052
 30
0.0
 40
0.7387876555600073
 50
155.6842116850789921
 51
174.7003149024777997
  0
ARC
  5
14E44
  8
0
 10
3495.2831689589520465
 20
158.1051405411882911
 30
0.0
 40
0.8569470527650112
 50
141.5327656855469058
 51
155.6842116850789921
  0
ARC
  5
14E45
  8
0
 10
3494.9567255387869409
 20
158.3299477842012095
 30
0.0
 40
0.4623006999233523
 50
111.1601694997175969
 51
138.1779181750873988
  0
ARC
  5
14E46
  8
0
 10
3495.0257577747388495
 20
158.2012579850550935
 30
0.0
 40
0.6074970615374299
 50
106.2104121278976976
 51
112.8508852989067037
  0
ARC
  5
14E47
  8
0
 10
3495.067489595700863
 20
158.3397048625097057
 30
0.0
 40
0.492536318805485
 50
98.7836520334216317
 51
115.4074664302048063
  0
ARC
  5
14E48
  8
0
 10
3495.1071999718869847
 20
158.2059874849230141
 30
0.0
 40
0.6310302582371975
 50
88.1822673125395937
 51
100.4932076568255042
  0
ARC
  5
14E49
  8
0
 10
3495.2939084327349519
 20
145.5952281584042112
 30
0.0
 40
13.2425212166254305
 50
89.1344115121782892
 51
90.7212378190983486
  0
ARC
  5
14E4A
  8
0
 10
3495.8758502420691912
 20
158.9090702117439093
 30
0.0
 40
0.0314960629999985
 50
180.0
 51
270.0
  0
LINE
  5
14E4B
  8
0
 10
3495.8758502420691912
 20
158.8775741487438893
 30
0.0
 11
3496.3128581161681723
 21
158.8775741487438893
 31
0.0
  0
ARC
  5
14E4C
  8
0
 10
3495.9276652728731278
 20
159.4907016753365951
 30
0.0
 40
1.2989876573556121
 50
93.6772116555726058
 51
125.3892807605788988
  0
ARC
  5
14E4D
  8
0
 10
3495.1799449418840595
 20
160.5432633732743
 30
0.0
 40
0.0078750281320327
 50
125.3892807605807036
 51
179.9961972499903027
  0
LINE
  5
14E4E
  8
0
 10
3495.1720699137681549
 20
160.5432638959439089
 30
0.0
 11
3495.1720657192790895
 21
160.4800658153345978
 31
0.0
  0
LINE
  5
14E4F
  8
0
 10
3494.1553705036558313
 20
160.3596296468438993
 30
0.0
 11
3487.8475596334678812
 21
160.3596296468438993
 31
0.0
  0
ARC
  5
14E50
  8
0
 10
3487.8475596334678812
 20
160.3360075995909995
 30
0.0
 40
0.0236220472529496
 50
90.0
 51
191.8900208987728035
  0
ARC
  5
14E51
  8
0
 10
3488.7915542358741732
 20
160.5347667548923027
 30
0.0
 40
0.9883142319353391
 50
191.8900208987728035
 51
228.7969794375244987
  0
ARC
  5
14E52
  8
0
 10
3477.424193098734122
 20
113.1764335306746005
 30
0.0
 40
47.8306825520615178
 50
75.8754738774698865
 51
77.0531444962958005
  0
ARC
  5
14E53
  8
0
 10
3489.207125722281944
 20
159.360401938274407
 30
0.0
 40
0.2292376744159059
 50
98.2277626749450405
 51
118.9049235128492938
  0
ARC
  5
14E54
  8
0
 10
3489.4531710508190372
 20
158.2772081670017883
 30
0.0
 40
1.3394201649961679
 50
91.7721409765262592
 51
102.0161849038585018
  0
ARC
  5
14E55
  8
0
 10
3491.2191768787911315
 20
101.1979950312778982
 30
0.0
 40
58.4459464888570892
 50
91.5026088984020873
 51
91.7721409765262592
  0
ARC
  5
14E56
  8
0
 10
3489.7511269548131168
 20
134.0692841630105931
 30
0.0
 40
25.5546411842781112
 50
87.9535495665829501
 51
90.1447201650608037
  0
ARC
  5
14E57
  8
0
 10
3488.9524400094369412
 20
110.3397393032254996
 30
0.0
 40
49.2975968852459374
 50
83.9416684569940657
 51
88.0107289986786299
  0
LINE
  5
14E58
  8
0
 10
3488.2708656722288652
 20
159.7610220496202089
 30
0.0
 11
3488.2671983065679342
 21
159.7466577827439096
 31
0.0
  0
ARC
  5
14E59
  8
0
 10
3488.3042209054988234
 20
159.7372054793883933
 30
0.0
 40
0.0382101932773557
 50
165.6776797019763876
 51
212.1223201912079048
  0
LINE
  5
14E5A
  8
0
 10
3488.2718601255810427
 20
159.7168880289241883
 30
0.0
 11
3488.2778691226681076
 21
159.7070437114352046
 31
0.0
  0
LINE
  5
14E5B
  8
0
 10
3488.2778680069691291
 20
159.707045539243893
 30
0.0
 11
3488.9283930861688532
 21
159.5497287197439107
 31
0.0
  0
LINE
  5
14E5C
  8
0
 10
3488.9283930861688532
 20
159.5497287197439107
 30
0.0
 11
3488.9382355760249084
 21
159.555674841070811
 31
0.0
  0
ARC
  5
14E5D
  8
0
 10
3488.9177233856680687
 20
159.5892792030439011
 30
0.0
 40
0.0393700787000041
 50
301.4000002516248173
 51
346.4000000026754833
  0
LINE
  5
14E5E
  8
0
 10
3488.9559895667548517
 20
159.5800216395471978
 30
0.0
 11
3488.9596745758631187
 21
159.5952536415612997
 31
0.0
  0
ARC
  5
14E5F
  8
0
 10
3488.7325247134681376
 20
160.1522137855965013
 30
0.0
 40
0.5988558337829907
 50
230.6955618475180074
 51
251.2489587759731933
  0
LINE
  5
14E60
  8
0
 10
3488.5400185091680214
 20
159.5851426516441904
 30
0.0
 11
3488.5533845110740003
 21
159.6403910819657028
 31
0.0
  0
LINE
  5
14E61
  8
0
 10
3488.5197965999300322
 20
159.6354999879332013
 30
0.0
 11
3488.5166026371221051
 21
159.6222977613921898
 31
0.0
  0
LINE
  5
14E62
  8
0
 10
3488.5166026371221051
 20
159.6222977613921898
 30
0.0
 11
3488.515780352389811
 21
159.6224685300616954
 31
0.0
  0
LINE
  5
14E63
  8
0
 10
3488.515780352389811
 20
159.6224685300616954
 30
0.0
 11
3488.5006271469028434
 21
159.6323324202365939
 31
0.0
  0
LINE
  5
14E64
  8
0
 10
3488.5006271469028434
 20
159.6323324202365939
 30
0.0
 11
3488.5022725111580257
 21
159.6391335238213003
 31
0.0
  0
LINE
  5
14E65
  8
0
 10
3488.5022725111580257
 20
159.6391335238213003
 30
0.0
 11
3488.5190557981159145
 21
159.6360075658531059
 31
0.0
  0
LINE
  5
14E66
  8
0
 10
3488.5190557981159145
 20
159.6360075658531059
 30
0.0
 11
3488.5197965999332155
 21
159.6354999879449963
 31
0.0
  0
LINE
  5
14E67
  8
0
 10
3488.519055798026784
 20
159.6360075657242987
 30
0.0
 11
3488.515780352389811
 21
159.6224685300616954
 31
0.0
  0
LINE
  5
14E68
  8
0
 10
3488.4980896544188909
 20
159.6218437098405047
 30
0.0
 11
3488.4969491596389162
 21
159.6171294812234862
 31
0.0
  0
LINE
  5
14E69
  8
0
 10
3488.4969491596389162
 20
159.6171294812234862
 30
0.0
 11
3488.5123659966297964
 21
159.608355311983388
 31
0.0
  0
LINE
  5
14E6A
  8
0
 10
3488.5123659966297964
 20
159.608355311983388
 30
0.0
 11
3488.5131770314051209
 21
159.6081380401203091
 31
0.0
  0
LINE
  5
14E6B
  8
0
 10
3488.5131770314051209
 20
159.6081380401203091
 30
0.0
 11
3488.5153915189412146
 21
159.6172916115012015
 31
0.0
  0
LINE
  5
14E6C
  8
0
 10
3488.5153915189412146
 20
159.6172916115012015
 30
0.0
 11
3488.5146369403751123
 21
159.6177422431574087
 31
0.0
  0
LINE
  5
14E6D
  8
0
 10
3488.5146369403751123
 20
159.6177422431574087
 30
0.0
 11
3488.4980896544811912
 21
159.6218437098239065
 31
0.0
  0
LINE
  5
14E6E
  8
0
 10
3488.4946268628818871
 20
159.6075302809393861
 30
0.0
 11
3488.4952982468280425
 21
159.610305442761188
 31
0.0
  0
LINE
  5
14E6F
  8
0
 10
3488.4952982468280425
 20
159.610305442761188
 30
0.0
 11
3488.5116218758162177
 21
159.605279491589414
 31
0.0
  0
LINE
  5
14E70
  8
0
 10
3488.5116218758162177
 20
159.605279491589414
 30
0.0
 11
3488.5123888405901198
 21
159.6048800579600879
 31
0.0
  0
LINE
  5
14E71
  8
0
 10
3488.5123888405901198
 20
159.6048800579600879
 30
0.0
 11
3488.5110850151581872
 21
159.5994907032066124
 31
0.0
  0
LINE
  5
14E72
  8
0
 10
3488.5110850151581872
 20
159.5994907032066124
 30
0.0
 11
3488.5102691671982029
 21
159.5996880780857907
 31
0.0
  0
LINE
  5
14E73
  8
0
 10
3488.5102691671982029
 20
159.5996880780857907
 30
0.0
 11
3488.4946268628818871
 21
159.6075302809393861
 31
0.0
  0
LINE
  5
14E74
  8
0
 10
3488.4935911838219909
 20
159.6032493077765082
 30
0.0
 11
3488.4938129290171673
 21
159.6041658902493054
 31
0.0
  0
LINE
  5
14E75
  8
0
 10
3488.4938129290171673
 20
159.6041658902493054
 30
0.0
 11
3488.5099179009412182
 21
159.5982361212444971
 31
0.0
  0
LINE
  5
14E76
  8
0
 10
3488.5099179009412182
 20
159.5982361212444971
 30
0.0
 11
3488.5106963588591498
 21
159.5978841945029103
 31
0.0
  0
LINE
  5
14E77
  8
0
 10
3488.5106963588591498
 20
159.5978841945029103
 30
0.0
 11
3488.510271407700202
 21
159.5961276612138136
 31
0.0
  0
LINE
  5
14E78
  8
0
 10
3488.5094840927408768
 20
159.5964429774736004
 30
0.0
 11
3488.5099179026428828
 21
159.5982361206177131
 31
0.0
  0
LINE
  5
14E79
  8
0
 10
3488.4935911837960703
 20
159.6032493076749859
 30
0.0
 11
3488.5016674288108334
 21
159.599644130460689
 31
0.0
  0
LINE
  5
14E7A
  8
0
 10
3488.5090387751088201
 20
159.6511194445837134
 30
0.0
 11
3488.520635969318846
 21
159.6425391942005092
 31
0.0
  0
LINE
  5
14E7B
  8
0
 10
3488.520635969318846
 20
159.6425391942005092
 30
0.0
 11
3488.5214518172770113
 21
159.6423418193139128
 31
0.0
  0
LINE
  5
14E7C
  8
0
 10
3488.5214518172770113
 20
159.6423418193139128
 30
0.0
 11
3488.5227715979408458
 21
159.6477971250888004
 31
0.0
  0
LINE
  5
14E7D
  8
0
 10
3488.5219557498171525
 20
159.6479944995224116
 30
0.0
 11
3488.520635969318846
 21
159.6425391942005092
 31
0.0
  0
LINE
  5
14E7E
  8
0
 10
3488.5045995558239156
 20
159.6521934047561047
 30
0.0
 11
3488.5107401877257871
 21
159.6475267751741001
 31
0.0
  0
LINE
  5
14E7F
  8
0
 10
3488.5107401877257871
 20
159.6475267751741001
 30
0.0
 11
3488.5088263384141101
 21
159.6396158899653983
 31
0.0
  0
LINE
  5
14E80
  8
0
 10
3488.5088263384141101
 20
159.6396158899653983
 30
0.0
 11
3488.492129409853078
 21
159.6430988096319084
 31
0.0
  0
LINE
  5
14E81
  8
0
 10
3488.492129409853078
 20
159.6430988096319084
 30
0.0
 11
3488.4773425943099028
 21
159.6544771705619894
 31
0.0
  0
LINE
  5
14E82
  8
0
 10
3488.4773425943099028
 20
159.6544771705619894
 30
0.0
 11
3488.4783277311789789
 21
159.6585492280453877
 31
0.0
  0
LINE
  5
14E83
  8
0
 10
3488.492129409853078
 20
159.6430988096319084
 30
0.0
 11
3488.4948956921662102
 21
159.6545332213773065
 31
0.0
  0
LINE
  5
14E84
  8
0
 10
3488.451267353428193
 20
159.6650866269995106
 30
0.0
 11
3488.4676487828792233
 21
159.6602995933093041
 31
0.0
  0
LINE
  5
14E85
  8
0
 10
3488.4676487828792233
 20
159.6602995933093041
 30
0.0
 11
3488.4823371111060624
 21
159.6485141361513058
 31
0.0
  0
LINE
  5
14E86
  8
0
 10
3488.4823371111060624
 20
159.6485141361513058
 30
0.0
 11
3488.4806784298111779
 21
159.6416579866778989
 31
0.0
  0
LINE
  5
14E87
  8
0
 10
3488.4806784298111779
 20
159.6416579866778989
 30
0.0
 11
3488.4643042595771476
 21
159.6464750259708012
 31
0.0
  0
LINE
  5
14E88
  8
0
 10
3488.4643042595771476
 20
159.6464750259708012
 30
0.0
 11
3488.44959419534689
 21
159.6581706377752994
 31
0.0
  0
LINE
  5
14E89
  8
0
 10
3488.44959419534689
 20
159.6581706377752994
 30
0.0
 11
3488.451267353428193
 21
159.6650866269995106
 31
0.0
  0
LINE
  5
14E8A
  8
0
 10
3488.4643042595771476
 20
159.6464750259708012
 30
0.0
 11
3488.4676487827791789
 21
159.6602995933263003
 31
0.0
  0
LINE
  5
14E8B
  8
0
 10
3488.4225243637438325
 20
159.6646689595087878
 30
0.0
 11
3488.4239679506290486
 21
159.6706360173583903
 31
0.0
  0
LINE
  5
14E8C
  8
0
 10
3488.4166112111111033
 20
159.6734800256162998
 30
0.0
 11
3488.4400073975098167
 21
159.6644354010028906
 31
0.0
  0
LINE
  5
14E8D
  8
0
 10
3488.4400073975098167
 20
159.6644354010028906
 30
0.0
 11
3488.4546174474830877
 21
159.6523263808537081
 31
0.0
  0
LINE
  5
14E8E
  8
0
 10
3488.4546174474830877
 20
159.6523263808537081
 30
0.0
 11
3488.4532016947650845
 21
159.6464743752223114
 31
0.0
  0
LINE
  5
14E8F
  8
0
 10
3488.4532016947650845
 20
159.6464743752223114
 30
0.0
 11
3488.4371483289151001
 21
159.6526174575353139
 31
0.0
  0
LINE
  5
14E90
  8
0
 10
3488.4371483289151001
 20
159.6526174575353139
 30
0.0
 11
3488.422524363795219
 21
159.6646689595399096
 31
0.0
  0
LINE
  5
14E91
  8
0
 10
3488.4371483303298191
 20
159.6526174563699101
 30
0.0
 11
3488.4400073987740143
 21
159.6644353999558064
 31
0.0
  0
LINE
  5
14E92
  8
0
 10
3488.3971077507940208
 20
159.6781984092451978
 30
0.0
 11
3488.4130489429639965
 21
159.6713940989405955
 31
0.0
  0
LINE
  5
14E93
  8
0
 10
3488.4130489429639965
 20
159.6713940989405955
 30
0.0
 11
3488.427570577905044
 21
159.6589196160365134
 31
0.0
  0
LINE
  5
14E94
  8
0
 10
3488.427570577905044
 20
159.6589196160365134
 30
0.0
 11
3488.4263895957010391
 21
159.6540380328972901
 31
0.0
  0
LINE
  5
14E95
  8
0
 10
3488.4263895957010391
 20
159.6540380328972901
 30
0.0
 11
3488.4106600870009061
 21
159.6615197767590928
 31
0.0
  0
LINE
  5
14E96
  8
0
 10
3488.4106600870009061
 20
159.6615197767590928
 30
0.0
 11
3488.3961329133971958
 21
159.6739713659837037
 31
0.0
  0
LINE
  5
14E97
  8
0
 10
3488.3961329133971958
 20
159.6739713659837037
 30
0.0
 11
3488.3971574795318702
 21
159.6781771831186916
 31
0.0
  0
LINE
  5
14E98
  8
0
 10
3488.4130489429639965
 20
159.6713940989405955
 30
0.0
 11
3488.4106600872560193
 21
159.6615197766377889
 31
0.0
  0
LINE
  5
14E99
  8
0
 10
3488.4194184771590699
 20
159.6518307952956093
 30
0.0
 11
3488.4203558751669334
 21
159.6557055246607035
 31
0.0
  0
LINE
  5
14E9A
  8
0
 10
3488.4203558751669334
 20
159.6557055246607035
 30
0.0
 11
3488.4361760825368037
 21
159.6485986830591912
 31
0.0
  0
LINE
  5
14E9B
  8
0
 10
3488.4361760825368037
 20
159.6485986830591912
 30
0.0
 11
3488.4510738776648395
 21
159.6376790555397918
 31
0.0
  0
LINE
  5
14E9C
  8
0
 10
3488.4510738776648395
 20
159.6376790555397918
 30
0.0
 11
3488.4501536518041576
 21
159.6338753072195118
 31
0.0
  0
LINE
  5
14E9D
  8
0
 10
3488.4501536518041576
 20
159.6338753072195118
 30
0.0
 11
3488.4343186615278682
 21
159.6409210437950037
 31
0.0
  0
LINE
  5
14E9E
  8
0
 10
3488.4343186615278682
 20
159.6409210437950037
 30
0.0
 11
3488.4194184771590699
 21
159.6518307952956093
 31
0.0
  0
LINE
  5
14E9F
  8
0
 10
3488.4343186615278682
 20
159.6409210437950037
 30
0.0
 11
3488.4361760825368037
 21
159.6485986830591912
 31
0.0
  0
LINE
  5
14EA0
  8
0
 10
3488.4434545051931309
 20
159.6327922644071862
 30
0.0
 11
3488.4441408509160283
 21
159.635629270476187
 31
0.0
  0
LINE
  5
14EA1
  8
0
 10
3488.4441408509160283
 20
159.635629270476187
 30
0.0
 11
3488.4600630459949571
 21
159.6289439944690116
 31
0.0
  0
LINE
  5
14EA2
  8
0
 10
3488.4600630459949571
 20
159.6289439944690116
 30
0.0
 11
3488.4753086520931902
 21
159.6194620419564103
 31
0.0
  0
LINE
  5
14EA3
  8
0
 10
3488.4753086520931902
 20
159.6194620419564103
 30
0.0
 11
3488.4746323482918342
 21
159.6166665437702079
 31
0.0
  0
LINE
  5
14EA4
  8
0
 10
3488.4746323482918342
 20
159.6166665437702079
 30
0.0
 11
3488.4587004940722181
 21
159.6233118939335043
 31
0.0
  0
LINE
  5
14EA5
  8
0
 10
3488.4587004940722181
 20
159.6233118939335043
 30
0.0
 11
3488.4434545051931309
 21
159.6327922644071862
 31
0.0
  0
LINE
  5
14EA6
  8
0
 10
3488.4458292168787921
 20
159.6426081212347015
 30
0.0
 11
3488.4469961505878928
 21
159.6474316348268019
 31
0.0
  0
LINE
  5
14EA7
  8
0
 10
3488.4469961505878928
 20
159.6474316348268019
 30
0.0
 11
3488.4631375638559803
 21
159.6416524964768087
 31
0.0
  0
LINE
  5
14EA8
  8
0
 10
3488.4631375638559803
 20
159.6416524964768087
 30
0.0
 11
3488.4781210568357892
 21
159.6310871003024943
 31
0.0
  0
LINE
  5
14EA9
  8
0
 10
3488.4781210568357892
 20
159.6310871003024943
 30
0.0
 11
3488.4769718757729606
 21
159.6263369672244039
 31
0.0
  0
LINE
  5
14EAA
  8
0
 10
3488.4769718757729606
 20
159.6263369672244039
 30
0.0
 11
3488.4608215853568254
 21
159.632079412294388
 31
0.0
  0
LINE
  5
14EAB
  8
0
 10
3488.4608215853568254
 20
159.632079412294388
 30
0.0
 11
3488.445829216886068
 21
159.6426081212289887
 31
0.0
  0
LINE
  5
14EAC
  8
0
 10
3488.4176822339500177
 20
159.6446540439185924
 30
0.0
 11
3488.4181438958949002
 21
159.6465623210351055
 31
0.0
  0
LINE
  5
14EAD
  8
0
 10
3488.4181438958949002
 20
159.6465623210351055
 30
0.0
 11
3488.4337469504698674
 21
159.638557879563308
 31
0.0
  0
LINE
  5
14EAE
  8
0
 10
3488.4337469504698674
 20
159.638557879563308
 30
0.0
 11
3488.4489020357909794
 21
159.6287017599948115
 31
0.0
  0
LINE
  5
14EAF
  8
0
 10
3488.4489020357909794
 20
159.6287017599948115
 30
0.0
 11
3488.4484485850070996
 21
159.6268274237247908
 31
0.0
  0
LINE
  5
14EB0
  8
0
 10
3488.4484485850070996
 20
159.6268274237247908
 30
0.0
 11
3488.4328319440560335
 21
159.6347757061004984
 31
0.0
  0
LINE
  5
14EB1
  8
0
 10
3488.4328319440560335
 20
159.6347757061004984
 30
0.0
 11
3488.4176822339450155
 21
159.6446540438982993
 31
0.0
  0
LINE
  5
14EB2
  8
0
 10
3488.4328319464120796
 20
159.6347757049016991
 30
0.0
 11
3488.4337469511160634
 21
159.6385578791424109
 31
0.0
  0
LINE
  5
14EB3
  8
0
 10
3488.3569306327008235
 20
159.6879182770630052
 30
0.0
 11
3488.3593324655507786
 21
159.6861399782511057
 31
0.0
  0
LINE
  5
14EB4
  8
0
 10
3488.3593324655507786
 20
159.6861399782511057
 30
0.0
 11
3488.3739114547170175
 21
159.6739025686503908
 31
0.0
  0
LINE
  5
14EB5
  8
0
 10
3488.3739114547170175
 20
159.6739025686503908
 30
0.0
 11
3488.373673517836778
 21
159.6729190576427015
 31
0.0
  0
LINE
  5
14EB6
  8
0
 10
3488.373673517836778
 20
159.6729190576427015
 30
0.0
 11
3488.3719450103499184
 21
159.6740813903803939
 31
0.0
  0
LINE
  5
14EB7
  8
0
 10
3488.3593324655389551
 20
159.6861399782607123
 30
0.0
 11
3488.3588699730071312
 21
159.684228268099389
 31
0.0
  0
LINE
  5
14EB8
  8
0
 10
3488.3609242610609726
 20
159.6869521166809136
 30
0.0
 11
3488.3747853294457855
 21
159.6775147245562039
 31
0.0
  0
LINE
  5
14EB9
  8
0
 10
3488.3747853294457855
 20
159.6775147245562039
 30
0.0
 11
3488.3755067632419014
 21
159.6804967671162103
 31
0.0
  0
LINE
  5
14EBA
  8
0
 10
3488.3755067632419014
 20
159.6804967671162103
 30
0.0
 11
3488.3711088443910739
 21
159.6844882066631897
 31
0.0
  0
LINE
  5
14EBB
  8
0
 10
3488.3725796164899293
 20
159.6841323894450113
 30
0.0
 11
3488.3848485393978081
 21
159.6732192082002939
 31
0.0
  0
LINE
  5
14EBC
  8
0
 10
3488.3848485393978081
 20
159.6732192082002939
 30
0.0
 11
3488.4002459689681928
 21
159.6643648166974003
 31
0.0
  0
LINE
  5
14EBD
  8
0
 10
3488.4002459689681928
 20
159.6643648166974003
 30
0.0
 11
3488.4011966842667789
 21
159.6682945927969115
 31
0.0
  0
LINE
  5
14EBE
  8
0
 10
3488.4011966842667789
 20
159.6682945927969115
 30
0.0
 11
3488.3874798270448991
 21
159.6805276491369909
 31
0.0
  0
LINE
  5
14EBF
  8
0
 10
3488.3866643690521414
 20
159.6807249291879884
 30
0.0
 11
3488.3848485395178614
 21
159.6732192081279891
 31
0.0
  0
LINE
  5
14EC0
  8
0
 10
3488.3686240478082254
 20
159.6786549431787137
 30
0.0
 11
3488.3691042463578924
 21
159.6806398409665917
 31
0.0
  0
LINE
  5
14EC1
  8
0
 10
3488.3691042463578924
 20
159.6806398409665917
 30
0.0
 11
3488.3842559737549891
 21
159.670769841314609
 31
0.0
  0
LINE
  5
14EC2
  8
0
 10
3488.3842559737549891
 20
159.670769841314609
 30
0.0
 11
3488.398953592432008
 21
159.6590227858881974
 31
0.0
  0
LINE
  5
14EC3
  8
0
 10
3488.398953592432008
 20
159.6590227858881974
 30
0.0
 11
3488.3984855718831568
 21
159.6570882256878861
 31
0.0
  0
LINE
  5
14EC4
  8
0
 10
3488.3984855718831568
 20
159.6570882256878861
 30
0.0
 11
3488.3833079844062013
 21
159.666851332824109
 31
0.0
  0
LINE
  5
14EC5
  8
0
 10
3488.3833079844062013
 20
159.666851332824109
 30
0.0
 11
3488.3686240478477885
 21
159.6786549432083859
 31
0.0
  0
LINE
  5
14EC6
  8
0
 10
3488.3833079844062013
 20
159.6668513328239953
 30
0.0
 11
3488.3842559762538258
 21
159.6707698393167902
 31
0.0
  0
LINE
  5
14EC7
  8
0
 10
3488.3943861132311213
 20
159.6667509776683005
 30
0.0
 11
3488.3936764600830429
 21
159.6638176304387002
 31
0.0
  0
LINE
  5
14EC8
  8
0
 10
3488.3936764600830429
 20
159.6638176304387002
 30
0.0
 11
3488.4084745615277825
 21
159.6524859200723085
 31
0.0
  0
LINE
  5
14EC9
  8
0
 10
3488.4084745615277825
 20
159.6524859200723085
 30
0.0
 11
3488.4239870712867742
 21
159.6441072121266131
 31
0.0
  0
LINE
  5
14ECA
  8
0
 10
3488.4239870712867742
 20
159.6441072121266131
 30
0.0
 11
3488.4246813509630556
 21
159.6469770131213863
 31
0.0
  0
LINE
  5
14ECB
  8
0
 10
3488.4246813509630556
 20
159.6469770131213863
 30
0.0
 11
3488.4098782573041717
 21
159.6582880885030136
 31
0.0
  0
LINE
  5
14ECC
  8
0
 10
3488.4098782573041717
 20
159.6582880885030136
 30
0.0
 11
3488.3943861132897837
 21
159.6667509776806924
 31
0.0
  0
LINE
  5
14ECD
  8
0
 10
3488.4098782546989241
 20
159.6582880899252075
 30
0.0
 11
3488.4084745615277825
 21
159.6524859200725075
 31
0.0
  0
LINE
  5
14ECE
  8
0
 10
3488.3925825485230234
 20
159.6592959533680016
 30
0.0
 11
3488.3928166805139881
 21
159.6602637365228929
 31
0.0
  0
LINE
  5
14ECF
  8
0
 10
3488.3928166805139881
 20
159.6602637365228929
 30
0.0
 11
3488.4080895935571789
 21
159.6508946570650949
 31
0.0
  0
LINE
  5
14ED0
  8
0
 10
3488.4080895935571789
 20
159.6508946570650949
 30
0.0
 11
3488.4231456983011412
 21
159.6406294019841994
 31
0.0
  0
LINE
  5
14ED1
  8
0
 10
3488.4231456983011412
 20
159.6406294019841994
 30
0.0
 11
3488.4229165375891171
 21
159.6396821672867077
 31
0.0
  0
LINE
  5
14ED2
  8
0
 10
3488.4229165375891171
 20
159.6396821672867077
 30
0.0
 11
3488.4076627453177935
 21
159.6491302822832949
 31
0.0
  0
LINE
  5
14ED3
  8
0
 10
3488.4076627453177935
 20
159.6491302822832949
 30
0.0
 11
3488.3925825485230234
 21
159.6592959533680016
 31
0.0
  0
LINE
  5
14ED4
  8
0
 10
3488.4080895955958113
 20
159.650894655675188
 30
0.0
 11
3488.4076627453177935
 21
159.6491302822832949
 31
0.0
  0
LINE
  5
14ED5
  8
0
 10
3488.4631375639592079
 20
159.6416524964012069
 30
0.0
 11
3488.4608215853199908
 21
159.6320794123203086
 31
0.0
  0
LINE
  5
14ED6
  8
0
 10
3488.4600630460540742
 20
159.6289439944312107
 30
0.0
 11
3488.4587004928212082
 21
159.6233118947112928
 31
0.0
  0
LINE
  5
14ED7
  8
0
 10
3488.4423960443941723
 20
159.6284171228267894
 30
0.0
 11
3488.4426226371301709
 21
159.6293537424811859
 31
0.0
  0
LINE
  5
14ED8
  8
0
 10
3488.4426226371301709
 20
159.6293537424811859
 30
0.0
 11
3488.4583266618901689
 21
159.6217666608665979
 31
0.0
  0
LINE
  5
14ED9
  8
0
 10
3488.4583266618901689
 20
159.6217666608665979
 30
0.0
 11
3488.4738125156718525
 21
159.6132777704629007
 31
0.0
  0
LINE
  5
14EDA
  8
0
 10
3488.4738125156718525
 20
159.6132777704629007
 30
0.0
 11
3488.4735891757941317
 21
159.6123545964923096
 31
0.0
  0
LINE
  5
14EDB
  8
0
 10
3488.4735891757941317
 20
159.6123545964923096
 30
0.0
 11
3488.4708429135180268
 21
159.6135571739872034
 31
0.0
  0
LINE
  5
14EDC
  8
0
 10
3488.4423960443900796
 20
159.6284171228288926
 30
0.0
 11
3488.4466208838089187
 21
159.6260129590648944
 31
0.0
  0
LINE
  5
14EDD
  8
0
 10
3488.4583266619388269
 20
159.6217666607429067
 30
0.0
 11
3488.4579078166912041
 21
159.6200353665855118
 31
0.0
  0
LINE
  5
14EDE
  8
0
 10
3488.4743004209199171
 20
159.641902364274614
 30
0.0
 11
3488.4728987165722174
 21
159.6361084279174918
 31
0.0
  0
LINE
  5
14EDF
  8
0
 10
3488.4728987165722174
 20
159.6361084279174918
 30
0.0
 11
3488.4879750105278617
 21
159.6259266241862917
 31
0.0
  0
LINE
  5
14EE0
  8
0
 10
3488.4879750105278617
 20
159.6259266241862917
 30
0.0
 11
3488.5045447506499841
 21
159.6219179719745114
 31
0.0
  0
LINE
  5
14EE1
  8
0
 10
3488.5045447506499841
 20
159.6219179719745114
 30
0.0
 11
3488.5058227212939528
 21
159.6272004560040045
 31
0.0
  0
LINE
  5
14EE2
  8
0
 10
3488.5058227212939528
 20
159.6272004560040045
 30
0.0
 11
3488.4907612084871289
 21
159.6374433571835141
 31
0.0
  0
LINE
  5
14EE3
  8
0
 10
3488.4907612084871289
 20
159.6374433571835141
 30
0.0
 11
3488.4741914683659161
 21
159.6414520095615046
 31
0.0
  0
LINE
  5
14EE4
  8
0
 10
3488.4707914519131009
 20
159.6273980615085009
 30
0.0
 11
3488.4698799122820674
 21
159.6236302178971869
 31
0.0
  0
LINE
  5
14EE5
  8
0
 10
3488.4698799122820674
 20
159.6236302178971869
 30
0.0
 11
3488.4852144559058615
 21
159.6145158880177917
 31
0.0
  0
LINE
  5
14EE6
  8
0
 10
3488.4852144559058615
 20
159.6145158880177917
 30
0.0
 11
3488.5014551600070263
 21
159.6091471670630995
 31
0.0
  0
LINE
  5
14EE7
  8
0
 10
3488.5014551600070263
 20
159.6091471670630995
 30
0.0
 11
3488.5023560656090922
 21
159.6128710549295135
 31
0.0
  0
LINE
  5
14EE8
  8
0
 10
3488.5023560656090922
 20
159.6128710549295135
 30
0.0
 11
3488.4870268387289798
 21
159.6220073615891124
 31
0.0
  0
LINE
  5
14EE9
  8
0
 10
3488.4870268387289798
 20
159.6220073615891124
 30
0.0
 11
3488.4707914519058249
 21
159.6273980614913057
 31
0.0
  0
LINE
  5
14EEA
  8
0
 10
3488.4681906287501079
 20
159.6166475739321129
 30
0.0
 11
3488.4686399209899719
 21
159.6185047208772119
 31
0.0
  0
LINE
  5
14EEB
  8
0
 10
3488.4686399209899719
 20
159.6185047208772119
 30
0.0
 11
3488.4846563614519255
 21
159.6122090078457063
 31
0.0
  0
LINE
  5
14EEC
  8
0
 10
3488.4846563614519255
 20
159.6122090078457063
 30
0.0
 11
3488.5002294072041877
 21
159.6040805248894969
 31
0.0
  0
LINE
  5
14EED
  8
0
 10
3488.5002294072041877
 20
159.6040805248894969
 30
0.0
 11
3488.4995788670908041
 21
159.6023206575065956
 31
0.0
  0
LINE
  5
14EEE
  8
0
 10
3488.4995788670908041
 20
159.6023206575065956
 30
0.0
 11
3488.4837629125509011
 21
159.608515941926612
 31
0.0
  0
LINE
  5
14EEF
  8
0
 10
3488.4837629125509011
 20
159.608515941926612
 30
0.0
 11
3488.4681906287501079
 21
159.6166475739321129
 31
0.0
  0
LINE
  5
14EF0
  8
0
 10
3488.4837629115409072
 20
159.608515942322299
 30
0.0
 11
3488.4846563615269588
 21
159.6122090079034876
 31
0.0
  0
LINE
  5
14EF1
  8
0
 10
3488.4852144558949476
 20
159.6145158880034955
 30
0.0
 11
3488.4870268386639509
 21
159.6220073615722015
 31
0.0
  0
LINE
  5
14EF2
  8
0
 10
3488.4907612084871289
 20
159.6374433571835141
 30
0.0
 11
3488.4879750105278617
 21
159.6259266241862917
 31
0.0
  0
LINE
  5
14EF3
  8
0
 10
3488.5102691671982029
 20
159.5996880780857907
 30
0.0
 11
3488.5116512785111809
 21
159.6052641787574089
 31
0.0
  0
LINE
  5
14EF4
  8
0
 10
3488.5124142530380595
 20
159.6083423843506068
 30
0.0
 11
3488.5147379296658983
 21
159.6177172116071858
 31
0.0
  0
ARC
  5
14EF5
  8
0
 10
3488.7275015895370416
 20
160.1534383709916085
 30
0.0
 40
0.5988558337829907
 50
261.5510412619760245
 51
282.1024304459581913
  0
LINE
  5
14EF6
  8
0
 10
3488.6395127201690229
 20
159.5610818326441915
 30
0.0
 11
3488.6528765820630724
 21
159.6163214168221884
 31
0.0
  0
LINE
  5
14EF7
  8
0
 10
3488.6805166513508993
 20
159.5966270792877992
 30
0.0
 11
3488.6773227037929246
 21
159.5834248490575078
 31
0.0
  0
LINE
  5
14EF8
  8
0
 10
3488.6773227037929246
 20
159.5834248490575078
 30
0.0
 11
3488.6781321153021054
 21
159.5832008688622068
 31
0.0
  0
LINE
  5
14EF9
  8
0
 10
3488.6781321153021054
 20
159.5832008688622068
 30
0.0
 11
3488.6961183881198849
 21
159.5850474754838899
 31
0.0
  0
LINE
  5
14EFA
  8
0
 10
3488.6961183881198849
 20
159.5850474754838899
 30
0.0
 11
3488.6977637445570508
 21
159.5918485809600043
 31
0.0
  0
LINE
  5
14EFB
  8
0
 10
3488.6977637445570508
 20
159.5918485809600043
 30
0.0
 11
3488.6814075454290105
 21
159.5967399084277929
 31
0.0
  0
LINE
  5
14EFC
  8
0
 10
3488.6814075454290105
 20
159.5967399084277929
 30
0.0
 11
3488.6805166513540826
 21
159.5966270792997932
 31
0.0
  0
LINE
  5
14EFD
  8
0
 10
3488.6814075454490194
 20
159.5967399082724967
 30
0.0
 11
3488.6781321153021054
 21
159.5832008688622068
 31
0.0
  0
LINE
  5
14EFE
  8
0
 10
3488.6935809077090198
 20
159.5745587621669017
 30
0.0
 11
3488.6924404183150727
 21
159.5698445322474015
 31
0.0
  0
LINE
  5
14EFF
  8
0
 10
3488.6924404183150727
 20
159.5698445322474015
 30
0.0
 11
3488.6747177765009837
 21
159.5690876466811972
 31
0.0
  0
LINE
  5
14F00
  8
0
 10
3488.6747177765009837
 20
159.5690876466811972
 30
0.0
 11
3488.6738971143740855
 21
159.569265123842797
 31
0.0
  0
LINE
  5
14F01
  8
0
 10
3488.6738971143740855
 20
159.569265123842797
 30
0.0
 11
3488.6761115913977847
 21
159.5784186977670061
 31
0.0
  0
LINE
  5
14F02
  8
0
 10
3488.6761115913977847
 20
159.5784186977670061
 30
0.0
 11
3488.676988708726185
 21
159.5784745806421938
 31
0.0
  0
LINE
  5
14F03
  8
0
 10
3488.676988708726185
 20
159.5784745806421938
 30
0.0
 11
3488.6935809076471742
 21
159.574558762180601
 31
0.0
  0
LINE
  5
14F04
  8
0
 10
3488.6901181325301877
 20
159.5602453293084011
 30
0.0
 11
3488.690789513369964
 21
159.5630204918817867
 31
0.0
  0
LINE
  5
14F05
  8
0
 10
3488.690789513369964
 20
159.5630204918817867
 30
0.0
 11
3488.6739736586118852
 21
159.5660118255796078
 31
0.0
  0
LINE
  5
14F06
  8
0
 10
3488.6739736586118852
 20
159.5660118255796078
 30
0.0
 11
3488.6731089273012003
 21
159.5660071407772023
 31
0.0
  0
LINE
  5
14F07
  8
0
 10
3488.6731089273012003
 20
159.5660071407772023
 30
0.0
 11
3488.6718051081061276
 21
159.5606177845149034
 31
0.0
  0
LINE
  5
14F08
  8
0
 10
3488.6718051081061276
 20
159.5606177845149034
 30
0.0
 11
3488.672620956287119
 21
159.5604204105534052
 31
0.0
  0
LINE
  5
14F09
  8
0
 10
3488.672620956287119
 20
159.5604204105534052
 30
0.0
 11
3488.6901181325301877
 21
159.5602453293084011
 31
0.0
  0
LINE
  5
14F0A
  8
0
 10
3488.6890824584870643
 20
159.5559643549318025
 30
0.0
 11
3488.6893042026272269
 21
159.5568809376599972
 31
0.0
  0
LINE
  5
14F0B
  8
0
 10
3488.6893042026272269
 20
159.5568809376599972
 30
0.0
 11
3488.6722696917859139
 21
159.5589684532874912
 31
0.0
  0
LINE
  5
14F0C
  8
0
 10
3488.6722696917859139
 20
159.5589684532874912
 30
0.0
 11
3488.6714164535828786
 21
159.5590112753816072
 31
0.0
  0
LINE
  5
14F0D
  8
0
 10
3488.6714164535828786
 20
159.5590112753816072
 30
0.0
 11
3488.6709915043788897
 21
159.5572547416196869
 31
0.0
  0
LINE
  5
14F0E
  8
0
 10
3488.6718358856028317
 20
159.5571753090285085
 30
0.0
 11
3488.6722696899860239
 21
159.5589684535079869
 31
0.0
  0
LINE
  5
14F0F
  8
0
 10
3488.6890824584647817
 20
159.5559643548295981
 30
0.0
 11
3488.6802513948819069
 21
159.5564494860356035
 31
0.0
  0
LINE
  5
14F10
  8
0
 10
3488.6972013722629526
 20
159.6055981215178008
 30
0.0
 11
3488.6829877090608534
 21
159.6032715386068048
 31
0.0
  0
LINE
  5
14F11
  8
0
 10
3488.6829877090608534
 20
159.6032715386068048
 30
0.0
 11
3488.6821718608771334
 21
159.6034689125609134
 31
0.0
  0
LINE
  5
14F12
  8
0
 10
3488.6821718608771334
 20
159.6034689125609134
 30
0.0
 11
3488.6834894952007744
 21
159.6089153736978119
 31
0.0
  0
LINE
  5
14F13
  8
0
 10
3488.6843053433249224
 20
159.6087179992642859
 30
0.0
 11
3488.6829877090608534
 21
159.6032715386068048
 31
0.0
  0
LINE
  5
14F14
  8
0
 10
3488.7016413213368651
 20
159.6045239847913138
 30
0.0
 11
3488.6940689921621015
 21
159.6031842335420095
 31
0.0
  0
LINE
  5
14F15
  8
0
 10
3488.6940689921621015
 20
159.6031842335420095
 30
0.0
 11
3488.692155151850784
 21
159.5952733461554089
 31
0.0
  0
LINE
  5
14F16
  8
0
 10
3488.692155151850784
 20
159.5952733461554089
 30
0.0
 11
3488.708597708859088
 21
159.5907389805115031
 31
0.0
  0
LINE
  5
14F17
  8
0
 10
3488.708597708859088
 20
159.5907389805115031
 30
0.0
 11
3488.7269503699030793
 21
159.594100058303809
 31
0.0
  0
LINE
  5
14F18
  8
0
 10
3488.7269503699030793
 20
159.594100058303809
 30
0.0
 11
3488.7279333619630961
 21
159.5981632707411961
 31
0.0
  0
LINE
  5
14F19
  8
0
 10
3488.708597708859088
 20
159.5907389805115031
 30
0.0
 11
3488.7113636194171704
 21
159.6021719133458987
 31
0.0
  0
LINE
  5
14F1A
  8
0
 10
3488.7549882486709976
 20
159.5916180048010915
 30
0.0
 11
3488.7382336218779528
 21
159.5948475953244952
 31
0.0
  0
LINE
  5
14F1B
  8
0
 10
3488.7382336218779528
 20
159.5948475953244952
 30
0.0
 11
3488.7197824742220291
 21
159.5910794211337134
 31
0.0
  0
LINE
  5
14F1C
  8
0
 10
3488.7197824742220291
 20
159.5910794211337134
 30
0.0
 11
3488.7181238008170112
 21
159.5842232697513907
 31
0.0
  0
LINE
  5
14F1D
  8
0
 10
3488.7181238008170112
 20
159.5842232697513907
 30
0.0
 11
3488.7348891145998095
 21
159.5810230241091858
 31
0.0
  0
LINE
  5
14F1E
  8
0
 10
3488.7348891145998095
 20
159.5810230241091858
 30
0.0
 11
3488.7533185264869644
 21
159.5847013528895104
 31
0.0
  0
LINE
  5
14F1F
  8
0
 10
3488.7533185264869644
 20
159.5847013528895104
 30
0.0
 11
3488.7549916381090043
 21
159.5916171848099907
 31
0.0
  0
LINE
  5
14F20
  8
0
 10
3488.7348891145998095
 20
159.5810230241091858
 30
0.0
 11
3488.738233621974814
 21
159.5948475952930892
 31
0.0
  0
LINE
  5
14F21
  8
0
 10
3488.7803652473348848
 20
159.5781075027445013
 30
0.0
 11
3488.7818088272929344
 21
159.5840745622701888
 31
0.0
  0
LINE
  5
14F22
  8
0
 10
3488.7895830109118833
 20
159.5832486509966941
 30
0.0
 11
3488.7647087917348472
 21
159.5858912304680075
 31
0.0
  0
LINE
  5
14F23
  8
0
 10
3488.7647087917348472
 20
159.5858912304680075
 30
0.0
 11
3488.7461793660691001
 21
159.5817994932274075
 31
0.0
  0
LINE
  5
14F24
  8
0
 10
3488.7461793660691001
 20
159.5817994932274075
 30
0.0
 11
3488.7447636200768102
 21
159.5759474859686975
 31
0.0
  0
LINE
  5
14F25
  8
0
 10
3488.7447636200768102
 20
159.5759474859686975
 30
0.0
 11
3488.7618497367029704
 21
159.5740732837192013
 31
0.0
  0
LINE
  5
14F26
  8
0
 10
3488.7618497367029704
 20
159.5740732837192013
 30
0.0
 11
3488.780365247303962
 21
159.5781075027956035
 31
0.0
  0
LINE
  5
14F27
  8
0
 10
3488.7618497349121753
 20
159.5740732833293976
 30
0.0
 11
3488.764708790133227
 21
159.5858912301141004
 31
0.0
  0
LINE
  5
14F28
  8
0
 10
3488.8091015505028736
 20
159.5785267878270872
 30
0.0
 11
3488.7918668890138179
 21
159.5797577566789016
 31
0.0
  0
LINE
  5
14F29
  8
0
 10
3488.7918668890138179
 20
159.5797577566789016
 30
0.0
 11
3488.773249048856087
 21
159.5753005565526053
 31
0.0
  0
LINE
  5
14F2A
  8
0
 10
3488.773249048856087
 20
159.5753005565526053
 30
0.0
 11
3488.7720680722350153
 21
159.5704189720622992
 31
0.0
  0
LINE
  5
14F2B
  8
0
 10
3488.7720680722350153
 20
159.5704189720622992
 30
0.0
 11
3488.7894780444257776
 21
159.5698834317452111
 31
0.0
  0
LINE
  5
14F2C
  8
0
 10
3488.7894780444257776
 20
159.5698834317452111
 30
0.0
 11
3488.8080903461082016
 21
159.5743177381471867
 31
0.0
  0
LINE
  5
14F2D
  8
0
 10
3488.8080903461082016
 20
159.5743177381471867
 30
0.0
 11
3488.8091015505028736
 21
159.5785267878272009
 31
0.0
  0
LINE
  5
14F2E
  8
0
 10
3488.7918668890138179
 20
159.5797577566789016
 30
0.0
 11
3488.7894780441438343
 21
159.5698834317541071
 31
0.0
  0
LINE
  5
14F2F
  8
0
 10
3488.7772593754771151
 20
159.5652693349686047
 30
0.0
 11
3488.7781967690989404
 21
159.569144065394994
 31
0.0
  0
LINE
  5
14F30
  8
0
 10
3488.7781967690989404
 20
159.569144065394994
 30
0.0
 11
3488.7608774950708721
 21
159.5700545080948984
 31
0.0
  0
LINE
  5
14F31
  8
0
 10
3488.7608774950708721
 20
159.5700545080948984
 30
0.0
 11
3488.7426358130569497
 21
159.5671521638475099
 31
0.0
  0
LINE
  5
14F32
  8
0
 10
3488.7426358130569497
 20
159.5671521638475099
 30
0.0
 11
3488.7417155915350122
 21
159.5633484144777015
 31
0.0
  0
LINE
  5
14F33
  8
0
 10
3488.7417155915350122
 20
159.5633484144777015
 30
0.0
 11
3488.7590200827407898
 21
159.5623768667310003
 31
0.0
  0
LINE
  5
14F34
  8
0
 10
3488.7590200827407898
 20
159.5623768667310003
 30
0.0
 11
3488.7772593754771151
 21
159.5652693349686047
 31
0.0
  0
LINE
  5
14F35
  8
0
 10
3488.7590200827407898
 20
159.5623768667308866
 30
0.0
 11
3488.7608774950708721
 21
159.5700545080948984
 31
0.0
  0
LINE
  5
14F36
  8
0
 10
3488.747178865594833
 20
159.5593229724422031
 30
0.0
 11
3488.7478652080631036
 21
159.5621599792987126
 31
0.0
  0
LINE
  5
14F37
  8
0
 10
3488.7478652080631036
 20
159.5621599792987126
 30
0.0
 11
3488.7306479212547856
 21
159.5634919877115863
 31
0.0
  0
LINE
  5
14F38
  8
0
 10
3488.7306479212547856
 20
159.5634919877115863
 30
0.0
 11
3488.7127540487340411
 21
159.5620273188281999
 31
0.0
  0
LINE
  5
14F39
  8
0
 10
3488.7127540487340411
 20
159.5620273188281999
 30
0.0
 11
3488.7120777479840399
 21
159.5592318199039141
 31
0.0
  0
LINE
  5
14F3A
  8
0
 10
3488.7120777479840399
 20
159.5592318199039141
 30
0.0
 11
3488.7292853757689954
 21
159.5578598856187114
 31
0.0
  0
LINE
  5
14F3B
  8
0
 10
3488.7292853757689954
 20
159.5578598856187114
 30
0.0
 11
3488.747178865594833
 21
159.5593229724422031
 31
0.0
  0
LINE
  5
14F3C
  8
0
 10
3488.7495535659409143
 20
159.5691388320130102
 30
0.0
 11
3488.7507204940548036
 21
159.5739623469588935
 31
0.0
  0
LINE
  5
14F3D
  8
0
 10
3488.7507204940548036
 20
159.5739623469588935
 30
0.0
 11
3488.7337224246448386
 21
159.5762004932201137
 31
0.0
  0
LINE
  5
14F3E
  8
0
 10
3488.7337224246448386
 20
159.5762004932201137
 30
0.0
 11
3488.7155664399710986
 21
159.5736523804418994
 31
0.0
  0
LINE
  5
14F3F
  8
0
 10
3488.7155664399710986
 20
159.5736523804418994
 30
0.0
 11
3488.714417264444819
 21
159.5689022460242938
 31
0.0
  0
LINE
  5
14F40
  8
0
 10
3488.714417264444819
 20
159.5689022460242938
 30
0.0
 11
3488.7314064569131915
 21
159.5666274064329002
 31
0.0
  0
LINE
  5
14F41
  8
0
 10
3488.7314064569131915
 20
159.5666274064329002
 30
0.0
 11
3488.7495535659331836
 21
159.5691388320111059
 31
0.0
  0
LINE
  5
14F42
  8
0
 10
3488.7755231404421465
 20
159.5580925816140905
 30
0.0
 11
3488.7759848002629042
 21
159.5600008592444965
 31
0.0
  0
LINE
  5
14F43
  8
0
 10
3488.7759848002629042
 20
159.5600008592444965
 30
0.0
 11
3488.7584483744471981
 21
159.5600137018305134
 31
0.0
  0
LINE
  5
14F44
  8
0
 10
3488.7584483744471981
 20
159.5600137018305134
 30
0.0
 11
3488.7404639816008967
 21
159.5581748657822061
 31
0.0
  0
LINE
  5
14F45
  8
0
 10
3488.7404639816008967
 20
159.5581748657822061
 30
0.0
 11
3488.7400105329288635
 21
159.5563005290013905
 31
0.0
  0
LINE
  5
14F46
  8
0
 10
3488.7400105329288635
 20
159.5563005290013905
 30
0.0
 11
3488.7575333724848861
 21
159.5562315272908904
 31
0.0
  0
LINE
  5
14F47
  8
0
 10
3488.7575333724848861
 20
159.5562315272908904
 30
0.0
 11
3488.7755231404371443
 21
159.5580925815937974
 31
0.0
  0
LINE
  5
14F48
  8
0
 10
3488.7575333698418945
 20
159.5562315273014065
 30
0.0
 11
3488.7584483736800394
 21
159.5600137017518989
 31
0.0
  0
LINE
  5
14F49
  8
0
 10
3488.8493095346320843
 20
159.5687992842096037
 30
0.0
 11
3488.8463835144129916
 21
159.5683192927382095
 31
0.0
  0
LINE
  5
14F4A
  8
0
 10
3488.8463835144129916
 20
159.5683192927382095
 30
0.0
 11
3488.8278230281848664
 21
159.5640991659863914
 31
0.0
  0
LINE
  5
14F4B
  8
0
 10
3488.8278230281848664
 20
159.5640991659863914
 30
0.0
 11
3488.8275850923000689
 21
159.5631156547379987
 31
0.0
  0
LINE
  5
14F4C
  8
0
 10
3488.8275850923000689
 20
159.5631156547379987
 30
0.0
 11
3488.8296537550440917
 21
159.563359355318596
 31
0.0
  0
LINE
  5
14F4D
  8
0
 10
3488.8463835144289078
 20
159.5683192927409095
 30
0.0
 11
3488.8459210241080655
 21
159.5664075820448033
 31
0.0
  0
LINE
  5
14F4E
  8
0
 10
3488.8453133582011105
 20
159.5697660610350965
 30
0.0
 11
3488.8286968986672036
 21
159.5677113229197914
 31
0.0
  0
LINE
  5
14F4F
  8
0
 10
3488.8286968986672036
 20
159.5677113229197914
 30
0.0
 11
3488.8294183291068293
 21
159.5706933662912093
 31
0.0
  0
LINE
  5
14F50
  8
0
 10
3488.8294183291068293
 20
159.5706933662912093
 30
0.0
 11
3488.835136041107944
 21
159.5722282131650047
 31
0.0
  0
LINE
  5
14F51
  8
0
 10
3488.8336648763220182
 20
159.5725841253841111
 30
0.0
 11
3488.8177830433451163
 21
159.5684906927426141
 31
0.0
  0
LINE
  5
14F52
  8
0
 10
3488.8177830433451163
 20
159.5684906927426141
 30
0.0
 11
3488.8000409933788433
 21
159.5676535850907101
 31
0.0
  0
LINE
  5
14F53
  8
0
 10
3488.8000409933788433
 20
159.5676535850907101
 30
0.0
 11
3488.8009917041317749
 21
159.5715833622901982
 31
0.0
  0
LINE
  5
14F54
  8
0
 10
3488.8009917041317749
 20
159.5715833622901982
 30
0.0
 11
3488.8187647175991515
 21
159.5761888531525017
 31
0.0
  0
LINE
  5
14F55
  8
0
 10
3488.8195967240899336
 20
159.5759875695985954
 30
0.0
 11
3488.8177830432050541
 21
159.5684906927330076
 31
0.0
  0
LINE
  5
14F56
  8
0
 10
3488.8346980350061131
 20
159.5659091429708099
 30
0.0
 11
3488.8351782312161049
 21
159.5678940413251041
 31
0.0
  0
LINE
  5
14F57
  8
0
 10
3488.8351782312161049
 20
159.5678940413251041
 30
0.0
 11
3488.8171904804062251
 21
159.566041325202292
 31
0.0
  0
LINE
  5
14F58
  8
0
 10
3488.8171904804062251
 20
159.566041325202292
 30
0.0
 11
3488.7987486230240393
 21
159.5623115527864115
 31
0.0
  0
LINE
  5
14F59
  8
0
 10
3488.7987486230240393
 20
159.5623115527864115
 30
0.0
 11
3488.7982806047070881
 21
159.5603769920458888
 31
0.0
  0
LINE
  5
14F5A
  8
0
 10
3488.7982806047070881
 20
159.5603769920458888
 30
0.0
 11
3488.8162424955480674
 21
159.5621228156255995
 31
0.0
  0
LINE
  5
14F5B
  8
0
 10
3488.8162424955480674
 20
159.5621228156255995
 30
0.0
 11
3488.8346980349838304
 21
159.5659091430158867
 31
0.0
  0
LINE
  5
14F5C
  8
0
 10
3488.8162424955480674
 20
159.5621228156255995
 30
0.0
 11
3488.8171904772698326
 21
159.5660413245682037
 31
0.0
  0
LINE
  5
14F5D
  8
0
 10
3488.8063435542499064
 20
159.5670973478218002
 30
0.0
 11
3488.8056339044428569
 21
159.5641639997836023
 31
0.0
  0
LINE
  5
14F5E
  8
0
 10
3488.8056339044428569
 20
159.5641639997836023
 30
0.0
 11
3488.7872925294068409
 21
159.5608495725294915
 31
0.0
  0
LINE
  5
14F5F
  8
0
 10
3488.7872925294068409
 20
159.5608495725294915
 30
0.0
 11
3488.769665559203986
 21
159.5604881485378996
 31
0.0
  0
LINE
  5
14F60
  8
0
 10
3488.769665559203986
 20
159.5604881485378996
 30
0.0
 11
3488.7703598355760732
 21
159.5633579503322892
 31
0.0
  0
LINE
  5
14F61
  8
0
 10
3488.7703598355760732
 20
159.5633579503322892
 30
0.0
 11
3488.788696218559835
 21
159.5666517425622999
 31
0.0
  0
LINE
  5
14F62
  8
0
 10
3488.788696218559835
 20
159.5666517425622999
 30
0.0
 11
3488.8063435542030675
 21
159.5670973478598
 31
0.0
  0
LINE
  5
14F63
  8
0
 10
3488.7886962215261519
 20
159.5666517426369921
 30
0.0
 11
3488.7872925294082052
 21
159.5608495725296052
 31
0.0
  0
LINE
  5
14F64
  8
0
 10
3488.8045399980819639
 20
159.5596423214552999
 30
0.0
 11
3488.8047741289287842
 21
159.5606101048871039
 31
0.0
  0
LINE
  5
14F65
  8
0
 10
3488.8047741289287842
 20
159.5606101048871039
 30
0.0
 11
3488.7869075632029308
 21
159.5592583090947869
 31
0.0
  0
LINE
  5
14F66
  8
0
 10
3488.7869075632029308
 20
159.5592583090947869
 30
0.0
 11
3488.7688241903088056
 21
159.5570103374058988
 31
0.0
  0
LINE
  5
14F67
  8
0
 10
3488.7688241903088056
 20
159.5570103374058988
 30
0.0
 11
3488.7685950305822189
 21
159.5560631024700911
 31
0.0
  0
LINE
  5
14F68
  8
0
 10
3488.7685950305822189
 20
159.5560631024700911
 30
0.0
 11
3488.7864807169607957
 21
159.5574939338297895
 31
0.0
  0
LINE
  5
14F69
  8
0
 10
3488.7864807169607957
 20
159.5574939338297895
 30
0.0
 11
3488.8045399980819639
 21
159.5596423214552999
 31
0.0
  0
LINE
  5
14F6A
  8
0
 10
3488.7869075607550258
 20
159.5592583087903904
 30
0.0
 11
3488.7864807169607957
 21
159.5574939338297042
 31
0.0
  0
LINE
  5
14F6B
  8
0
 10
3488.7337224245197831
 20
159.5762004931997922
 30
0.0
 11
3488.7314064569582115
 21
159.5666274064390961
 31
0.0
  0
LINE
  5
14F6C
  8
0
 10
3488.7306479211861188
 20
159.5634919877045945
 30
0.0
 11
3488.7292853772378294
 21
159.5578598857385089
 31
0.0
  0
LINE
  5
14F6D
  8
0
 10
3488.7461204098171947
 20
159.5549478296472046
 30
0.0
 11
3488.7463470014290579
 21
159.5558844495735116
 31
0.0
  0
LINE
  5
14F6E
  8
0
 10
3488.7463470014290579
 20
159.5558844495735116
 30
0.0
 11
3488.7289115454009334
 21
159.5563146521130022
 31
0.0
  0
LINE
  5
14F6F
  8
0
 10
3488.7289115454009334
 20
159.5563146521130022
 30
0.0
 11
3488.7112579192871635
 21
159.5558430456476913
 31
0.0
  0
LINE
  5
14F70
  8
0
 10
3488.7112579192871635
 20
159.5558430456476913
 30
0.0
 11
3488.7110345805240286
 21
159.5549198714072929
 31
0.0
  0
LINE
  5
14F71
  8
0
 10
3488.7110345805240286
 20
159.5549198714072929
 30
0.0
 11
3488.7140268468388058
 21
159.5547341527295089
 31
0.0
  0
LINE
  5
14F72
  8
0
 10
3488.7461204098208327
 20
159.5549478296472898
 30
0.0
 11
3488.7412638301939296
 21
159.5547406923689948
 31
0.0
  0
LINE
  5
14F73
  8
0
 10
3488.7289115453017985
 20
159.5563146520248097
 30
0.0
 11
3488.7284927021528347
 21
159.5545833573600873
 31
0.0
  0
LINE
  5
14F74
  8
0
 10
3488.7239082108490038
 20
159.581525248547905
 30
0.0
 11
3488.7225065133511634
 21
159.5757313105339108
 31
0.0
  0
LINE
  5
14F75
  8
0
 10
3488.7225065133511634
 20
159.5757313105339108
 30
0.0
 11
3488.7044433292808208
 21
159.5735667902887087
 31
0.0
  0
LINE
  5
14F76
  8
0
 10
3488.7044433292808208
 20
159.5735667902887087
 30
0.0
 11
3488.6878735844961739
 21
159.5775754232271879
 31
0.0
  0
LINE
  5
14F77
  8
0
 10
3488.6878735844961739
 20
159.5775754232271879
 30
0.0
 11
3488.6891515489769517
 21
159.5828579087475987
 31
0.0
  0
LINE
  5
14F78
  8
0
 10
3488.6891515489769517
 20
159.5828579087475987
 30
0.0
 11
3488.7072295139678317
 21
159.5850835264965042
 31
0.0
  0
LINE
  5
14F79
  8
0
 10
3488.7072295139678317
 20
159.5850835264965042
 30
0.0
 11
3488.7237992588279667
 21
159.5810748937061021
 31
0.0
  0
LINE
  5
14F7A
  8
0
 10
3488.7203992586178174
 20
159.5670209417235128
 30
0.0
 11
3488.7194877233901025
 21
159.5632530970472942
 31
0.0
  0
LINE
  5
14F7B
  8
0
 10
3488.7194877233901025
 20
159.5632530970472942
 30
0.0
 11
3488.7016827879201628
 21
159.5621560509117103
 31
0.0
  0
LINE
  5
14F7C
  8
0
 10
3488.7016827879201628
 20
159.5621560509117103
 30
0.0
 11
3488.6847840085570169
 21
159.5648046147584012
 31
0.0
  0
LINE
  5
14F7D
  8
0
 10
3488.6847840085570169
 20
159.5648046147584012
 30
0.0
 11
3488.6856849097857776
 21
159.5685285036830123
 31
0.0
  0
LINE
  5
14F7E
  8
0
 10
3488.6856849097857776
 20
159.5685285036830123
 30
0.0
 11
3488.7034951619980347
 21
159.5696475265987999
 31
0.0
  0
LINE
  5
14F7F
  8
0
 10
3488.7034951619980347
 20
159.5696475265987999
 30
0.0
 11
3488.7203992586169079
 21
159.5670209417046124
 31
0.0
  0
LINE
  5
14F80
  8
0
 10
3488.7177984477448263
 20
159.5562704511737024
 30
0.0
 11
3488.7182477378869407
 21
159.5581275986262995
 31
0.0
  0
LINE
  5
14F81
  8
0
 10
3488.7182477378869407
 20
159.5581275986262995
 30
0.0
 11
3488.7011246961228608
 21
159.5598491700970953
 31
0.0
  0
LINE
  5
14F82
  8
0
 10
3488.7011246961228608
 20
159.5598491700970953
 30
0.0
 11
3488.6835582615381099
 21
159.5597379711855979
 31
0.0
  0
LINE
  5
14F83
  8
0
 10
3488.6835582615381099
 20
159.5597379711855979
 30
0.0
 11
3488.6833324308349802
 21
159.5578753557830964
 31
0.0
  0
LINE
  5
14F84
  8
0
 10
3488.6833324308349802
 20
159.5578753557830964
 30
0.0
 11
3488.7002312514300684
 21
159.556156103159708
 31
0.0
  0
LINE
  5
14F85
  8
0
 10
3488.7002312514300684
 20
159.556156103159708
 30
0.0
 11
3488.7177984477448263
 21
159.5562704511737024
 31
0.0
  0
LINE
  5
14F86
  8
0
 10
3488.7002312525091838
 20
159.5561561030500002
 30
0.0
 11
3488.7011246960819335
 21
159.5598491701827015
 31
0.0
  0
LINE
  5
14F87
  8
0
 10
3488.7016827879238008
 20
159.5621560508938899
 30
0.0
 11
3488.7034951620471475
 21
159.5696475265544905
 31
0.0
  0
LINE
  5
14F88
  8
0
 10
3488.7072295139678317
 20
159.5850835264965042
 30
0.0
 11
3488.7044433292808208
 21
159.5735667902887087
 31
0.0
  0
LINE
  5
14F89
  8
0
 10
3488.672620956287119
 20
159.5604204105534052
 30
0.0
 11
3488.6739405079101743
 21
159.5660116460070128
 31
0.0
  0
LINE
  5
14F8A
  8
0
 10
3488.6746689472670369
 20
159.5690982065370918
 30
0.0
 11
3488.6768874453259741
 21
159.5784984791675924
 31
0.0
  0
ARC
  5
14F8C
  8
0
 10
3494.1738427274690366
 20
156.2532750588821955
 30
0.0
 40
0.0242321851031605
 50
272.7502880308560975
 51
291.2953812851105226
  0
LINE
  5
14F8D
  8
0
 10
3494.1553778011689246
 20
160.1046722556392865
 30
0.0
 11
3487.9017319262197816
 21
160.1046722556392865
 31
0.0
  0
LINE
  5
14F8E
  8
0
 10
3495.491198240687936
 20
159.7158895540437982
 30
0.0
 11
3495.0395423745121661
 21
159.7153013602834051
 31
0.0
  0
ARC
  5
14F8F
  8
0
 10
3495.0421879405571417
 20
157.6838527041306008
 30
0.0
 40
2.0314503788191649
 50
90.074616546545343
 51
98.925963595693517
  0
ARC
  5
14F90
  8
0
 10
3494.8373036157681781
 20
158.988348902056714
 30
0.0
 40
0.7109626216064678
 50
98.925963595693517
 51
117.2172246956710069
  0
ARC
  5
14F91
  8
0
 10
3494.675477713525197
 20
159.3029953484476948
 30
0.0
 40
0.3571406199399294
 50
117.2172246956710069
 51
141.8295741984559015
  0
ARC
  5
14F92
  8
0
 10
3494.7682940444478845
 20
159.2300336427992136
 30
0.0
 40
0.4752011204356828
 50
141.8295741984559015
 51
162.5171768801039889
  0
ARC
  5
14F93
  8
0
 10
3495.6505003044590012
 20
158.952165822136493
 30
0.0
 40
1.4001326913975389
 50
162.5171768801039889
 51
173.7514877457024909
  0
LINE
  5
14F94
  8
0
 10
3494.2283862550270896
 20
158.5970947649958021
 30
0.0
 11
3494.223901524213943
 21
156.2534304193239052
 31
0.0
  0
ARC
  5
14F95
  8
0
 10
3499.0286555952761773
 20
158.5651190142745008
 30
0.0
 40
4.8003758381572199
 50
173.5477998978363132
 51
179.6183446518813867
  0
ENDSEC
  0
EOF
