  0
SECTION
  2
HEADER
  9
$ACADVER
  1
AC1009
  9
$INSBASE
 10
3565.104702890642784
 20
178.5945952749439982
 30
0.0
  9
$EXTMIN
 10
3556.7426427740101644
 20
151.0032121844431003
 30
-0.0000000349181948
  9
$EXTMAX
 10
3573.5419654522161181
 20
178.6073562053481965
 30
0.0000000814935746
  9
$LIMMIN
 10
0.0
 20
0.0
  9
$LIMMAX
 10
11.6929133858000007
 20
8.2677165353999982
  9
$ORTHOMODE
 70
     0
  9
$REGENMODE
 70
     1
  9
$FILLMODE
 70
     1
  9
$QTEXTMODE
 70
     0
  9
$MIRRTEXT
 70
     0
  9
$DRAGMODE
 70
     2
  9
$LTSCALE
 40
0.6431102362
  9
$OSMODE
 70
  4095
  9
$ATTMODE
 70
     1
  9
$TEXTSIZE
 40
0.2
  9
$TRACEWID
 40
0.05
  9
$TEXTSTYLE
  7
STANDARD
  9
$CLAYER
  8
0
  9
$CELTYPE
  6
BYLAYER
  9
$CECOLOR
 62
   256
  9
$DIMSCALE
 40
1.0
  9
$DIMASZ
 40
0.1875
  9
$DIMEXO
 40
0.0625
  9
$DIMDLI
 40
0.4443307087
  9
$DIMRND
 40
0.0
  9
$DIMDLE
 40
0.0
  9
$DIMEXE
 40
0.125
  9
$DIMTP
 40
0.01
  9
$DIMTM
 40
0.01
  9
$DIMTXT
 40
2.0
  9
$DIMCEN
 40
0.1052362205
  9
$DIMTSZ
 40
0.0
  9
$DIMTOL
 70
     1
  9
$DIMLIM
 70
     0
  9
$DIMTIH
 70
     1
  9
$DIMTOH
 70
     1
  9
$DIMSE1
 70
     0
  9
$DIMSE2
 70
     0
  9
$DIMTAD
 70
     0
  9
$DIMZIN
 70
     0
  9
$DIMBLK
  1

  9
$DIMASO
 70
     1
  9
$DIMSHO
 70
     1
  9
$DIMPOST
  1
\X
  9
$DIMAPOST
  1

  9
$DIMALT
 70
     1
  9
$DIMALTD
 70
     2
  9
$DIMALTF
 40
25.3999999999999986
  9
$DIMLFAC
 40
1.0
  9
$DIMTOFL
 70
     0
  9
$DIMTVP
 40
0.0
  9
$DIMTIX
 70
     0
  9
$DIMSOXD
 70
     0
  9
$DIMSAH
 70
     0
  9
$DIMBLK1
  1

  9
$DIMBLK2
  1

  9
$DIMSTYLE
  2
STANDARD
  9
$DIMCLRD
 70
     0
  9
$DIMCLRE
 70
     0
  9
$DIMCLRT
 70
     0
  9
$DIMTFAC
 40
1.0
  9
$DIMGAP
 40
0.09
  9
$LUNITS
 70
     2
  9
$LUPREC
 70
     4
  9
$SKETCHINC
 40
0.1
  9
$FILLETRAD
 40
0.0
  9
$AUNITS
 70
     0
  9
$AUPREC
 70
     0
  9
$MENU
  1
.
  9
$ELEVATION
 40
0.0
  9
$PELEVATION
 40
0.0
  9
$THICKNESS
 40
0.0
  9
$LIMCHECK
 70
     0
  9
$BLIPMODE
 70
     0
  9
$CHAMFERA
 40
0.0
  9
$CHAMFERB
 40
0.0
  9
$SKPOLY
 70
     0
  9
$TDCREATE
 40
2458060.468368056230247
  9
$TDUPDATE
 40
2459944.6856944439932704
  9
$TDINDWG
 40
0.4508982639
  9
$TDUSRTIMER
 40
0.4508982639
  9
$USRTIMER
 70
     1
  9
$ANGBASE
 50
0.0
  9
$ANGDIR
 70
     0
  9
$PDMODE
 70
     0
  9
$PDSIZE
 40
0.3125
  9
$PLINEWID
 40
0.0
  9
$COORDS
 70
     1
  9
$SPLFRAME
 70
     0
  9
$SPLINETYPE
 70
     6
  9
$SPLINESEGS
 70
     8
  9
$ATTDIA
 70
     1
  9
$ATTREQ
 70
     1
  9
$HANDLING
 70
     1
  9
$HANDSEED
  5
E2EB
  9
$SURFTAB1
 70
     6
  9
$SURFTAB2
 70
     6
  9
$SURFTYPE
 70
     6
  9
$SURFU
 70
     6
  9
$SURFV
 70
     6
  9
$UCSNAME
  2

  9
$UCSORG
 10
0.0
 20
0.0
 30
0.0
  9
$UCSXDIR
 10
1.0
 20
0.0
 30
0.0
  9
$UCSYDIR
 10
0.0
 20
1.0
 30
0.0
  9
$PUCSNAME
  2

  9
$PUCSORG
 10
0.0
 20
0.0
 30
0.0
  9
$PUCSXDIR
 10
1.0
 20
0.0
 30
0.0
  9
$PUCSYDIR
 10
0.0
 20
1.0
 30
0.0
  9
$USERI1
 70
     0
  9
$USERI2
 70
     0
  9
$USERI3
 70
     0
  9
$USERI4
 70
     0
  9
$USERI5
 70
     0
  9
$USERR1
 40
0.0
  9
$USERR2
 40
0.0
  9
$USERR3
 40
0.0
  9
$USERR4
 40
0.0
  9
$USERR5
 40
0.0
  9
$WORLDVIEW
 70
     1
  9
$SHADEDGE
 70
     3
  9
$SHADEDIF
 70
    70
  9
$TILEMODE
 70
     1
  9
$MAXACTVP
 70
    64
  9
$PLIMCHECK
 70
     0
  9
$PEXTMIN
 10
1.0000000000000000E+20
 20
1.0000000000000000E+20
 30
1.0000000000000000E+20
  9
$PEXTMAX
 10
-1.0000000000000000E+20
 20
-1.0000000000000000E+20
 30
-1.0000000000000000E+20
  9
$PLIMMIN
 10
0.0
 20
0.0
  9
$PLIMMAX
 10
12.0
 20
9.0
  9
$UNITMODE
 70
     0
  9
$VISRETAIN
 70
     1
  9
$PLINEGEN
 70
     0
  9
$PSLTSCALE
 70
     1
  0
ENDSEC
  0
SECTION
  2
TABLES
  0
TABLE
  2
VPORT
 70
     1
  0
VPORT
  2
*ACTIVE
 70
     0
 10
0.0
 20
0.0
 11
1.0
 21
1.0
 12
475.3310248162379139
 22
-32.3562863944910717
 13
0.0
 23
0.0
 14
1.0
 24
1.0
 15
0.0
 25
0.0
 16
0.0
 26
0.0
 36
95.5902297660485658
 17
3089.811279296875
 27
197.161570589386713
 37
0.0
 40
27.8162117086456711
 41
1.593589743589743
 42
50.0
 43
0.0
 44
0.0
 50
0.0
 51
0.0
 71
     0
 72
   100
 73
     1
 74
     1
 75
     0
 76
     0
 77
     0
 78
     0
  0
ENDTAB
  0
TABLE
  2
LTYPE
 70
     2
  0
LTYPE
  2
CONTINUOUS
 70
     0
  3
Solid line
 72
    65
 73
     0
 40
0.0
  0
LTYPE
  2
PHANTOM2
 70
     0
  3
___ _ _ ___ _ _ ___ _ _ ___ _ _
 72
    65
 73
     6
 40
1.25
 49
0.625
 49
-0.125
 49
0.125
 49
-0.125
 49
0.125
 49
-0.125
  0
ENDTAB
  0
TABLE
  2
LAYER
 70
     2
  0
LAYER
  2
0
 70
     0
 62
   255
  6
CONTINUOUS
  0
LAYER
  2
DEFPOINTS
 70
     0
 62
     7
  6
CONTINUOUS
  0
ENDTAB
  0
TABLE
  2
STYLE
 70
     1
  0
STYLE
  2
STANDARD
 70
     0
 40
0.0
 41
0.8
 50
0.0
 71
     0
 42
0.2
  3
txt
  4

  0
ENDTAB
  0
TABLE
  2
VIEW
 70
     0
  0
ENDTAB
  0
TABLE
  2
UCS
 70
     0
  0
ENDTAB
  0
TABLE
  2
APPID
 70
     9
  0
APPID
  2
ACAD
 70
     0
  0
APPID
  2
ACAD_MLEADERVER
 70
     0
  0
APPID
  2
ACAD_EXEMPT_FROM_CAD_STANDARDS
 70
     0
  0
APPID
  2
ACAD_NAV_VCDISPLAY
 70
     0
  0
APPID
  2
ACAECLAYERSTANDARD
 70
     0
  0
APPID
  2
ACCMTRANSPARENCY
 70
     0
  0
APPID
  2
ACAD_DSTYLE_DIMJAG
 70
     0
  0
APPID
  2
ACAD_DSTYLE_DIMTALN
 70
     0
  0
APPID
  2
ACDBATTR
 70
     0
  0
ENDTAB
  0
TABLE
  2
DIMSTYLE
 70
     1
  0
DIMSTYLE
  2
STANDARD
 70
     0
  3

  4

  5

  6

  7

 40
1.0
 41
0.1875
 42
0.0625
 43
0.38
 44
0.125
 45
0.0
 46
0.0
 47
0.01
 48
0.01
140
0.15625
141
0.09
142
0.0
143
25.3999999999999986
144
1.0
145
0.0
146
1.0
147
0.09
 71
     1
 72
     0
 73
     1
 74
     1
 75
     0
 76
     0
 77
     0
 78
     4
170
     0
171
     2
172
     0
173
     0
174
     0
175
     0
176
     0
177
     0
178
     0
  0
ENDTAB
  0
ENDSEC
  0
SECTION
  2
BLOCKS
  0
BLOCK
  8
0
  2
$MODEL_SPACE
 70
     0
 10
0.0
 20
0.0
 30
0.0
  3
$MODEL_SPACE
  1

  0
ENDBLK
  5
21
  8
0
  0
BLOCK
 67
     1
  8
0
  2
$PAPER_SPACE
 70
     0
 10
0.0
 20
0.0
 30
0.0
  3
$PAPER_SPACE
  1

  0
ENDBLK
  5
1D
 67
     1
  8
0
  0
BLOCK
  8
0
  2
_FILLED
 70
     0
 10
0.0
 20
0.0
 30
0.0
  3
_FILLED
  1

  0
SOLID
  5
E1C2
  8
0
  6
BYBLOCK
 62
     0
 10
0.0
 20
0.0
 30
0.0
 11
-1.0
 21
0.1666666667
 31
0.0
 12
-1.0
 22
-0.1666666667
 32
0.0
 13
-1.0
 23
-0.1666666667
 33
0.0
  0
ENDBLK
  5
E1C3
  8
0
  6
BYBLOCK
 62
     0
  0
ENDSEC
  0
SECTION
  2
ENTITIES
  0
ATTDEF
  5
3930
  8
DEFPOINTS
 10
3565.1007978159082086
 20
178.5992408677720107
 30
0.0
 40
0.001
  1
K-79208
  3

  2
MODELNUMBER
 70
     0
1001
ACDBATTR
1070
     0
1070
     1
  0
ATTDEF
  5
3931
  8
DEFPOINTS
 10
3565.1007978159082086
 20
178.5975742011054024
 30
0.0
 40
0.001
  1
EIR
  3

  2
TRADENAME
 70
     0
1001
ACDBATTR
1070
     0
1070
     1
  0
ATTDEF
  5
3932
  8
DEFPOINTS
 10
3565.1007978159082086
 20
178.5959075344387088
 30
0.0
 40
0.001
  1
TOILET SEAT
  3

  2
PRODUCT
 70
     0
1001
ACDBATTR
1070
     0
1070
     1
  0
LINE
  5
E1F8
  8
0
 10
3556.866631083178163
 20
176.1202934621778127
 30
0.0
 11
3556.866631083178163
 21
175.2264607811443966
 31
0.0
  0
LINE
  5
E1F9
  8
0
 10
3559.7384794957388294
 20
178.5945952749439982
 30
0.0
 11
3570.4709262855458292
 21
178.5945952749439982
 31
0.0
  0
ARC
  5
E1FA
  8
0
 10
3559.8003076478121329
 20
172.1306823625075992
 30
0.0
 40
6.4642086027564911
 50
90.5480247315382485
 51
107.5625965739669994
  0
ARC
  5
E1FB
  8
0
 10
3558.2561809566591364
 20
177.1164263540169941
 30
0.0
 40
1.245342896400959
 50
109.0481096322018004
 51
143.8390575817780928
  0
ARC
  5
E1FC
  8
0
 10
3558.5094407607339235
 20
176.9313331868575006
 30
0.0
 40
1.559030653396853
 50
143.8390575817780928
 51
169.7018340069500937
  0
ARC
  5
E1FD
  8
0
 10
3564.1046454215370431
 20
175.9473454030990922
 30
0.0
 40
7.2400802891563494
 50
169.9560407683534891
 51
178.6312117961838908
  0
ARC
  5
E1FE
  8
0
 10
3565.1251954583458428
 20
157.9153998505659899
 30
0.0
 40
6.9073327437549104
 50
225.1040288659681039
 51
269.830015520185384
  0
ARC
  5
E1FF
  8
0
 10
3566.7849464568948861
 20
159.4081989851183039
 30
0.0
 40
9.1371201568126068
 50
193.2073015407750916
 51
224.3383583028254975
  0
ARC
  5
E200
  8
0
 10
3588.3010238849988127
 20
164.457642233750704
 30
0.0
 40
31.2377641522558989
 50
183.6769038683426913
 51
193.2073015407750916
  0
ARC
  5
E201
  8
0
 10
3628.8524614228290375
 20
167.0635717074599995
 30
0.0
 40
71.8728469601751812
 50
180.1013138643222078
 51
183.6769038683426913
  0
ARC
  5
E202
  8
0
 10
3934.2775072562772039
 20
172.7931027327099969
 30
0.0
 40
377.3433074353383176
 50
180.3357556398061945
 51
180.8901337102726075
  0
ARC
  5
E203
  8
0
 10
3386.3685731274581485
 20
170.1928651658110141
 30
0.0
 40
170.5723449199506092
 50
0.1808776818648149
 51
1.6910458732733129
  0
ARC
  5
E204
  8
0
 10
3565.1645263239861379
 20
237.4020262379723079
 30
0.0
 40
67.3187352596805084
 50
266.614522839403719
 51
269.9490835547525762
  0
ARC
  5
E205
  8
0
 10
3557.768404177209959
 20
177.1963041747513898
 30
0.0
 40
6.6527103392380944
 50
262.9638817505008888
 51
264.5541675585732833
  0
ARC
  5
E206
  8
0
 10
3556.9524786004490124
 20
170.5819371341573003
 30
0.0
 40
0.0118
 50
85.1297963055543931
 51
180.3357556397297117
  0
ARC
  5
E207
  8
0
 10
3565.2430505184588583
 20
244.871682263759908
 30
0.0
 40
74.6630645324825508
 50
268.4080283678272281
 51
269.8938331855798083
  0
ARC
  5
E208
  8
0
 10
3565.1046637687650218
 20
235.5339321004429962
 30
0.0
 40
65.3251861927989239
 50
263.8460633815116125
 51
268.3018272401100148
  0
ARC
  5
E209
  8
0
 10
3565.1046637688209557
 20
235.5339321009062132
 30
0.0
 40
65.3251861932654521
 50
262.8293038749832249
 51
263.8460633814855214
  0
ARC
  5
E20A
  8
0
 10
3556.9518680198448237
 20
170.7313832505242885
 30
0.0
 40
0.0118
 50
180.1808776818598972
 51
262.8293038749046104
  0
ARC
  5
E20B
  8
0
 10
3565.1047029426667905
 20
235.408529721965607
 30
0.0
 40
65.3252107178216761
 50
263.6197003654777973
 51
266.5636486764066717
  0
ARC
  5
E20C
  8
0
 10
3567.3143924672599496
 20
251.7231164900445037
 30
0.0
 40
81.785201512745644
 50
262.8515745668768204
 51
263.3513775387281157
  0
LINE
  5
E20D
  8
0
 10
3557.0769331820988555
 20
170.703881254004898
 30
0.0
 11
3557.0769331820988555
 21
170.5796265552262128
 31
0.0
  0
LINE
  5
E20E
  8
0
 10
3557.1360526340131401
 20
170.6965880176771861
 30
0.0
 11
3557.1360526340131401
 21
170.5737150750395017
 31
0.0
  0
LINE
  5
E20F
  8
0
 10
3573.3427746981069504
 20
176.1202934621778127
 30
0.0
 11
3573.3427746981069504
 21
175.2264607811443966
 31
0.0
  0
ARC
  5
E210
  8
0
 10
3570.4090981334738899
 20
172.1306823625075992
 30
0.0
 40
6.4642086027564911
 50
72.4374034260329296
 51
89.4519752684617373
  0
ARC
  5
E211
  8
0
 10
3571.9532248246259769
 20
177.1164263540169941
 30
0.0
 40
1.245342896400959
 50
36.1609424182218717
 51
70.951890367798228
  0
ARC
  5
E212
  8
0
 10
3571.6999650205520993
 20
176.9313331868575006
 30
0.0
 40
1.559030653396853
 50
10.2981659930498495
 51
36.1609424182218717
  0
ARC
  5
E213
  8
0
 10
3566.1047603597480702
 20
175.9473454030990922
 30
0.0
 40
7.2400802891563494
 50
1.3687882038160759
 51
10.0439592316465003
  0
ARC
  5
E214
  8
0
 10
3565.0842103229379063
 20
157.9153998505659899
 30
0.0
 40
6.9073327437549104
 50
270.169984479814616
 51
314.8959711340319245
  0
ARC
  5
E215
  8
0
 10
3563.4244593243902273
 20
159.4081989851183039
 30
0.0
 40
9.1371201568126068
 50
315.6616416971745025
 51
346.79269845922488
  0
ARC
  5
E216
  8
0
 10
3541.9083818962849364
 20
164.457642233750704
 30
0.0
 40
31.2377641522558989
 50
346.79269845922488
 51
356.3230961316572802
  0
ARC
  5
E217
  8
0
 10
3501.3569443584560759
 20
167.0635717074599995
 30
0.0
 40
71.8728469601751812
 50
356.3230961316572802
 51
359.8986861356777922
  0
ARC
  5
E218
  8
0
 10
3195.931898525008819
 20
172.7931027327099969
 30
0.0
 40
377.3433074353383176
 50
359.1098662897273925
 51
359.6642443601937771
  0
ARC
  5
E219
  8
0
 10
3743.8408326538269648
 20
170.1928651658110141
 30
0.0
 40
170.5723449199506092
 50
178.3089541267266895
 51
179.8191223181351859
  0
ARC
  5
E21A
  8
0
 10
3565.0448794572989755
 20
237.4020262379723079
 30
0.0
 40
67.3187352596805084
 50
270.0509164452473101
 51
273.385477160596281
  0
ARC
  5
E21B
  8
0
 10
3572.4410016040760638
 20
177.1963041747513898
 30
0.0
 40
6.6527103392380944
 50
275.4458324414267167
 51
277.0361182494989976
  0
ARC
  5
E21C
  8
0
 10
3573.2569271808351914
 20
170.5819371341573003
 30
0.0
 40
0.0118
 50
359.6642443602702883
 51
94.8702036944455926
  0
ARC
  5
E21D
  8
0
 10
3564.9663552628258003
 20
244.871682263759908
 30
0.0
 40
74.6630645324825508
 50
270.1061668144201917
 51
271.5919716321727719
  0
ARC
  5
E21E
  8
0
 10
3565.1047420125200915
 20
235.5339321004429962
 30
0.0
 40
65.3251861927989239
 50
271.6981727598899283
 51
276.1539366184885012
  0
ARC
  5
E21F
  8
0
 10
3565.1047420124641576
 20
235.5339321009062132
 30
0.0
 40
65.3251861932654521
 50
276.1539366185144786
 51
277.1706961250167751
  0
ARC
  5
E220
  8
0
 10
3573.2575377614398349
 20
170.7313832505242885
 30
0.0
 40
0.0118
 50
277.1706961250953896
 51
359.8191223181399891
  0
ARC
  5
E221
  8
0
 10
3565.1047028386169586
 20
235.408529721965607
 30
0.0
 40
65.3252107178216761
 50
273.4363513235933283
 51
276.3802996345222027
  0
ARC
  5
E222
  8
0
 10
3562.8950133140251637
 20
251.7231164900445037
 30
0.0
 40
81.785201512745644
 50
276.6486224612718843
 51
277.1484254331231796
  0
LINE
  5
E223
  8
0
 10
3573.1324725991858031
 20
170.703881254004898
 30
0.0
 11
3573.1324725991858031
 21
170.5796265552262128
 31
0.0
  0
LINE
  5
E224
  8
0
 10
3573.0733531472719733
 20
170.6965880176771861
 30
0.0
 11
3573.0733531472719733
 21
170.5737150750395017
 31
0.0
  0
ENDSEC
  0
EOF
