  0
SECTION
  2
HEADER
  9
$ACADVER
  1
AC1009
  9
$INSBASE
 10
4352.1615800931513149
 20
149.8463186384024084
 30
0.0
  9
$EXTMIN
 10
4349.715350273572767
 20
147.4000884439466859
 30
0.0
  9
$EXTMAX
 10
4354.6078099127316818
 20
152.2925488328581878
 30
0.0
  9
$LIMMIN
 10
0.0
 20
0.0
  9
$LIMMAX
 10
11.6929133858000007
 20
8.2677165353999982
  9
$ORTHOMODE
 70
     0
  9
$REGENMODE
 70
     1
  9
$FILLMODE
 70
     1
  9
$QTEXTMODE
 70
     0
  9
$MIRRTEXT
 70
     0
  9
$DRAGMODE
 70
     2
  9
$LTSCALE
 40
0.6431102362
  9
$OSMODE
 70
  4095
  9
$ATTMODE
 70
     1
  9
$TEXTSIZE
 40
0.2
  9
$TRACEWID
 40
0.05
  9
$TEXTSTYLE
  7
STANDARD
  9
$CLAYER
  8
0
  9
$CELTYPE
  6
BYLAYER
  9
$CECOLOR
 62
   256
  9
$DIMSCALE
 40
1.0
  9
$DIMASZ
 40
0.1875
  9
$DIMEXO
 40
0.0625
  9
$DIMDLI
 40
0.4443307087
  9
$DIMRND
 40
0.0
  9
$DIMDLE
 40
0.0
  9
$DIMEXE
 40
0.125
  9
$DIMTP
 40
0.01
  9
$DIMTM
 40
0.01
  9
$DIMTXT
 40
2.0
  9
$DIMCEN
 40
0.1052362205
  9
$DIMTSZ
 40
0.0
  9
$DIMTOL
 70
     1
  9
$DIMLIM
 70
     0
  9
$DIMTIH
 70
     1
  9
$DIMTOH
 70
     1
  9
$DIMSE1
 70
     0
  9
$DIMSE2
 70
     0
  9
$DIMTAD
 70
     0
  9
$DIMZIN
 70
     0
  9
$DIMBLK
  1

  9
$DIMASO
 70
     1
  9
$DIMSHO
 70
     1
  9
$DIMPOST
  1
\X
  9
$DIMAPOST
  1

  9
$DIMALT
 70
     1
  9
$DIMALTD
 70
     2
  9
$DIMALTF
 40
25.3999999999999986
  9
$DIMLFAC
 40
1.0
  9
$DIMTOFL
 70
     0
  9
$DIMTVP
 40
0.0
  9
$DIMTIX
 70
     0
  9
$DIMSOXD
 70
     0
  9
$DIMSAH
 70
     0
  9
$DIMBLK1
  1

  9
$DIMBLK2
  1

  9
$DIMSTYLE
  2
STANDARD
  9
$DIMCLRD
 70
     0
  9
$DIMCLRE
 70
     0
  9
$DIMCLRT
 70
     0
  9
$DIMTFAC
 40
1.0
  9
$DIMGAP
 40
0.09
  9
$LUNITS
 70
     2
  9
$LUPREC
 70
     4
  9
$SKETCHINC
 40
0.1
  9
$FILLETRAD
 40
0.0
  9
$AUNITS
 70
     0
  9
$AUPREC
 70
     0
  9
$MENU
  1
.
  9
$ELEVATION
 40
0.0
  9
$PELEVATION
 40
0.0
  9
$THICKNESS
 40
0.0
  9
$LIMCHECK
 70
     0
  9
$BLIPMODE
 70
     0
  9
$CHAMFERA
 40
0.0
  9
$CHAMFERB
 40
0.0
  9
$SKPOLY
 70
     0
  9
$TDCREATE
 40
2458060.468368056230247
  9
$TDUPDATE
 40
2459655.5192129630595446
  9
$TDINDWG
 40
0.3152616898
  9
$TDUSRTIMER
 40
0.3152616898
  9
$USRTIMER
 70
     1
  9
$ANGBASE
 50
0.0
  9
$ANGDIR
 70
     0
  9
$PDMODE
 70
     0
  9
$PDSIZE
 40
0.3125
  9
$PLINEWID
 40
0.0
  9
$COORDS
 70
     1
  9
$SPLFRAME
 70
     0
  9
$SPLINETYPE
 70
     6
  9
$SPLINESEGS
 70
     8
  9
$ATTDIA
 70
     1
  9
$ATTREQ
 70
     1
  9
$HANDLING
 70
     1
  9
$HANDSEED
  5
7EFC
  9
$SURFTAB1
 70
     6
  9
$SURFTAB2
 70
     6
  9
$SURFTYPE
 70
     6
  9
$SURFU
 70
     6
  9
$SURFV
 70
     6
  9
$UCSNAME
  2

  9
$UCSORG
 10
0.0
 20
0.0
 30
0.0
  9
$UCSXDIR
 10
1.0
 20
0.0
 30
0.0
  9
$UCSYDIR
 10
0.0
 20
1.0
 30
0.0
  9
$PUCSNAME
  2

  9
$PUCSORG
 10
0.0
 20
0.0
 30
0.0
  9
$PUCSXDIR
 10
1.0
 20
0.0
 30
0.0
  9
$PUCSYDIR
 10
0.0
 20
1.0
 30
0.0
  9
$USERI1
 70
     0
  9
$USERI2
 70
     0
  9
$USERI3
 70
     0
  9
$USERI4
 70
     0
  9
$USERI5
 70
     0
  9
$USERR1
 40
0.0
  9
$USERR2
 40
0.0
  9
$USERR3
 40
0.0
  9
$USERR4
 40
0.0
  9
$USERR5
 40
0.0
  9
$WORLDVIEW
 70
     1
  9
$SHADEDGE
 70
     3
  9
$SHADEDIF
 70
    70
  9
$TILEMODE
 70
     1
  9
$MAXACTVP
 70
    64
  9
$PLIMCHECK
 70
     0
  9
$PEXTMIN
 10
1.0000000000000000E+20
 20
1.0000000000000000E+20
 30
1.0000000000000000E+20
  9
$PEXTMAX
 10
-1.0000000000000000E+20
 20
-1.0000000000000000E+20
 30
-1.0000000000000000E+20
  9
$PLIMMIN
 10
0.0
 20
0.0
  9
$PLIMMAX
 10
12.0
 20
9.0
  9
$UNITMODE
 70
     0
  9
$VISRETAIN
 70
     1
  9
$PLINEGEN
 70
     0
  9
$PSLTSCALE
 70
     1
  0
ENDSEC
  0
SECTION
  2
TABLES
  0
TABLE
  2
VPORT
 70
     1
  0
VPORT
  2
*ACTIVE
 70
     0
 10
0.0
 20
0.0
 11
1.0
 21
1.0
 12
34.8988847806526792
 22
0.1816457868399652
 13
0.0
 23
0.0
 14
1.0
 24
1.0
 15
0.0
 25
0.0
 16
0.0
 26
0.0
 36
45.1902730778719999
 17
4317.2626953125
 27
149.6646728515625
 37
0.0
 40
4.9231021032470066
 41
2.005224660397074
 42
50.0
 43
0.0
 44
0.0
 50
0.0
 51
0.0
 71
     0
 72
   100
 73
     1
 74
     1
 75
     0
 76
     0
 77
     0
 78
     0
  0
ENDTAB
  0
TABLE
  2
LTYPE
 70
     2
  0
LTYPE
  2
CONTINUOUS
 70
     0
  3
Solid line
 72
    65
 73
     0
 40
0.0
  0
LTYPE
  2
PHANTOM2
 70
     0
  3
___ _ _ ___ _ _ ___ _ _ ___ _ _
 72
    65
 73
     6
 40
1.25
 49
0.625
 49
-0.125
 49
0.125
 49
-0.125
 49
0.125
 49
-0.125
  0
ENDTAB
  0
TABLE
  2
LAYER
 70
     2
  0
LAYER
  2
0
 70
     0
 62
   255
  6
CONTINUOUS
  0
LAYER
  2
DEFPOINTS
 70
     0
 62
     7
  6
CONTINUOUS
  0
ENDTAB
  0
TABLE
  2
STYLE
 70
     1
  0
STYLE
  2
STANDARD
 70
     0
 40
0.0
 41
0.8
 50
0.0
 71
     0
 42
0.2
  3
txt
  4

  0
ENDTAB
  0
TABLE
  2
VIEW
 70
     0
  0
ENDTAB
  0
TABLE
  2
UCS
 70
     0
  0
ENDTAB
  0
TABLE
  2
APPID
 70
     9
  0
APPID
  2
ACAD
 70
     0
  0
APPID
  2
ACAD_MLEADERVER
 70
     0
  0
APPID
  2
ACAD_EXEMPT_FROM_CAD_STANDARDS
 70
     0
  0
APPID
  2
ACAD_NAV_VCDISPLAY
 70
     0
  0
APPID
  2
ACAECLAYERSTANDARD
 70
     0
  0
APPID
  2
ACCMTRANSPARENCY
 70
     0
  0
APPID
  2
ACAD_DSTYLE_DIMJAG
 70
     0
  0
APPID
  2
ACAD_DSTYLE_DIMTALN
 70
     0
  0
APPID
  2
ACDBATTR
 70
     0
  0
ENDTAB
  0
TABLE
  2
DIMSTYLE
 70
     1
  0
DIMSTYLE
  2
STANDARD
 70
     0
  3

  4

  5

  6

  7

 40
1.0
 41
0.1875
 42
0.0625
 43
0.38
 44
0.125
 45
0.0
 46
0.0
 47
0.01
 48
0.01
140
0.15625
141
0.09
142
0.0
143
25.3999999999999986
144
1.0
145
0.0
146
1.0
147
0.09
 71
     1
 72
     0
 73
     1
 74
     1
 75
     0
 76
     0
 77
     0
 78
     4
170
     0
171
     2
172
     0
173
     0
174
     0
175
     0
176
     0
177
     0
178
     0
  0
ENDTAB
  0
ENDSEC
  0
SECTION
  2
BLOCKS
  0
BLOCK
  8
0
  2
$MODEL_SPACE
 70
     0
 10
0.0
 20
0.0
 30
0.0
  3
$MODEL_SPACE
  1

  0
ENDBLK
  5
21
  8
0
  0
BLOCK
 67
     1
  8
0
  2
$PAPER_SPACE
 70
     0
 10
0.0
 20
0.0
 30
0.0
  3
$PAPER_SPACE
  1

  0
ENDBLK
  5
1D
 67
     1
  8
0
  0
ENDSEC
  0
SECTION
  2
ENTITIES
  0
ATTDEF
  5
3930
  8
DEFPOINTS
 10
4352.1616720180927587
 20
149.8498212737445101
 30
0.0
 40
0.001
  1
K-8002IN
  3

  2
MODELNUMBER
 70
     0
1001
ACDBATTR
1070
     0
1070
     1
  0
ATTDEF
  5
3931
  8
DEFPOINTS
 10
4352.1616720540732786
 20
149.8481546070779018
 30
0.0
 40
0.001
  1
SQUARE
  3

  2
TRADENAME
 70
     0
1001
ACDBATTR
1070
     0
1070
     1
  0
ATTDEF
  5
3932
  8
DEFPOINTS
 10
4352.1616721260352278
 20
149.8464879404112082
 30
0.0
 40
0.001
  1
BODY SPRAY
  3

  2
PRODUCT
 70
     0
1001
ACDBATTR
1070
     0
1070
     1
  0
LINE
  5
7BC3
  8
0
 10
4349.7153502772998763
 20
147.4800462240525007
 30
0.0
 11
4349.7153502772998763
 21
152.2125910527524013
 31
0.0
  0
LINE
  5
7BC4
  8
0
 10
4354.5278561301010996
 20
147.4000884465525019
 30
0.0
 11
4349.7953040561997113
 21
147.4000884465525019
 31
0.0
  0
LINE
  5
7BC5
  8
0
 10
4350.4156654083190006
 20
151.5024759557767027
 30
0.0
 11
4350.4156654193002396
 21
148.1902057187523951
 31
0.0
  0
LINE
  5
7BC6
  8
0
 10
4350.519213186998968
 20
151.440318638352494
 30
0.0
 11
4350.519213186998968
 21
148.2523186384524934
 31
0.0
  0
LINE
  5
7BC7
  8
0
 10
4350.5054675538985975
 20
148.1004035870523978
 30
0.0
 11
4353.8176926324122178
 21
148.1004035870523978
 31
0.0
  0
LINE
  5
7BC8
  8
0
 10
4350.56758046899904
 20
148.2039513564525066
 30
0.0
 11
4353.7555797173054088
 21
148.2039513564525066
 31
0.0
  0
ARC
  5
7BC9
  8
0
 10
4349.7952836462181949
 20
147.480021816592199
 30
0.0
 40
0.0799333726455044
 50
179.9825048733181063
 51
270.0146297565049736
  0
ARC
  5
7BCA
  8
0
 10
4350.56758046899904
 20
148.2523186384524934
 30
0.0
 40
0.048367282
 50
180.0000000102006084
 51
269.9999999972902742
  0
ARC
  5
7BCB
  8
0
 10
4350.8791913608993127
 20
148.5628908673525075
 30
0.0
 40
0.0471189032
 50
160.3514577205990861
 51
180.0058689434997916
  0
ARC
  5
7BCC
  8
0
 10
4350.8794717954997395
 20
148.5625401603523983
 30
0.0
 40
0.0471186367
 50
340.2835028899016265
 51
0.0059143142003777
  0
ARC
  5
7BCD
  8
0
 10
4350.8729522067988
 20
149.4205824372525058
 30
0.0
 40
0.0475763464
 50
340.5363707598056067
 51
0.0027326105998653
  0
ARC
  5
7BCE
  8
0
 10
4350.8739879921995453
 20
149.4205892742525066
 30
0.0
 40
0.0475763463
 50
160.5363707334012986
 51
180.0027336195007024
  0
ARC
  5
7BCF
  8
0
 10
4350.873066252598619
 20
148.9947380641523864
 30
0.0
 40
0.0475717735000515
 50
340.5328952600174262
 51
359.9999999999919282
  0
ARC
  5
7BD0
  8
0
 10
4350.8740845077991253
 20
148.9947478847523996
 30
0.0
 40
0.0475717735
 50
160.5328952514053924
 51
180.002746965799389
  0
CIRCLE
  5
7BD1
  8
0
 10
4351.2490804689987272
 20
148.5690186384524054
 30
0.0
 40
0.068
  0
CIRCLE
  5
7BD2
  8
0
 10
4351.9790804690001096
 20
148.5690186384524054
 30
0.0
 40
0.068
  0
ARC
  5
7BD3
  8
0
 10
4351.9795934402000057
 20
148.5592640565525073
 30
0.0
 40
0.046835868
 50
340.0872666413948195
 51
359.9978397820997884
  0
ARC
  5
7BD4
  8
0
 10
4351.9786019393986862
 20
148.5592594271525115
 30
0.0
 40
0.0468352813
 50
160.3206322797987013
 51
179.9979251928004089
  0
ARC
  5
7BD5
  8
0
 10
4351.2496639138998944
 20
148.559090760552408
 30
0.0
 40
0.0468244351
 50
340.0855827821969228
 51
359.9977080006992196
  0
ARC
  5
7BD6
  8
0
 10
4351.2486495284992998
 20
148.5590819441524104
 30
0.0
 40
0.0468238178
 50
160.3205009243949917
 51
179.9977989997993859
  0
ARC
  5
7BD7
  8
0
 10
4351.2451918114993532
 20
148.9913559291524905
 30
0.0
 40
0.047258447199912
 50
160.3105915023679131
 51
180.0000000000146088
  0
ARC
  5
7BD8
  8
0
 10
4351.2452536131986562
 20
148.9911936423524139
 30
0.0
 40
0.047258377
 50
340.2766783095917731
 51
0.0030531550994745
  0
ARC
  5
7BD9
  8
0
 10
4351.2416378027201063
 20
149.420574192529898
 30
0.0
 40
0.0476375730339061
 50
340.418556737089375
 51
4.4163468368879313
  0
ARC
  5
7BDA
  8
0
 10
4351.2422982111993406
 20
149.4205323139524069
 30
0.0
 40
0.0474411753
 50
160.3983028552939913
 51
180.0015083034990937
  0
ARC
  5
7BDB
  8
0
 10
4351.979355949300043
 20
148.9891277079524059
 30
0.0
 40
0.0471117595
 50
340.147010692204617
 51
359.999169439000525
  0
ARC
  5
7BDC
  8
0
 10
4351.9789166688997284
 20
148.9891230006523983
 30
0.0
 40
0.0471115984
 50
160.2964487053978928
 51
179.9991928352006028
  0
ARC
  5
7BDD
  8
0
 10
4351.9790885615338993
 20
149.4204906519514964
 30
0.0
 40
0.0594096808242418
 50
359.5063520397201842
 51
180.4925711315792967
  0
ARC
  5
7BDE
  8
0
 10
4351.9790885604998039
 20
149.4203806426525034
 30
0.0
 40
0.0594088359
 50
180.3864785172999063
 51
359.6124446539997734
  0
ARC
  5
7BDF
  8
0
 10
4351.9792368481994345
 20
149.4176116536525001
 30
0.0
 40
0.0472772609
 50
180.0407498062999991
 51
160.2387492971026006
  0
ARC
  5
7BE0
  8
0
 10
4351.9764037475306395
 20
149.4183816805357026
 30
0.0
 40
0.0444514136035368
 50
160.0025846814955912
 51
181.0359251744224878
  0
CIRCLE
  5
7BE1
  8
0
 10
4351.9791981448988736
 20
149.4171611966523869
 30
0.0
 40
0.0135008684
  0
CIRCLE
  5
7BE2
  8
0
 10
4350.8840804689998549
 20
149.8464186384524055
 30
0.0
 40
0.068
  0
ARC
  5
7BE3
  8
0
 10
4350.872915394100346
 20
149.8464164026524088
 30
0.0
 40
0.0475781674998056
 50
340.5375680013797819
 51
359.8822677890755131
  0
ARC
  5
7BE4
  8
0
 10
4350.8750305972971546
 20
149.8461414641041074
 30
0.0
 40
0.048683095844849
 50
160.6482721695489033
 51
179.7914807641685115
  0
CIRCLE
  5
7BE5
  8
0
 10
4351.2490804689987272
 20
149.8464186384524055
 30
0.0
 40
0.068
  0
ARC
  5
7BE6
  8
0
 10
4351.2417830675985897
 20
149.846417486652399
 30
0.0
 40
0.0474441386
 50
340.400233472200398
 51
0.0014267477994318
  0
ARC
  5
7BE7
  8
0
 10
4351.2422621469722799
 20
149.8464198347215017
 30
0.0
 40
0.047444189766008
 50
160.4002387764311095
 51
180.1222094087513028
  0
ARC
  5
7BE8
  8
0
 10
4350.5054231532758422
 20
148.1901613210281994
 30
0.0
 40
0.0897577449576037
 50
179.9716592442794934
 51
270.0283426059750127
  0
ARC
  5
7BE9
  8
0
 10
4351.9790883641662731
 20
148.5685193370075012
 30
0.0
 40
0.0594378017377979
 50
357.9993150835798019
 51
182.0003996025716901
  0
ARC
  5
7BEA
  8
0
 10
4351.9790883613131882
 20
148.5673737745185861
 30
0.0
 40
0.0594088436779134
 50
180.8961877184511877
 51
359.1035269677029191
  0
ARC
  5
7BEB
  8
0
 10
4351.9790661792148967
 20
148.5589879738583932
 30
0.0
 40
0.0473639233352437
 50
0.3318408663565608
 51
160.2005550082872958
  0
ARC
  5
7BEC
  8
0
 10
4351.9791324230318423
 20
148.5595494141489894
 30
0.0
 40
0.047366642233565
 50
180.3487255595671002
 51
339.9526601245137272
  0
ARC
  5
7BED
  8
0
 10
4351.9790995260727868
 20
148.5577988494248984
 30
0.0
 40
0.0135002112203485
 50
0.3212440236886676
 51
179.680158237471602
  0
ARC
  5
7BEE
  8
0
 10
4351.9790995242246936
 20
148.5579499032631929
 30
0.0
 40
0.0135002112202541
 50
180.3212439524982926
 51
359.6801583086599976
  0
ARC
  5
7BEF
  8
0
 10
4351.9791520531489368
 20
148.9892560978036045
 30
0.0
 40
0.0473471678589205
 50
180.1602606542396927
 51
340.0846719198838173
  0
ARC
  5
7BF0
  8
0
 10
4351.9791207491480236
 20
148.9889943144355016
 30
0.0
 40
0.0473471456363054
 50
0.1605960866601542
 51
160.2331046606830114
  0
ARC
  5
7BF1
  8
0
 10
4351.9790951270588266
 20
148.9946470273698083
 30
0.0
 40
0.0594165130371768
 50
180.7099927432323057
 51
359.28911925430981
  0
ARC
  5
7BF2
  8
0
 10
4351.9790951307741125
 20
148.9951328448894969
 30
0.0
 40
0.0594245223060246
 50
358.8207356911165107
 51
181.1783762099840089
  0
ARC
  5
7BF3
  8
0
 10
4351.9791431004514379
 20
148.988235738919002
 30
0.0
 40
0.0135000405690613
 50
180.1454795032452125
 51
359.8585834046670016
  0
ARC
  5
7BF4
  8
0
 10
4351.979143102847047
 20
148.9881681404858966
 30
0.0
 40
0.0135000405690578
 50
0.1454795033250366
 51
179.8585834045888134
  0
ARC
  5
7BF5
  8
0
 10
4351.2491637839493706
 20
148.5576042351370916
 30
0.0
 40
0.0135002202350235
 50
0.3316643734471785
 51
179.6745511583947916
  0
ARC
  5
7BF6
  8
0
 10
4351.2491637755510965
 20
148.557759065467792
 30
0.0
 40
0.0135002202350184
 50
180.3316643732435978
 51
359.6745511585983763
  0
ARC
  5
7BF7
  8
0
 10
4351.2491224384248198
 20
148.5587921271572895
 30
0.0
 40
0.0473668401694261
 50
0.3589689066558619
 51
160.1830485853720916
  0
ARC
  5
7BF8
  8
0
 10
4351.2491918733740022
 20
148.5593805655230994
 30
0.0
 40
0.0473670926586648
 50
180.3590424349478951
 51
339.9504803202785865
  0
ARC
  5
7BF9
  8
0
 10
4351.2491153795208447
 20
148.5672911809409129
 30
0.0
 40
0.0594085399778097
 50
180.898849381593692
 51
359.0998149017810874
  0
ARC
  5
7BFA
  8
0
 10
4351.2491168839260354
 20
148.5684649435739004
 30
0.0
 40
0.0594400442486734
 50
357.8229479660947732
 51
182.0301807567360015
  0
ARC
  5
7BFB
  8
0
 10
4351.245205427883775
 20
148.9912513533778053
 30
0.0
 40
0.0473065944114924
 50
359.9331528515808145
 51
160.196895292024891
  0
ARC
  5
7BFC
  8
0
 10
4351.2452393282746925
 20
148.991294667125004
 30
0.0
 40
0.0473060036424812
 50
179.9258010330676996
 51
340.167336922593222
  0
ARC
  5
7BFD
  8
0
 10
4351.248705485312712
 20
148.9945422176459999
 30
0.0
 40
0.059506009944374
 50
180.5809473250766075
 51
359.4860116572618267
  0
ARC
  5
7BFE
  8
0
 10
4351.2487055002939087
 20
148.9945165809340892
 30
0.0
 40
0.0595057705082928
 50
359.5106951228481194
 51
180.5562638594896043
  0
ARC
  5
7BFF
  8
0
 10
4351.2446657269765637
 20
148.9907544812317042
 30
0.0
 40
0.0134880357605691
 50
359.9019781301785201
 51
179.907487058266895
  0
ARC
  5
7C00
  8
0
 10
4351.2446657248210613
 20
148.9907531843066124
 30
0.0
 40
0.0134880357605736
 50
179.9019778471333098
 51
359.9074873413135833
  0
ARC
  5
7C01
  8
0
 10
4351.2411029834320289
 20
149.4205522277707985
 30
0.0
 40
0.013464385582885
 50
359.8484264500210088
 51
180.144720698706891
  0
ARC
  5
7C02
  8
0
 10
4351.2411029792674526
 20
149.4204825993340933
 30
0.0
 40
0.0134643855828858
 50
179.8484264500177119
 51
0.1447206987101672
  0
ARC
  5
7C03
  8
0
 10
4351.2420790720188961
 20
149.4206634341668121
 30
0.0
 40
0.0471907740720567
 50
4.3495727924555831
 51
160.4590152358161106
  0
ARC
  5
7C04
  8
0
 10
4351.2420476059942303
 20
149.4203930472947945
 30
0.0
 40
0.0471907719231536
 50
179.8324281218168892
 51
340.4590174576022719
  0
ARC
  5
7C05
  8
0
 10
4351.2480652732101589
 20
149.4208605370762939
 30
0.0
 40
0.0596860204578214
 50
180.2663152946520029
 51
359.7360239440732244
  0
ARC
  5
7C06
  8
0
 10
4351.2480652840749826
 20
149.420328312624406
 30
0.0
 40
0.0596859304515403
 50
0.2469365196395743
 51
179.7554027190855948
  0
ARC
  5
7C07
  8
0
 10
4351.2410558084147851
 20
149.8464537127981941
 30
0.0
 40
0.0134641627134085
 50
359.4251909468371196
 51
180.5748090531627952
  0
ARC
  5
7C08
  8
0
 10
4351.2410558084147851
 20
149.8463831058359972
 30
0.0
 40
0.0134636394979491
 50
180.274348252833704
 51
359.725651747166296
  0
ARC
  5
7C09
  8
0
 10
4351.2420391686628136
 20
149.846556734253511
 30
0.0
 40
0.047188239518057
 50
359.8323604302336776
 51
160.4660116733855943
  0
ARC
  5
7C0A
  8
0
 10
4351.242006112765921
 20
149.8462804009886895
 30
0.0
 40
0.0471880631275433
 50
179.9535721001998922
 51
340.4661922248307064
  0
ARC
  5
7C0B
  8
0
 10
4351.2477187878139375
 20
149.8463740410255127
 30
0.0
 40
0.0593434296243873
 50
126.6365019345788028
 51
180.0534909585485082
  0
ARC
  5
7C0C
  8
0
 10
4351.2480674142434509
 20
149.8459318602918984
 30
0.0
 40
0.0599062921351007
 50
62.660427593229997
 51
126.6516953464998068
  0
ARC
  5
7C0D
  8
0
 10
4351.2483220185558821
 20
149.8463189627254053
 30
0.0
 40
0.0594455182502712
 50
15.4469999518534404
 51
62.7070610860241331
  0
ARC
  5
7C0E
  8
0
 10
4351.2485659358308112
 20
149.8464119091844964
 30
0.0
 40
0.0591856610628676
 50
325.0549561737582849
 51
15.4231638029339901
  0
ARC
  5
7C0F
  8
0
 10
4351.2480590133527585
 20
149.8468279005008128
 30
0.0
 40
0.0598394836202236
 50
235.1470028585897012
 51
325.0064798469315974
  0
ARC
  5
7C10
  8
0
 10
4351.2477179430470642
 20
149.8464600270700942
 30
0.0
 40
0.0593427274314514
 50
180.1365117840225025
 51
235.2142598132888054
  0
CIRCLE
  5
7C11
  8
0
 10
4351.6144926079768993
 20
148.5699006974616054
 30
0.0
 40
0.068
  0
ARC
  5
7C12
  8
0
 10
4351.6139091630757321
 20
148.559972819561608
 30
0.0
 40
0.0468244351
 50
180.0022919992991035
 51
199.9144172178031056
  0
ARC
  5
7C13
  8
0
 10
4351.6149235484763267
 20
148.5599640031614967
 30
0.0
 40
0.0468238178
 50
0.0022010002005603
 51
19.6794990756049302
  0
ARC
  5
7C14
  8
0
 10
4351.6143611342349686
 20
148.9888754244908
 30
0.0
 40
0.047258447199912
 50
359.9999999999852776
 51
19.6894084976320904
  0
ARC
  5
7C15
  8
0
 10
4351.6142993325356656
 20
148.9887131376908087
 30
0.0
 40
0.047258377
 50
179.9969468449004921
 51
199.7233216904081985
  0
ARC
  5
7C16
  8
0
 10
4351.6116125537000698
 20
149.4192693457524115
 30
0.0
 40
0.0473151700000056
 50
157.0568312887338891
 51
212.9165601569785053
  0
ARC
  5
7C17
  8
0
 10
4351.6116125539647328
 20
149.4192693458199983
 30
0.0
 40
0.0473151697286184
 50
351.2970901245196842
 51
22.5176190348196599
  0
CIRCLE
  5
7C18
  8
0
 10
4351.6129955435462762
 20
149.8464186598502863
 30
0.0
 40
0.068
  0
ARC
  5
7C19
  8
0
 10
4351.6108215752301476
 20
149.8464175080503082
 30
0.0
 40
0.0474441386
 50
179.9985732522004866
 51
199.5997665277994884
  0
ARC
  5
7C1A
  8
0
 10
4351.6103424958573669
 20
149.846419856119411
 30
0.0
 40
0.047444189766008
 50
359.8777905912485835
 51
19.5997612235688692
  0
ARC
  5
7C1B
  8
0
 10
4351.6144092930271654
 20
148.5584862941462063
 30
0.0
 40
0.0135002202350235
 50
0.3254488416052043
 51
179.6683356265527891
  0
ARC
  5
7C1C
  8
0
 10
4351.6144093014254395
 20
148.5586411244769067
 30
0.0
 40
0.0135002202350184
 50
180.3254488414015952
 51
359.6683356267562885
  0
ARC
  5
7C1D
  8
0
 10
4351.6144506385508066
 20
148.5596741861664043
 30
0.0
 40
0.0473668401694261
 50
19.81695141462788
 51
179.641031093344111
  0
ARC
  5
7C1E
  8
0
 10
4351.6143812036016243
 20
148.5602626245322142
 30
0.0
 40
0.0473670926586648
 50
200.0495196797212998
 51
359.6409575650520765
  0
ARC
  5
7C1F
  8
0
 10
4351.6144576974556912
 20
148.5681732399499992
 30
0.0
 40
0.0594085399778097
 50
180.9001850982189126
 51
359.1011506184062227
  0
ARC
  5
7C20
  8
0
 10
4351.6144561930495911
 20
148.5693470025831004
 30
0.0
 40
0.0594400442486734
 50
357.9698192432639985
 51
182.1770520339051984
  0
ARC
  5
7C21
  8
0
 10
4351.6143475178505469
 20
148.9887708487160864
 30
0.0
 40
0.0473065944114924
 50
19.803104707975109
 51
180.0668471484192139
  0
ARC
  5
7C22
  8
0
 10
4351.6143136174596293
 20
148.9888141624633136
 30
0.0
 40
0.0473060036424812
 50
199.8326630774068065
 51
0.0741989669322555
  0
ARC
  5
7C23
  8
0
 10
4351.6140861181684159
 20
148.9946816721264895
 30
0.0
 40
0.0594496716186474
 50
166.8285322296748916
 51
359.2438940262176175
  0
ARC
  5
7C24
  8
0
 10
4351.6141439972725493
 20
148.9951555354234927
 30
0.0
 40
0.0593999466485284
 50
358.786114933324825
 51
167.2863113225743916
  0
ARC
  5
7C25
  8
0
 10
4351.6148872187568486
 20
148.9882739765700137
 30
0.0
 40
0.0134880357605691
 50
0.0925129417331049
 51
180.0980218698215083
  0
ARC
  5
7C26
  8
0
 10
4351.61488722091417
 20
148.9882726796450072
 30
0.0
 40
0.0134880357605736
 50
180.092512658686303
 51
0.0980221528667281
  0
ARC
  5
7C27
  8
0
 10
4351.61097485783921
 20
149.4190349356545084
 30
0.0
 40
0.013464385582885
 50
359.8552793012930806
 51
180.1515735499789912
  0
ARC
  5
7C28
  8
0
 10
4351.6109748620028768
 20
149.4189653072178032
 30
0.0
 40
0.0134643855828858
 50
179.8552793012898121
 51
0.1515735499822546
  0
ARC
  5
7C29
  8
0
 10
4351.6116149036051866
 20
149.4199021315343998
 30
0.0
 40
0.0470742810343832
 50
21.8072276505846183
 51
157.7672225744192076
  0
ARC
  5
7C2A
  8
0
 10
4351.6116125536846084
 20
149.4192693457659971
 30
0.0
 40
0.0473151700162665
 50
212.9165601055105128
 51
351.2970902224857923
  0
ARC
  5
7C2B
  8
0
 10
4351.6142120722879554
 20
149.4208053877759994
 30
0.0
 40
0.0596860204578214
 50
180.2639760559266904
 51
359.7336847053479119
  0
ARC
  5
7C2C
  8
0
 10
4351.6142120614231317
 20
149.4202731633241967
 30
0.0
 40
0.0596859304515403
 50
0.2445972809143973
 51
179.7530634803603959
  0
ARC
  5
7C2D
  8
0
 10
4351.6101307467934021
 20
149.8464537341961034
 30
0.0
 40
0.0134641627134085
 50
359.4251909468371196
 51
180.5748090531627952
  0
ARC
  5
7C2E
  8
0
 10
4351.6101307467934021
 20
149.8463831272339064
 30
0.0
 40
0.0134636394979491
 50
180.274348252833704
 51
359.725651747166296
  0
ARC
  5
7C2F
  8
0
 10
4351.6105654741668332
 20
149.8465567556513918
 30
0.0
 40
0.047188239518057
 50
19.5339883266144199
 51
180.167639569766294
  0
ARC
  5
7C30
  8
0
 10
4351.6105985300637258
 20
149.8462804223865987
 30
0.0
 40
0.0471880631275433
 50
199.5338077751692936
 51
0.0464278998000488
  0
ARC
  5
7C31
  8
0
 10
4351.6143572247319753
 20
149.8463740624233935
 30
0.0
 40
0.0593434296243873
 50
359.9465090414514066
 51
53.3634980654212114
  0
ARC
  5
7C32
  8
0
 10
4351.6140085983015524
 20
149.8459318816898076
 30
0.0
 40
0.0599062921351007
 50
53.3483046535001222
 51
117.339572406770003
  0
ARC
  5
7C33
  8
0
 10
4351.6137539939891212
 20
149.8463189841232861
 30
0.0
 40
0.0594455182502712
 50
117.292938913975803
 51
164.5530000481464867
  0
ARC
  5
7C34
  8
0
 10
4351.6135100767151016
 20
149.8464119305824056
 30
0.0
 40
0.0591856610628676
 50
164.576836197066001
 51
214.9450438262416867
  0
ARC
  5
7C35
  8
0
 10
4351.6140169991913353
 20
149.8468279218986083
 30
0.0
 40
0.0598394836202236
 50
214.9935201530684878
 51
304.8529971414104125
  0
ARC
  5
7C36
  8
0
 10
4351.6143580694979391
 20
149.8464600484680034
 30
0.0
 40
0.0593427274314514
 50
304.785740186711223
 51
359.8634882159774975
  0
ARC
  5
7C37
  8
0
 10
4350.8792888447260339
 20
148.5626219448901111
 30
0.0
 40
0.047301649765003
 50
359.9068270054419258
 51
160.0843865683314959
  0
ARC
  5
7C38
  8
0
 10
4350.8793742151128754
 20
148.5628093315017964
 30
0.0
 40
0.0473018193658267
 50
179.9070834077315055
 51
340.0164505869303753
  0
ARC
  5
7C39
  8
0
 10
4350.8785829104690492
 20
148.5618942602262109
 30
0.0
 40
0.0134617412026807
 50
143.4591566175053003
 51
215.8037251878197935
  0
ARC
  5
7C3A
  8
0
 10
4350.8785558366516852
 20
148.5618788599254003
 30
0.0
 40
0.013449188668162
 50
69.5335920905257723
 51
143.3377727267221928
  0
ARC
  5
7C3B
  8
0
 10
4350.878558085700206
 20
148.5618021538531082
 30
0.0
 40
0.0135202973989352
 50
353.5931482232655867
 51
69.6561820572221393
  0
ARC
  5
7C3C
  8
0
 10
4350.8786672701016869
 20
148.5617972931318036
 30
0.0
 40
0.0134112545183243
 50
279.6564916592344048
 51
353.5617333049711988
  0
ARC
  5
7C3D
  8
0
 10
4350.8786517132275549
 20
148.5619144815466086
 30
0.0
 40
0.0135293927185909
 50
215.7027211553075006
 51
279.6381933282381738
  0
ARC
  5
7C3E
  8
0
 10
4350.8842603839657386
 20
148.5684185408404971
 30
0.0
 40
0.0593339184764845
 50
319.5304199535739826
 51
80.3648829553550144
  0
ARC
  5
7C3F
  8
0
 10
4350.8836804708489581
 20
148.5679874052453044
 30
0.0
 40
0.0594994311705262
 50
212.1423970634220098
 51
320.2087241241165998
  0
ARC
  5
7C40
  8
0
 10
4350.884345885521725
 20
148.5677764225196995
 30
0.0
 40
0.0599529748897605
 50
80.5481525613079583
 51
211.6333361675912954
  0
ARC
  5
7C41
  8
0
 10
4350.8721686089747891
 20
148.9948117325461965
 30
0.0
 40
0.0134235793878297
 50
359.6740150186776077
 51
180.3195815854751061
  0
ARC
  5
7C42
  8
0
 10
4350.8721686005228548
 20
148.994660486358697
 30
0.0
 40
0.0134235793878264
 50
179.6740150186938081
 51
0.3195815854604834
  0
ARC
  5
7C43
  8
0
 10
4350.8736100564210574
 20
148.9950349617957954
 30
0.0
 40
0.0470289068582077
 50
359.6382842799404216
 51
160.6700129614613957
  0
ARC
  5
7C44
  8
0
 10
4350.8735407097155985
 20
148.9944509773474124
 30
0.0
 40
0.0470288982130579
 50
179.6410510969679137
 51
340.6700218787888161
  0
ARC
  5
7C45
  8
0
 10
4350.8823937399592978
 20
148.9941947876218933
 30
0.0
 40
0.0600148856808758
 50
0.558426257728056
 51
179.4438626310667075
  0
ARC
  5
7C46
  8
0
 10
4350.8823937162951552
 20
148.9953795172123989
 30
0.0
 40
0.0600150563393609
 50
180.5749321923672994
 51
359.4273566964279212
  0
ARC
  5
7C47
  8
0
 10
4350.8720524210730218
 20
149.4205060649462098
 30
0.0
 40
0.0134223904498255
 50
179.6707068420909081
 51
359.9999999999512283
  0
ARC
  5
7C48
  8
0
 10
4350.8720528612930138
 20
149.4206592580812867
 30
0.0
 40
0.0134228244451977
 50
359.3460757320693801
 51
180.3246311100226933
  0
ARC
  5
7C49
  8
0
 10
4350.8734345517186739
 20
149.420288753363792
 30
0.0
 40
0.0470238515651984
 50
179.6365963890941941
 51
340.6779286321037716
  0
ARC
  5
7C4A
  8
0
 10
4350.8735056474488374
 20
149.4208829581461941
 30
0.0
 40
0.0470238515012206
 50
359.6365954075170066
 51
160.6779287405803132
  0
ARC
  5
7C4B
  8
0
 10
4350.8823566368391766
 20
149.4199996748889987
 30
0.0
 40
0.0600243658739247
 50
0.5747514778939279
 51
179.4262465459158022
  0
ARC
  5
7C4C
  8
0
 10
4350.8823566262690292
 20
149.4212133559935012
 30
0.0
 40
0.0600244720407336
 50
180.5847748674858053
 51
359.4162231563230989
  0
ARC
  5
7C4D
  8
0
 10
4350.8720152672658514
 20
149.8463410192049992
 30
0.0
 40
0.0134214251303046
 50
180.0955432162257068
 51
359.9044567837628961
  0
ARC
  5
7C4E
  8
0
 10
4350.8720152672658514
 20
149.8464952852816907
 30
0.0
 40
0.0134225688952595
 50
359.2459407059815817
 51
180.7540592940054012
  0
ARC
  5
7C4F
  8
0
 10
4350.8734727062628735
 20
149.8467172191166981
 30
0.0
 40
0.0470224441866389
 50
359.5143326426447175
 51
160.6811630801080923
  0
ARC
  5
7C50
  8
0
 10
4350.8733881468251639
 20
149.8461406438972858
 30
0.0
 40
0.0470406597263244
 50
179.7832012067975995
 51
340.6623966943441246
  0
ARC
  5
7C51
  8
0
 10
4350.8823425997452432
 20
149.8470267085552905
 30
0.0
 40
0.0600263424244248
 50
180.6758761340418005
 51
359.3241238659581995
  0
ARC
  5
7C52
  8
0
 10
4350.8823425997452432
 20
149.8458142058101998
 30
0.0
 40
0.0600242856996486
 50
0.4815084170007428
 51
179.5184915829991894
  0
LINE
  5
7C53
  8
0
 10
4354.527856130105647
 20
152.2925488302524002
 30
0.0
 11
4349.7953040561997113
 21
152.2925488302524002
 31
0.0
  0
LINE
  5
7C54
  8
0
 10
4350.5054675538985975
 20
151.5922336897523905
 30
0.0
 11
4353.8176926324058513
 21
151.5922336897523905
 31
0.0
  0
LINE
  5
7C55
  8
0
 10
4350.56758046899904
 20
151.4886859203525091
 30
0.0
 11
4353.7555797173081373
 21
151.4886859203525091
 31
0.0
  0
ARC
  5
7C56
  8
0
 10
4349.7952836462181949
 20
152.2126154602125894
 30
0.0
 40
0.0799333726455044
 50
89.9853702434950549
 51
180.0174951266818084
  0
ARC
  5
7C57
  8
0
 10
4350.56758046899904
 20
151.440318638352494
 30
0.0
 40
0.048367282
 50
90.0000000027097258
 51
179.9999999897993916
  0
ARC
  5
7C58
  8
0
 10
4350.8791913608993127
 20
151.1297464094525083
 30
0.0
 40
0.0471189032
 50
179.9941310565000947
 51
199.6485422794009139
  0
ARC
  5
7C59
  8
0
 10
4350.8794717954997395
 20
151.1300971164525038
 30
0.0
 40
0.0471186367
 50
359.9940856857995755
 51
19.7164971100983308
  0
ARC
  5
7C5A
  8
0
 10
4350.8729522067988
 20
150.27205483955251
 30
0.0
 40
0.0475763464
 50
359.9972673894001218
 51
19.4636292401944289
  0
ARC
  5
7C5B
  8
0
 10
4350.8739879921995453
 20
150.2720480025525092
 30
0.0
 40
0.0475763463
 50
179.9972663804992976
 51
199.4636292665987014
  0
ARC
  5
7C5C
  8
0
 10
4350.873066252598619
 20
150.697899212652402
 30
0.0
 40
0.0475717735000515
 50
0.0000000000081422
 51
19.4671047399826307
  0
ARC
  5
7C5D
  8
0
 10
4350.8740845077991253
 20
150.6978893920525024
 30
0.0
 40
0.0475717735
 50
179.9972530342004973
 51
199.4671047485946076
  0
CIRCLE
  5
7C5E
  8
0
 10
4351.2490804689987272
 20
151.1236186383524114
 30
0.0
 40
0.068
  0
CIRCLE
  5
7C5F
  8
0
 10
4351.9790804690001096
 20
151.1236186383524114
 30
0.0
 40
0.068
  0
ARC
  5
7C60
  8
0
 10
4351.9795934402000057
 20
151.1333732202525084
 30
0.0
 40
0.046835868
 50
0.0021602179001507
 51
19.9127333586052018
  0
ARC
  5
7C61
  8
0
 10
4351.9786019393986862
 20
151.1333778496525042
 30
0.0
 40
0.0468352813
 50
180.0020748071995911
 51
199.6793677202012987
  0
ARC
  5
7C62
  8
0
 10
4351.2496639138998944
 20
151.1335465162524088
 30
0.0
 40
0.0468244351
 50
0.0022919992991639
 51
19.9144172178030914
  0
ARC
  5
7C63
  8
0
 10
4351.2486495284992998
 20
151.1335553326524064
 30
0.0
 40
0.0468238178
 50
180.0022010002005004
 51
199.6794990756048946
  0
ARC
  5
7C64
  8
0
 10
4351.2451918114993532
 20
150.7012813476524968
 30
0.0
 40
0.047258447199912
 50
179.999999999985306
 51
199.6894084976320869
  0
ARC
  5
7C65
  8
0
 10
4351.2452536131986562
 20
150.7014436344524029
 30
0.0
 40
0.047258377
 50
359.9969468449006058
 51
19.7233216904081594
  0
ARC
  5
7C66
  8
0
 10
4351.2416378027201063
 20
150.272063084275004
 30
0.0
 40
0.0476375730339061
 50
355.5836531631121034
 51
19.5814432629105788
  0
ARC
  5
7C67
  8
0
 10
4351.2422982111993406
 20
150.2721049628524099
 30
0.0
 40
0.0474411753
 50
179.998491696499201
 51
199.6016971447060087
  0
ARC
  5
7C68
  8
0
 10
4351.979355949300043
 20
150.7035095688524109
 30
0.0
 40
0.0471117595
 50
0.0008305609994693
 51
19.8529893077954114
  0
ARC
  5
7C69
  8
0
 10
4351.9789166688997284
 20
150.70351427615239
 30
0.0
 40
0.0471115984
 50
180.000807164799312
 51
199.7035512946019935
  0
ARC
  5
7C6A
  8
0
 10
4351.9790885615338993
 20
150.2721466248534057
 30
0.0
 40
0.0594096808242418
 50
179.5074288684205897
 51
0.4936479602797683
  0
ARC
  5
7C6B
  8
0
 10
4351.9790885604998039
 20
150.2722566341523986
 30
0.0
 40
0.0594088359
 50
0.3875553460001717
 51
179.6135214827000084
  0
ARC
  5
7C6C
  8
0
 10
4351.9792368481994345
 20
150.275025623152402
 30
0.0
 40
0.0472772609
 50
199.7612507028973994
 51
179.9592501937000009
  0
ARC
  5
7C6D
  8
0
 10
4351.9764037475306395
 20
150.2742555962691995
 30
0.0
 40
0.0444514136035368
 50
178.9640748255775122
 51
199.9974153185044088
  0
CIRCLE
  5
7C6E
  8
0
 10
4351.9791981448988736
 20
150.2754760801524014
 30
0.0
 40
0.0135008684
  0
ARC
  5
7C6F
  8
0
 10
4350.5054231532758422
 20
151.5024759557767027
 30
0.0
 40
0.0897577449576057
 50
89.9716573940249731
 51
179.9999999999984084
  0
ARC
  5
7C70
  8
0
 10
4351.9790883641662731
 20
151.1241179397974008
 30
0.0
 40
0.0594378017377979
 50
177.9996003974283099
 51
2.0006849164201101
  0
ARC
  5
7C71
  8
0
 10
4351.9790883613131882
 20
151.1252635022862876
 30
0.0
 40
0.0594088436779134
 50
0.896473032298725
 51
179.1038122815488123
  0
ARC
  5
7C72
  8
0
 10
4351.9790661792148967
 20
151.1336493029465089
 30
0.0
 40
0.0473639233352437
 50
199.7994449917127042
 51
359.668159133643428
  0
ARC
  5
7C73
  8
0
 10
4351.9791324230318423
 20
151.1330878626559979
 30
0.0
 40
0.047366642233565
 50
20.0473398754862515
 51
179.6512744404327862
  0
ARC
  5
7C74
  8
0
 10
4351.9790995260727868
 20
151.1348384273800036
 30
0.0
 40
0.0135002112203485
 50
180.319841762528398
 51
359.6787559763113222
  0
ARC
  5
7C75
  8
0
 10
4351.9790995242246936
 20
151.1346873735415954
 30
0.0
 40
0.0135002112202541
 50
0.3198416913400617
 51
179.6787560475015937
  0
ARC
  5
7C76
  8
0
 10
4351.9791520531489368
 20
150.7033811790012976
 30
0.0
 40
0.0473471678589205
 50
19.9153280801162182
 51
179.8397393457603073
  0
ARC
  5
7C77
  8
0
 10
4351.9791207491480236
 20
150.7036429623694005
 30
0.0
 40
0.0473471456363054
 50
199.7668953393169886
 51
359.8394039133381739
  0
ARC
  5
7C78
  8
0
 10
4351.9790951270588266
 20
150.6979902494350085
 30
0.0
 40
0.0594165130371768
 50
0.7108807456902378
 51
179.2900072567676091
  0
ARC
  5
7C79
  8
0
 10
4351.9790951307741125
 20
150.6975044319154051
 30
0.0
 40
0.0594245223060246
 50
178.8216237900159911
 51
1.1792643088835331
  0
ARC
  5
7C7A
  8
0
 10
4351.9791431004514379
 20
150.7044015378859001
 30
0.0
 40
0.0135000405690613
 50
0.1414165953330068
 51
179.8545204967547875
  0
ARC
  5
7C7B
  8
0
 10
4351.979143102847047
 20
150.7044691363190907
 30
0.0
 40
0.0135000405690578
 50
180.1414165954111866
 51
359.8545204966749793
  0
ARC
  5
7C7C
  8
0
 10
4351.2491637839493706
 20
151.1350330416678105
 30
0.0
 40
0.0135002202350235
 50
180.3254488416052084
 51
359.6683356265527891
  0
ARC
  5
7C7D
  8
0
 10
4351.2491637755510965
 20
151.1348782113371954
 30
0.0
 40
0.0135002202350184
 50
0.3254488414016521
 51
179.6683356267564022
  0
ARC
  5
7C7E
  8
0
 10
4351.2491224384248198
 20
151.1338451496476125
 30
0.0
 40
0.0473668401694261
 50
199.8169514146277947
 51
359.6410310933442247
  0
ARC
  5
7C7F
  8
0
 10
4351.2491918733740022
 20
151.1332567112818026
 30
0.0
 40
0.0473670926586648
 50
20.0495196797213602
 51
179.6409575650521049
  0
ARC
  5
7C80
  8
0
 10
4351.2491153795208447
 20
151.1253460958639891
 30
0.0
 40
0.0594085399778097
 50
0.9001850982189314
 51
179.1011506184061943
  0
ARC
  5
7C81
  8
0
 10
4351.2491168839260354
 20
151.1241723332308879
 30
0.0
 40
0.0594400442486734
 50
177.9698192432639985
 51
2.1770520339051829
  0
ARC
  5
7C82
  8
0
 10
4351.245205427883775
 20
150.7013859234270967
 30
0.0
 40
0.0473065944114924
 50
199.803104707975109
 51
0.066847148419199
  0
ARC
  5
7C83
  8
0
 10
4351.2452393282746925
 20
150.701342609679898
 30
0.0
 40
0.0473060036424812
 50
19.83266307740681
 51
180.0741989669305951
  0
ARC
  5
7C84
  8
0
 10
4351.248705485312712
 20
150.6980950591589021
 30
0.0
 40
0.059506009944374
 50
0.5139883427382334
 51
179.4190526749233925
  0
ARC
  5
7C85
  8
0
 10
4351.2487055002939087
 20
150.6981206958708128
 30
0.0
 40
0.0595057705082928
 50
179.4437361405103104
 51
0.4893048771519176
  0
ARC
  5
7C86
  8
0
 10
4351.2446657269765637
 20
150.7018827955731979
 30
0.0
 40
0.0134880357605691
 50
180.092512941733105
 51
0.0980218698215144
  0
ARC
  5
7C87
  8
0
 10
4351.2446657248210613
 20
150.7018840924982896
 30
0.0
 40
0.0134880357605736
 50
0.0925126586863517
 51
180.0980221528666902
  0
ARC
  5
7C88
  8
0
 10
4351.2411029834320289
 20
150.2720850490341036
 30
0.0
 40
0.013464385582885
 50
179.855279301293109
 51
0.1515735499789977
  0
ARC
  5
7C89
  8
0
 10
4351.2411029792674526
 20
150.2721546774708088
 30
0.0
 40
0.0134643855828858
 50
359.8552793012898974
 51
180.1515735499822028
  0
ARC
  5
7C8A
  8
0
 10
4351.2420790720188961
 20
150.27197384263809
 30
0.0
 40
0.0471907740720567
 50
199.5409847641838894
 51
355.6504272075443964
  0
ARC
  5
7C8B
  8
0
 10
4351.2420476059942303
 20
150.2722442295101075
 30
0.0
 40
0.0471907719231536
 50
19.54098254239765
 51
180.1675718781831108
  0
ARC
  5
7C8C
  8
0
 10
4351.2480652732101589
 20
150.2717767397286082
 30
0.0
 40
0.0596860204578214
 50
0.2639760559267533
 51
179.7336847053479119
  0
ARC
  5
7C8D
  8
0
 10
4351.2480652840749826
 20
150.2723089641804108
 30
0.0
 40
0.0596859304515403
 50
180.2445972809144052
 51
359.7530634803604244
  0
CIRCLE
  5
7C8E
  8
0
 10
4351.6144926079768993
 20
151.1227365793432966
 30
0.0
 40
0.068
  0
ARC
  5
7C8F
  8
0
 10
4351.6139091630757321
 20
151.132664457243294
 30
0.0
 40
0.0468244351
 50
160.0855827821968944
 51
179.9977080007008112
  0
ARC
  5
7C90
  8
0
 10
4351.6149235484763267
 20
151.1326732736432916
 30
0.0
 40
0.0468238178
 50
340.3205009243951054
 51
359.9977989997994996
  0
ARC
  5
7C91
  8
0
 10
4351.6143611342349686
 20
150.7037618523139884
 30
0.0
 40
0.047258447199912
 50
340.3105915023679131
 51
0.000000000014656
  0
ARC
  5
7C92
  8
0
 10
4351.6142993325356656
 20
150.7039241391140934
 30
0.0
 40
0.047258377
 50
160.2766783095918015
 51
180.0030531550993942
  0
ARC
  5
7C93
  8
0
 10
4351.6116125537000698
 20
150.2733679310524053
 30
0.0
 40
0.0473151700000056
 50
147.0834398430214094
 51
202.9431687112661109
  0
ARC
  5
7C94
  8
0
 10
4351.6116125539647328
 20
150.2733679309847901
 30
0.0
 40
0.0473151697286184
 50
337.4823809651804254
 51
8.7029098754802821
  0
ARC
  5
7C95
  8
0
 10
4351.6144092930271654
 20
151.1341509826586957
 30
0.0
 40
0.0135002202350235
 50
180.3316643734470972
 51
359.67455115839482
  0
ARC
  5
7C96
  8
0
 10
4351.6144093014254395
 20
151.1339961523279953
 30
0.0
 40
0.0135002202350184
 50
0.3316643732436264
 51
179.6745511585982911
  0
ARC
  5
7C97
  8
0
 10
4351.6144506385508066
 20
151.1329630906384978
 30
0.0
 40
0.0473668401694261
 50
180.3589689066558037
 51
340.1830485853722053
  0
ARC
  5
7C98
  8
0
 10
4351.6143812036016243
 20
151.1323746522726879
 30
0.0
 40
0.0473670926586648
 50
0.3590424349479143
 51
159.9504803202785865
  0
ARC
  5
7C99
  8
0
 10
4351.6144576974556912
 20
151.1244640368549028
 30
0.0
 40
0.0594085399778097
 50
0.898849381593795
 51
179.0998149017810022
  0
ARC
  5
7C9A
  8
0
 10
4351.6144561930495911
 20
151.1232902742218016
 30
0.0
 40
0.0594400442486734
 50
177.8229479660948016
 51
2.030180756736041
  0
ARC
  5
7C9B
  8
0
 10
4351.6143475178505469
 20
150.7038664280887872
 30
0.0
 40
0.0473065944114924
 50
179.9331528515807861
 51
340.1968952920249194
  0
ARC
  5
7C9C
  8
0
 10
4351.6143136174596293
 20
150.7038231143415032
 30
0.0
 40
0.0473060036424812
 50
359.9258010330677848
 51
160.1673369225931935
  0
ARC
  5
7C9D
  8
0
 10
4351.6140861181684159
 20
150.6979556046784126
 30
0.0
 40
0.0594496716186474
 50
0.7561059737824376
 51
193.1714677703249947
  0
ARC
  5
7C9E
  8
0
 10
4351.6141439972725493
 20
150.6974817413814094
 30
0.0
 40
0.0593999466485284
 50
192.7136886774254947
 51
1.213885066675169
  0
ARC
  5
7C9F
  8
0
 10
4351.6148872187568486
 20
150.7043633002348031
 30
0.0
 40
0.0134880357605691
 50
179.9019781301784917
 51
359.907487058266895
  0
ARC
  5
7CA0
  8
0
 10
4351.61488722091417
 20
150.7043645971598949
 30
0.0
 40
0.0134880357605736
 50
359.9019778471331961
 51
179.9074873413136118
  0
ARC
  5
7CA1
  8
0
 10
4351.61097485783921
 20
150.2736023411503083
 30
0.0
 40
0.013464385582885
 50
179.8484264500210088
 51
0.1447206987069104
  0
ARC
  5
7CA2
  8
0
 10
4351.6109748620028768
 20
150.2736719695870136
 30
0.0
 40
0.0134643855828858
 50
359.8484264500178256
 51
180.1447206987101026
  0
ARC
  5
7CA3
  8
0
 10
4351.6116149036051866
 20
150.2727351452705022
 30
0.0
 40
0.0470742810343832
 50
202.2327774255807924
 51
338.1927723494154066
  0
ARC
  5
7CA4
  8
0
 10
4351.6116125536846084
 20
150.273367931038905
 30
0.0
 40
0.0473151700162665
 50
8.7029097775142326
 51
147.0834398944894872
  0
ARC
  5
7CA5
  8
0
 10
4351.6142120722879554
 20
150.2718318890289027
 30
0.0
 40
0.0596860204578214
 50
0.2663152946520753
 51
179.7360239440731959
  0
ARC
  5
7CA6
  8
0
 10
4351.6142120614231317
 20
150.2723641134807053
 30
0.0
 40
0.0596859304515403
 50
180.2469365196396041
 51
359.7554027190856232
  0
ARC
  5
7CA7
  8
0
 10
4350.8792888447260339
 20
151.130015331914791
 30
0.0
 40
0.047301649765003
 50
199.9156134316685041
 51
0.0931729945580991
  0
ARC
  5
7CA8
  8
0
 10
4350.8793742151128754
 20
151.129827945302992
 30
0.0
 40
0.0473018193658267
 50
19.9835494130695785
 51
180.0929165922684945
  0
ARC
  5
7CA9
  8
0
 10
4350.8785829104690492
 20
151.1307430165786911
 30
0.0
 40
0.0134617412026807
 50
144.1962748121802065
 51
216.5408433824946997
  0
ARC
  5
7CAA
  8
0
 10
4350.8785558366516852
 20
151.1307584168795017
 30
0.0
 40
0.013449188668162
 50
216.6622272732778072
 51
290.4664079094742988
  0
ARC
  5
7CAB
  8
0
 10
4350.878558085700206
 20
151.1308351229517939
 30
0.0
 40
0.0135202973989352
 50
290.3438179427777754
 51
6.4068517767343867
  0
ARC
  5
7CAC
  8
0
 10
4350.8786672701016869
 20
151.1308399836730985
 30
0.0
 40
0.0134112545183243
 50
6.4382666950287444
 51
80.3435083407655952
  0
ARC
  5
7CAD
  8
0
 10
4350.8786517132275549
 20
151.1307227952584071
 30
0.0
 40
0.0135293927185909
 50
80.3618066717617552
 51
144.2972788446924142
  0
ARC
  5
7CAE
  8
0
 10
4350.8842603839657386
 20
151.1242187359642912
 30
0.0
 40
0.0593339184764845
 50
279.6351170446450283
 51
40.4695800464259889
  0
ARC
  5
7CAF
  8
0
 10
4350.8836804708489581
 20
151.1246498715595976
 30
0.0
 40
0.0594994311705262
 50
39.7912758758833931
 51
147.8576029365779902
  0
ARC
  5
7CB0
  8
0
 10
4350.884345885521725
 20
151.1248608542852025
 30
0.0
 40
0.0599529748897605
 50
148.3666638324087046
 51
279.4518474386920275
  0
ARC
  5
7CB1
  8
0
 10
4350.8721686089747891
 20
150.6978255442587056
 30
0.0
 40
0.0134235793878297
 50
179.6804184145248087
 51
0.325984981322426
  0
ARC
  5
7CB2
  8
0
 10
4350.8721686005228548
 20
150.6979767904462051
 30
0.0
 40
0.0134235793878264
 50
359.6804184145394743
 51
180.3259849813061066
  0
ARC
  5
7CB3
  8
0
 10
4350.8736100564210574
 20
150.6976023150091066
 30
0.0
 40
0.0470289068582077
 50
199.3299870385384907
 51
0.3617157200596199
  0
ARC
  5
7CB4
  8
0
 10
4350.8735407097155985
 20
150.6981862994574897
 30
0.0
 40
0.0470288982130579
 50
19.329978121211159
 51
180.358948903032001
  0
ARC
  5
7CB5
  8
0
 10
4350.8823937399592978
 20
150.6984424891830088
 30
0.0
 40
0.0600148856808758
 50
180.5561373689332925
 51
359.4415737422718848
  0
ARC
  5
7CB6
  8
0
 10
4350.8823937162951552
 20
150.6972577595925031
 30
0.0
 40
0.0600150563393609
 50
0.5726433035721071
 51
179.4250678076325869
  0
ARC
  5
7CB7
  8
0
 10
4350.8720524210730218
 20
150.2721312118586923
 30
0.0
 40
0.0134223904498255
 50
0.0000000000488533
 51
180.3292931579073866
  0
ARC
  5
7CB8
  8
0
 10
4350.8720528612930138
 20
150.271978018723587
 30
0.0
 40
0.0134228244451977
 50
179.675368889977193
 51
0.6539242679306059
  0
ARC
  5
7CB9
  8
0
 10
4350.8734345517186739
 20
150.27234852344111
 30
0.0
 40
0.0470238515651984
 50
19.3220713678961893
 51
180.3634036109056922
  0
ARC
  5
7CBA
  8
0
 10
4350.8735056474488374
 20
150.2717543186587079
 30
0.0
 40
0.0470238515012206
 50
199.3220712594196868
 51
0.3634045924830074
  0
ARC
  5
7CBB
  8
0
 10
4350.8823566368391766
 20
150.2726376019159034
 30
0.0
 40
0.0600243658739247
 50
180.5737534540841125
 51
359.4252485221060738
  0
ARC
  5
7CBC
  8
0
 10
4350.8823566262690292
 20
150.2714239208114009
 30
0.0
 40
0.0600244720407336
 50
0.5837768436769104
 51
179.4152251325141094
  0
LINE
  5
7CBD
  8
0
 10
4354.6078099090045725
 20
147.4800462240525007
 30
0.0
 11
4354.6078099090045725
 21
152.2125910527524013
 31
0.0
  0
LINE
  5
7CBE
  8
0
 10
4353.9074947779863578
 20
151.5024759557767027
 30
0.0
 11
4353.9074947670051188
 21
148.1902057187523951
 31
0.0
  0
LINE
  5
7CBF
  8
0
 10
4353.8039469993045714
 20
151.440318638352494
 30
0.0
 11
4353.8039469993045714
 21
148.2523186384524934
 31
0.0
  0
ARC
  5
7CC0
  8
0
 10
4354.527876540086254
 20
147.480021816592199
 30
0.0
 40
0.0799333726455044
 50
269.9853702434950264
 51
0.0174951266818641
  0
ARC
  5
7CC1
  8
0
 10
4353.7555797173054088
 20
148.2523186384524934
 30
0.0
 40
0.048367282
 50
270.0000000027097258
 51
359.9999999897995053
  0
ARC
  5
7CC2
  8
0
 10
4353.4439688254051362
 20
148.5628908673525075
 30
0.0
 40
0.0471189032
 50
359.9941310565001231
 51
19.6485422794009104
  0
ARC
  5
7CC3
  8
0
 10
4353.4436883908056188
 20
148.5625401603523983
 30
0.0
 40
0.0471186367
 50
179.9940856857996039
 51
199.7164971100982882
  0
ARC
  5
7CC4
  8
0
 10
4353.4502079795047393
 20
149.4205824372525058
 30
0.0
 40
0.0475763464
 50
179.9972673894000934
 51
199.4636292401943933
  0
ARC
  5
7CC5
  8
0
 10
4353.4491721941058131
 20
149.4205892742525066
 30
0.0
 40
0.0475763463
 50
359.9972663804992976
 51
19.4636292665987511
  0
ARC
  5
7CC6
  8
0
 10
4353.4500939337049203
 20
148.9947380641523864
 30
0.0
 40
0.0475717735000515
 50
180.0000000000081002
 51
199.4671047399826023
  0
ARC
  5
7CC7
  8
0
 10
4353.4490756785053236
 20
148.9947478847523996
 30
0.0
 40
0.0475717735
 50
359.9972530342005257
 51
19.4671047485961211
  0
CIRCLE
  5
7CC8
  8
0
 10
4353.0740797173048122
 20
148.5690186384524054
 30
0.0
 40
0.068
  0
CIRCLE
  5
7CC9
  8
0
 10
4352.3440797173052488
 20
148.5690186384524054
 30
0.0
 40
0.068
  0
ARC
  5
7CCA
  8
0
 10
4352.3435667461053526
 20
148.5592640565525073
 30
0.0
 40
0.046835868
 50
180.0021602179000979
 51
199.9127333586052089
  0
ARC
  5
7CCB
  8
0
 10
4352.3445582469057626
 20
148.5592594271525115
 30
0.0
 40
0.0468352813
 50
0.0020748071995913
 51
19.67936772020132
  0
ARC
  5
7CCC
  8
0
 10
4353.0734962724045545
 20
148.559090760552408
 30
0.0
 40
0.0468244351
 50
180.0022919992991035
 51
199.9144172178031056
  0
ARC
  5
7CCD
  8
0
 10
4353.0745106578051491
 20
148.5590819441524104
 30
0.0
 40
0.0468238178
 50
0.0022010002005603
 51
19.6794990756049302
  0
ARC
  5
7CCE
  8
0
 10
4353.0779683748050957
 20
148.9913559291524905
 30
0.0
 40
0.047258447199912
 50
359.9999999999852776
 51
19.6894084976320904
  0
ARC
  5
7CCF
  8
0
 10
4353.0779065731057926
 20
148.9911936423524139
 30
0.0
 40
0.047258377
 50
179.9969468449004921
 51
199.7233216904081985
  0
ARC
  5
7CD0
  8
0
 10
4353.0815223835852521
 20
149.420574192529898
 30
0.0
 40
0.0476375730339061
 50
175.5836531631121034
 51
199.5814432629105966
  0
ARC
  5
7CD1
  8
0
 10
4353.0808619751041988
 20
149.4205323139524069
 30
0.0
 40
0.0474411753
 50
359.9984916965008779
 51
19.6016971447059696
  0
ARC
  5
7CD2
  8
0
 10
4352.3438042370053154
 20
148.9891277079524059
 30
0.0
 40
0.0471117595
 50
180.0008305609993897
 51
199.8529893077954114
  0
ARC
  5
7CD3
  8
0
 10
4352.3442435174047205
 20
148.9891230006523983
 30
0.0
 40
0.0471115984
 50
0.0008071647993328
 51
19.7035512946020503
  0
ARC
  5
7CD4
  8
0
 10
4352.3440716247705495
 20
149.4204906519514964
 30
0.0
 40
0.0594096808242418
 50
359.5074288684206749
 51
180.4936479602797021
  0
ARC
  5
7CD5
  8
0
 10
4352.3440716258055545
 20
149.4203806426525034
 30
0.0
 40
0.0594088359
 50
180.3875553460001129
 51
359.61352148269998
  0
ARC
  5
7CD6
  8
0
 10
4352.3439233381059239
 20
149.4176116536525001
 30
0.0
 40
0.0472772609
 50
19.76125070289741
 51
359.9592501936999724
  0
ARC
  5
7CD7
  8
0
 10
4352.3467564387728999
 20
149.4183816805357026
 30
0.0
 40
0.0444514136035368
 50
358.9640748255774838
 51
19.997415318504391
  0
CIRCLE
  5
7CD8
  8
0
 10
4352.3439620414046658
 20
149.4171611966523869
 30
0.0
 40
0.0135008684
  0
CIRCLE
  5
7CD9
  8
0
 10
4353.4390797173045939
 20
149.8464186384524055
 30
0.0
 40
0.068
  0
ARC
  5
7CDA
  8
0
 10
4353.4502447922050123
 20
149.8464164026524088
 30
0.0
 40
0.0475781674998056
 50
180.1177322109244869
 51
199.4624319986201897
  0
ARC
  5
7CDB
  8
0
 10
4353.4481295890082038
 20
149.8461414641041074
 30
0.0
 40
0.048683095844849
 50
0.2085192358314955
 51
19.3517278304511109
  0
CIRCLE
  5
7CDC
  8
0
 10
4353.0740797173048122
 20
149.8464186384524055
 30
0.0
 40
0.068
  0
ARC
  5
7CDD
  8
0
 10
4353.0813771187058592
 20
149.846417486652399
 30
0.0
 40
0.0474441386
 50
179.9985732522004866
 51
199.5997665277994884
  0
ARC
  5
7CDE
  8
0
 10
4353.080898039332169
 20
149.8464198347215017
 30
0.0
 40
0.047444189766008
 50
359.8777905912485835
 51
19.5997612235688692
  0
ARC
  5
7CDF
  8
0
 10
4353.8177370330276972
 20
148.1901613210281994
 30
0.0
 40
0.0897577449576037
 50
269.9716573940249873
 51
0.0283407557204521
  0
ARC
  5
7CE0
  8
0
 10
4352.3440718221390853
 20
148.5685193370075012
 30
0.0
 40
0.0594378017377979
 50
357.9996003974283099
 51
182.0006849164201128
  0
ARC
  5
7CE1
  8
0
 10
4352.3440718249912607
 20
148.5673737745185861
 30
0.0
 40
0.0594088436779134
 50
180.8964730322971093
 51
359.1038122815488123
  0
ARC
  5
7CE2
  8
0
 10
4352.3440940070886427
 20
148.5589879738583932
 30
0.0
 40
0.0473639233352437
 50
19.7994449917127113
 51
179.6681591336433996
  0
ARC
  5
7CE3
  8
0
 10
4352.3440277632726065
 20
148.5595494141489894
 30
0.0
 40
0.047366642233565
 50
200.0473398754861876
 51
359.6512744404329283
  0
ARC
  5
7CE4
  8
0
 10
4352.3440606602307525
 20
148.5577988494248984
 30
0.0
 40
0.0135002112203485
 50
0.3198417625284182
 51
179.6787559763112938
  0
ARC
  5
7CE5
  8
0
 10
4352.3440606620788458
 20
148.5579499032631929
 30
0.0
 40
0.0135002112202541
 50
180.3198416913384108
 51
359.6787560475016221
  0
ARC
  5
7CE6
  8
0
 10
4352.3440081331546025
 20
148.9892560978036045
 30
0.0
 40
0.0473471678589205
 50
199.9153280801147048
 51
359.8397393457602789
  0
ARC
  5
7CE7
  8
0
 10
4352.3440394371573348
 20
148.9889943144355016
 30
0.0
 40
0.0473471456363054
 50
19.7668953393170383
 51
179.8394039133397939
  0
ARC
  5
7CE8
  8
0
 10
4352.3440650592474412
 20
148.9946470273698083
 30
0.0
 40
0.0594165130371768
 50
180.71088074569019
 51
359.2900072567675807
  0
ARC
  5
7CE9
  8
0
 10
4352.3440650555303364
 20
148.9951328448894969
 30
0.0
 40
0.0594245223060246
 50
358.8216237900160195
 51
181.1792643088834893
  0
ARC
  5
7CEA
  8
0
 10
4352.3440170858539204
 20
148.988235738919002
 30
0.0
 40
0.0135000405690613
 50
180.1414165953329984
 51
359.8545204967547875
  0
ARC
  5
7CEB
  8
0
 10
4352.3440170834574019
 20
148.9881681404858966
 30
0.0
 40
0.0135000405690578
 50
0.1414165954111719
 51
179.8545204966750077
  0
ARC
  5
7CEC
  8
0
 10
4353.0739964023568973
 20
148.5576042351370916
 30
0.0
 40
0.0135002202350235
 50
0.3254488416052043
 51
179.6683356265527891
  0
ARC
  5
7CED
  8
0
 10
4353.0739964107542619
 20
148.557759065467792
 30
0.0
 40
0.0135002202350184
 50
180.3254488414015952
 51
359.6683356267562885
  0
ARC
  5
7CEE
  8
0
 10
4353.0740377478787195
 20
148.5587921271572895
 30
0.0
 40
0.0473668401694261
 50
19.81695141462788
 51
179.641031093344111
  0
ARC
  5
7CEF
  8
0
 10
4353.0739683129304467
 20
148.5593805655230994
 30
0.0
 40
0.0473670926586648
 50
200.0495196797212998
 51
359.6409575650520765
  0
ARC
  5
7CF0
  8
0
 10
4353.0740448067836041
 20
148.5672911809409129
 30
0.0
 40
0.0594085399778097
 50
180.9001850982189126
 51
359.1011506184062227
  0
ARC
  5
7CF1
  8
0
 10
4353.074043302379323
 20
148.5684649435739004
 30
0.0
 40
0.0594400442486734
 50
357.9698192432639985
 51
182.1770520339051984
  0
ARC
  5
7CF2
  8
0
 10
4353.0779547584206739
 20
148.9912513533778053
 30
0.0
 40
0.0473065944114924
 50
19.803104707975109
 51
180.0668471484192139
  0
ARC
  5
7CF3
  8
0
 10
4353.0779208580297563
 20
148.991294667125004
 30
0.0
 40
0.0473060036424812
 50
199.8326630774068065
 51
0.0741989669322555
  0
ARC
  5
7CF4
  8
0
 10
4353.0744547009908274
 20
148.9945422176459999
 30
0.0
 40
0.059506009944374
 50
180.5139883427382017
 51
359.4190526749234209
  0
ARC
  5
7CF5
  8
0
 10
4353.0744546860114497
 20
148.9945165809340892
 30
0.0
 40
0.0595057705082928
 50
359.443736140510282
 51
180.4893048771519091
  0
ARC
  5
7CF6
  8
0
 10
4353.0784944593269756
 20
148.9907544812317042
 30
0.0
 40
0.0134880357605691
 50
0.0925129417331049
 51
180.0980218698215083
  0
ARC
  5
7CF7
  8
0
 10
4353.0784944614842971
 20
148.9907531843066124
 30
0.0
 40
0.0134880357605736
 50
180.092512658686303
 51
0.0980221528667281
  0
ARC
  5
7CF8
  8
0
 10
4353.082057202874239
 20
149.4205522277707985
 30
0.0
 40
0.013464385582885
 50
359.8552793012930806
 51
180.1515735499789912
  0
ARC
  5
7CF9
  8
0
 10
4353.0820572070379058
 20
149.4204825993340933
 30
0.0
 40
0.0134643855828858
 50
179.8552793012898121
 51
0.1515735499822546
  0
ARC
  5
7CFA
  8
0
 10
4353.0810811142855528
 20
149.4206634341668121
 30
0.0
 40
0.0471907740720567
 50
19.5409847641838894
 51
175.6504272075443964
  0
ARC
  5
7CFB
  8
0
 10
4353.0811125803111281
 20
149.4203930472947945
 30
0.0
 40
0.0471907719231536
 50
199.540982542397586
 51
0.1675718781831133
  0
ARC
  5
7CFC
  8
0
 10
4353.0750949130933805
 20
149.4208605370762939
 30
0.0
 40
0.0596860204578214
 50
180.2639760559266904
 51
359.7336847053479119
  0
ARC
  5
7CFD
  8
0
 10
4353.0750949022285567
 20
149.420328312624406
 30
0.0
 40
0.0596859304515403
 50
0.2445972809143973
 51
179.7530634803603959
  0
ARC
  5
7CFE
  8
0
 10
4353.0821043778896637
 20
149.8464537127981941
 30
0.0
 40
0.0134641627134085
 50
359.4251909468371196
 51
180.5748090531627952
  0
ARC
  5
7CFF
  8
0
 10
4353.0821043778896637
 20
149.8463831058359972
 30
0.0
 40
0.0134636394979491
 50
180.274348252833704
 51
359.725651747166296
  0
ARC
  5
7D00
  8
0
 10
4353.0811210176416353
 20
149.846556734253511
 30
0.0
 40
0.047188239518057
 50
19.5339883266144199
 51
180.167639569766294
  0
ARC
  5
7D01
  8
0
 10
4353.0811540735394374
 20
149.8462804009886895
 30
0.0
 40
0.0471880631275433
 50
199.5338077751692936
 51
0.0464278998000488
  0
ARC
  5
7D02
  8
0
 10
4353.0754413984914208
 20
149.8463740410255127
 30
0.0
 40
0.0593434296243873
 50
359.9465090414514066
 51
53.3634980654212114
  0
ARC
  5
7D03
  8
0
 10
4353.075092772060998
 20
149.8459318602918984
 30
0.0
 40
0.0599062921351007
 50
53.3483046535001222
 51
117.339572406770003
  0
ARC
  5
7D04
  8
0
 10
4353.0748381677476573
 20
149.8463189627254053
 30
0.0
 40
0.0594455182502712
 50
117.292938913975803
 51
164.5530000481464867
  0
ARC
  5
7D05
  8
0
 10
4353.0745942504736377
 20
149.8464119091844964
 30
0.0
 40
0.0591856610628676
 50
164.576836197066001
 51
214.9450438262416867
  0
ARC
  5
7D06
  8
0
 10
4353.0751011729516904
 20
149.8468279005008128
 30
0.0
 40
0.0598394836202236
 50
214.9935201530684878
 51
304.8529971414104125
  0
ARC
  5
7D07
  8
0
 10
4353.0754422432573847
 20
149.8464600270700942
 30
0.0
 40
0.0593427274314514
 50
304.785740186711223
 51
359.8634882159774975
  0
CIRCLE
  5
7D08
  8
0
 10
4352.7086675783293686
 20
148.5699006974616054
 30
0.0
 40
0.068
  0
ARC
  5
7D09
  8
0
 10
4352.7092510232278073
 20
148.559972819561608
 30
0.0
 40
0.0468244351
 50
340.0855827821969228
 51
359.9977080006992196
  0
ARC
  5
7D0A
  8
0
 10
4352.7082366378290317
 20
148.5599640031614967
 30
0.0
 40
0.0468238178
 50
160.3205009243949917
 51
179.9977989997993859
  0
ARC
  5
7D0B
  8
0
 10
4352.7087990520685707
 20
148.9888754244908
 30
0.0
 40
0.047258447199912
 50
160.3105915023679131
 51
180.0000000000146088
  0
ARC
  5
7D0C
  8
0
 10
4352.7088608537687833
 20
148.9887131376908087
 30
0.0
 40
0.047258377
 50
340.2766783095917731
 51
0.0030531550994745
  0
ARC
  5
7D0D
  8
0
 10
4352.7115476326052885
 20
149.4192693457524115
 30
0.0
 40
0.0473151700000056
 50
327.083439843021381
 51
22.9431687112660612
  0
ARC
  5
7D0E
  8
0
 10
4352.7115476323388066
 20
149.4192693458199983
 30
0.0
 40
0.0473151697286184
 50
157.4823809651803117
 51
188.7029098754802021
  0
CIRCLE
  5
7D0F
  8
0
 10
4352.7101646427590822
 20
149.8464186598502863
 30
0.0
 40
0.068
  0
ARC
  5
7D10
  8
0
 10
4352.7123386110752108
 20
149.8464175080503082
 30
0.0
 40
0.0474441386
 50
340.400233472200398
 51
0.0014267477994318
  0
ARC
  5
7D11
  8
0
 10
4352.7128176904479915
 20
149.846419856119411
 30
0.0
 40
0.047444189766008
 50
160.4002387764311095
 51
180.1222094087513028
  0
ARC
  5
7D12
  8
0
 10
4352.708750893278193
 20
148.5584862941462063
 30
0.0
 40
0.0135002202350235
 50
0.3316643734471785
 51
179.6745511583947916
  0
ARC
  5
7D13
  8
0
 10
4352.7087508848799189
 20
148.5586411244769067
 30
0.0
 40
0.0135002202350184
 50
180.3316643732435978
 51
359.6745511585983763
  0
ARC
  5
7D14
  8
0
 10
4352.7087095477536423
 20
148.5596741861664043
 30
0.0
 40
0.0473668401694261
 50
0.3589689066558619
 51
160.1830485853720916
  0
ARC
  5
7D15
  8
0
 10
4352.7087789827028246
 20
148.5602626245322142
 30
0.0
 40
0.0473670926586648
 50
180.3590424349478951
 51
339.9504803202785865
  0
ARC
  5
7D16
  8
0
 10
4352.7087024888496671
 20
148.5681732399499992
 30
0.0
 40
0.0594085399778097
 50
180.898849381593692
 51
359.0998149017810874
  0
ARC
  5
7D17
  8
0
 10
4352.7087039932539483
 20
148.5693470025831004
 30
0.0
 40
0.0594400442486734
 50
357.8229479660947732
 51
182.0301807567360015
  0
ARC
  5
7D18
  8
0
 10
4352.708812668453902
 20
148.9887708487160864
 30
0.0
 40
0.0473065944114924
 50
359.9331528515808145
 51
160.196895292024891
  0
ARC
  5
7D19
  8
0
 10
4352.7088465688448196
 20
148.9888141624633136
 30
0.0
 40
0.0473060036424812
 50
179.9258010330676996
 51
340.167336922593222
  0
ARC
  5
7D1A
  8
0
 10
4352.7090740681369425
 20
148.9946816721264895
 30
0.0
 40
0.0594496716186474
 50
180.756105973782411
 51
13.1714677703250498
  0
ARC
  5
7D1B
  8
0
 10
4352.7090161890318996
 20
148.9951555354234927
 30
0.0
 40
0.0593999466485284
 50
12.7136886774255302
 51
181.2138850666750898
  0
ARC
  5
7D1C
  8
0
 10
4352.7082729675476003
 20
148.9882739765700137
 30
0.0
 40
0.0134880357605691
 50
359.9019781301785201
 51
179.907487058266895
  0
ARC
  5
7D1D
  8
0
 10
4352.7082729653911883
 20
148.9882726796450072
 30
0.0
 40
0.0134880357605736
 50
179.9019778471333098
 51
359.9074873413135833
  0
ARC
  5
7D1E
  8
0
 10
4352.7121853284661483
 20
149.4190349356545084
 30
0.0
 40
0.013464385582885
 50
359.8484264500210088
 51
180.144720698706891
  0
ARC
  5
7D1F
  8
0
 10
4352.7121853243015721
 20
149.4189653072178032
 30
0.0
 40
0.0134643855828858
 50
179.8484264500177119
 51
0.1447206987101672
  0
ARC
  5
7D20
  8
0
 10
4352.7115452827001718
 20
149.4199021315343998
 30
0.0
 40
0.0470742810343832
 50
22.2327774255807817
 51
158.1927723494152929
  0
ARC
  5
7D21
  8
0
 10
4352.7115476326198404
 20
149.4192693457659971
 30
0.0
 40
0.0473151700162665
 50
188.7029097775142077
 51
327.0834398944895156
  0
ARC
  5
7D22
  8
0
 10
4352.708948114017403
 20
149.4208053877759994
 30
0.0
 40
0.0596860204578214
 50
180.2663152946520029
 51
359.7360239440732244
  0
ARC
  5
7D23
  8
0
 10
4352.7089481248822267
 20
149.4202731633241967
 30
0.0
 40
0.0596859304515403
 50
0.2469365196395743
 51
179.7554027190855948
  0
ARC
  5
7D24
  8
0
 10
4352.7130294395119563
 20
149.8464537341961034
 30
0.0
 40
0.0134641627134085
 50
359.4251909468371196
 51
180.5748090531627952
  0
ARC
  5
7D25
  8
0
 10
4352.7130294395119563
 20
149.8463831272339064
 30
0.0
 40
0.0134636394979491
 50
180.274348252833704
 51
359.725651747166296
  0
ARC
  5
7D26
  8
0
 10
4352.7125947121376157
 20
149.8465567556513918
 30
0.0
 40
0.047188239518057
 50
359.8323604302336776
 51
160.4660116733855943
  0
ARC
  5
7D27
  8
0
 10
4352.7125616562407231
 20
149.8462804223865987
 30
0.0
 40
0.0471880631275433
 50
179.9535721001998922
 51
340.4661922248307064
  0
ARC
  5
7D28
  8
0
 10
4352.7088029615733831
 20
149.8463740624233935
 30
0.0
 40
0.0593434296243873
 50
126.6365019345788028
 51
180.0534909585485082
  0
ARC
  5
7D29
  8
0
 10
4352.709151588003806
 20
149.8459318816898076
 30
0.0
 40
0.0599062921351007
 50
62.660427593229997
 51
126.6516953464998068
  0
ARC
  5
7D2A
  8
0
 10
4352.7094061923171466
 20
149.8463189841232861
 30
0.0
 40
0.0594455182502712
 50
15.4469999518534404
 51
62.7070610860241331
  0
ARC
  5
7D2B
  8
0
 10
4352.7096501095902568
 20
149.8464119305824056
 30
0.0
 40
0.0591856610628676
 50
325.0549561737582849
 51
15.4231638029339901
  0
ARC
  5
7D2C
  8
0
 10
4352.7091431871131135
 20
149.8468279218986083
 30
0.0
 40
0.0598394836202236
 50
235.1470028585897012
 51
325.0064798469315974
  0
ARC
  5
7D2D
  8
0
 10
4352.7088021168074192
 20
149.8464600484680034
 30
0.0
 40
0.0593427274314514
 50
180.1365117840225025
 51
235.2142598132888054
  0
ARC
  5
7D2E
  8
0
 10
4353.443871341578415
 20
148.5626219448901111
 30
0.0
 40
0.047301649765003
 50
19.9156134316685183
 51
180.0931729945581026
  0
ARC
  5
7D2F
  8
0
 10
4353.4437859711933925
 20
148.5628093315017964
 30
0.0
 40
0.0473018193658267
 50
199.9835494130695963
 51
0.0929165922684867
  0
ARC
  5
7D30
  8
0
 10
4353.4445772758363091
 20
148.5618942602262109
 30
0.0
 40
0.0134617412026807
 50
324.1962748121802065
 51
36.5408433824946712
  0
ARC
  5
7D31
  8
0
 10
4353.4446043496527636
 20
148.5618788599254003
 30
0.0
 40
0.013449188668162
 50
36.6622272732778001
 51
110.4664079094741993
  0
ARC
  5
7D32
  8
0
 10
4353.4446021006051524
 20
148.5618021538531082
 30
0.0
 40
0.0135202973989352
 50
110.3438179427778039
 51
186.4068517767344133
  0
ARC
  5
7D33
  8
0
 10
4353.444492916202762
 20
148.5617972931318036
 30
0.0
 40
0.0134112545183243
 50
186.4382666950286875
 51
260.3435083407655952
  0
ARC
  5
7D34
  8
0
 10
4353.444508473076894
 20
148.5619144815466086
 30
0.0
 40
0.0135293927185909
 50
260.3618066717618262
 51
324.2972788446912205
  0
ARC
  5
7D35
  8
0
 10
4353.4388998023387103
 20
148.5684185408404971
 30
0.0
 40
0.0593339184764845
 50
99.6351170446449856
 51
220.4695800464259889
  0
ARC
  5
7D36
  8
0
 10
4353.4394797154564003
 20
148.5679874052453044
 30
0.0
 40
0.0594994311705262
 50
219.7912758758822065
 51
327.8576029365780187
  0
ARC
  5
7D37
  8
0
 10
4353.4388143007818144
 20
148.5677764225196995
 30
0.0
 40
0.0599529748897605
 50
328.3666638324087899
 51
99.4518474386920559
  0
ARC
  5
7D38
  8
0
 10
4353.4509915773296598
 20
148.9948117325461965
 30
0.0
 40
0.0134235793878297
 50
359.6804184145249224
 51
180.3259849813223923
  0
ARC
  5
7D39
  8
0
 10
4353.4509915857806845
 20
148.994660486358697
 30
0.0
 40
0.0134235793878264
 50
179.6804184145395027
 51
0.3259849813061418
  0
ARC
  5
7D3A
  8
0
 10
4353.449550129884301
 20
148.9950349617957954
 30
0.0
 40
0.0470289068582077
 50
19.3299870385385688
 51
180.3617157200596068
  0
ARC
  5
7D3B
  8
0
 10
4353.4496194765897599
 20
148.9944509773474124
 30
0.0
 40
0.0470288982130579
 50
199.3299781212110986
 51
0.3589489030320527
  0
ARC
  5
7D3C
  8
0
 10
4353.4407664463460605
 20
148.9941947876218933
 30
0.0
 40
0.0600148856808758
 50
0.5561373689333289
 51
179.4415737422719133
  0
ARC
  5
7D3D
  8
0
 10
4353.4407664700102032
 20
148.9953795172123989
 30
0.0
 40
0.0600150563393609
 50
180.5726433035721072
 51
359.4250678076326722
  0
ARC
  5
7D3E
  8
0
 10
4353.4511077652323365
 20
149.4205060649462098
 30
0.0
 40
0.0134223904498255
 50
180.0000000000488001
 51
0.3292931579090324
  0
ARC
  5
7D3F
  8
0
 10
4353.451107325009616
 20
149.4206592580812867
 30
0.0
 40
0.0134228244451977
 50
359.6753688899772214
 51
180.6539242679305914
  0
ARC
  5
7D40
  8
0
 10
4353.4497256345848655
 20
149.420288753363792
 30
0.0
 40
0.0470238515651984
 50
199.3220713678960863
 51
0.363403610905773
  0
ARC
  5
7D41
  8
0
 10
4353.4496545388556115
 20
149.4208829581461941
 30
0.0
 40
0.0470238515012206
 50
19.3220712594197188
 51
180.3634045924829934
  0
ARC
  5
7D42
  8
0
 10
4353.4408035494661817
 20
149.4199996748889987
 30
0.0
 40
0.0600243658739247
 50
0.5737534540841628
 51
179.4252485221061022
  0
ARC
  5
7D43
  8
0
 10
4353.4408035600363291
 20
149.4212133559935012
 30
0.0
 40
0.0600244720407336
 50
180.5837768436769011
 51
359.4152251325124894
  0
ARC
  5
7D44
  8
0
 10
4353.4511449190385974
 20
149.8463410192049992
 30
0.0
 40
0.0134214251303046
 50
180.0955432162371039
 51
359.9044567837743216
  0
ARC
  5
7D45
  8
0
 10
4353.4511449190385974
 20
149.8464952852816907
 30
0.0
 40
0.0134225688952595
 50
359.2459407059945988
 51
180.7540592940183899
  0
ARC
  5
7D46
  8
0
 10
4353.4496874800433943
 20
149.8467172191166981
 30
0.0
 40
0.0470224441866389
 50
19.3188369198919112
 51
180.485667357355311
  0
ARC
  5
7D47
  8
0
 10
4353.449772039479285
 20
149.8461406438972858
 30
0.0
 40
0.0470406597263244
 50
199.3376033056559038
 51
0.2167987932024088
  0
ARC
  5
7D48
  8
0
 10
4353.4408175865601152
 20
149.8470267085552905
 30
0.0
 40
0.0600263424244248
 50
180.6758761340418005
 51
359.3241238659581995
  0
ARC
  5
7D49
  8
0
 10
4353.4408175865601152
 20
149.8458142058101998
 30
0.0
 40
0.0600242856996486
 50
0.4815084170007428
 51
179.5184915829991894
  0
ARC
  5
7D4A
  8
0
 10
4354.527876540086254
 20
152.2126154602125894
 30
0.0
 40
0.0799333726455044
 50
359.9825048733180779
 51
90.0146297565049451
  0
ARC
  5
7D4B
  8
0
 10
4353.7555797173054088
 20
151.440318638352494
 30
0.0
 40
0.048367282
 50
0.0000000102005732
 51
89.9999999972902742
  0
ARC
  5
7D4C
  8
0
 10
4353.4439688254051362
 20
151.1297464094525083
 30
0.0
 40
0.0471189032
 50
340.3514577205990008
 51
0.0058689434998718
  0
ARC
  5
7D4D
  8
0
 10
4353.4436883908056188
 20
151.1300971164525038
 30
0.0
 40
0.0471186367
 50
160.2835028899017118
 51
180.0059143142003109
  0
ARC
  5
7D4E
  8
0
 10
4353.4502079795047393
 20
150.27205483955251
 30
0.0
 40
0.0475763464
 50
160.5363707598056067
 51
180.0027326105997929
  0
ARC
  5
7D4F
  8
0
 10
4353.4491721941058131
 20
150.2720480025525092
 30
0.0
 40
0.0475763463
 50
340.5363707334012133
 51
0.0027336195007164
  0
ARC
  5
7D50
  8
0
 10
4353.4500939337049203
 20
150.697899212652402
 30
0.0
 40
0.0475717735000515
 50
160.5328952600173125
 51
179.9999999999917861
  0
ARC
  5
7D51
  8
0
 10
4353.4490756785053236
 20
150.6978893920525024
 30
0.0
 40
0.0475717735
 50
340.532895251403886
 51
0.0027469657994515
  0
CIRCLE
  5
7D52
  8
0
 10
4353.0740797173048122
 20
151.1236186383524114
 30
0.0
 40
0.068
  0
CIRCLE
  5
7D53
  8
0
 10
4352.3440797173052488
 20
151.1236186383524114
 30
0.0
 40
0.068
  0
ARC
  5
7D54
  8
0
 10
4352.3435667461053526
 20
151.1333732202525084
 30
0.0
 40
0.046835868
 50
160.0872666413947911
 51
179.9978397820997884
  0
ARC
  5
7D55
  8
0
 10
4352.3445582469057626
 20
151.1333778496525042
 30
0.0
 40
0.0468352813
 50
340.3206322797987013
 51
359.9979251928003805
  0
ARC
  5
7D56
  8
0
 10
4353.0734962724045545
 20
151.1335465162524088
 30
0.0
 40
0.0468244351
 50
160.0855827821968944
 51
179.9977080006991912
  0
ARC
  5
7D57
  8
0
 10
4353.0745106578051491
 20
151.1335553326524064
 30
0.0
 40
0.0468238178
 50
340.3205009243951054
 51
359.9977989997994996
  0
ARC
  5
7D58
  8
0
 10
4353.0779683748050957
 20
150.7012813476524968
 30
0.0
 40
0.047258447199912
 50
340.3105915023679131
 51
0.000000000014656
  0
ARC
  5
7D59
  8
0
 10
4353.0779065731057926
 20
150.7014436344524029
 30
0.0
 40
0.047258377
 50
160.2766783095918015
 51
180.0030531550993942
  0
ARC
  5
7D5A
  8
0
 10
4353.0815223835852521
 20
150.272063084275004
 30
0.0
 40
0.0476375730339061
 50
160.4185567370894034
 51
184.4163468368878966
  0
ARC
  5
7D5B
  8
0
 10
4353.0808619751041988
 20
150.2721049628524099
 30
0.0
 40
0.0474411753
 50
340.398302855294105
 51
0.0015083035007712
  0
ARC
  5
7D5C
  8
0
 10
4352.3438042370053154
 20
150.7035095688524109
 30
0.0
 40
0.0471117595
 50
160.1470106922045886
 51
179.9991694390004966
  0
ARC
  5
7D5D
  8
0
 10
4352.3442435174047205
 20
150.70351427615239
 30
0.0
 40
0.0471115984
 50
340.2964487053980065
 51
359.9991928352005743
  0
ARC
  5
7D5E
  8
0
 10
4352.3440716247705495
 20
150.2721466248534057
 30
0.0
 40
0.0594096808242418
 50
179.5063520397202126
 51
0.4925711315793338
  0
ARC
  5
7D5F
  8
0
 10
4352.3440716258055545
 20
150.2722566341523986
 30
0.0
 40
0.0594088359
 50
0.3864785172999734
 51
179.6124446539998019
  0
ARC
  5
7D60
  8
0
 10
4352.3439233381059239
 20
150.275025623152402
 30
0.0
 40
0.0472772609
 50
0.0407498063000321
 51
340.2387492971025722
  0
ARC
  5
7D61
  8
0
 10
4352.3467564387728999
 20
150.2742555962691995
 30
0.0
 40
0.0444514136035368
 50
340.0025846814957049
 51
1.035925174422514
  0
CIRCLE
  5
7D62
  8
0
 10
4352.3439620414046658
 20
150.2754760801524014
 30
0.0
 40
0.0135008684
  0
ARC
  5
7D63
  8
0
 10
4353.8177370330276972
 20
151.5024759557767027
 30
0.0
 40
0.0897577449576057
 50
0.0000000000016284
 51
90.0283426059750411
  0
ARC
  5
7D64
  8
0
 10
4352.3440718221390853
 20
151.1241179397974008
 30
0.0
 40
0.0594378017377979
 50
177.9993150835798872
 51
2.000399602571679
  0
ARC
  5
7D65
  8
0
 10
4352.3440718249912607
 20
151.1252635022862876
 30
0.0
 40
0.0594088436779134
 50
0.8961877184512339
 51
179.1035269677028907
  0
ARC
  5
7D66
  8
0
 10
4352.3440940070886427
 20
151.1336493029465089
 30
0.0
 40
0.0473639233352437
 50
180.3318408663566004
 51
340.2005550082872105
  0
ARC
  5
7D67
  8
0
 10
4352.3440277632726065
 20
151.1330878626559979
 30
0.0
 40
0.047366642233565
 50
0.3487255595671358
 51
159.9526601245136987
  0
ARC
  5
7D68
  8
0
 10
4352.3440606602307525
 20
151.1348384273800036
 30
0.0
 40
0.0135002112203485
 50
180.3212440236885925
 51
359.6801582374715736
  0
ARC
  5
7D69
  8
0
 10
4352.3440606620788458
 20
151.1346873735415954
 30
0.0
 40
0.0135002112202541
 50
0.3212439524983914
 51
179.680158308661504
  0
ARC
  5
7D6A
  8
0
 10
4352.3440081331546025
 20
150.7033811790012976
 30
0.0
 40
0.0473471678589205
 50
0.1602606542396963
 51
160.0846719198837889
  0
ARC
  5
7D6B
  8
0
 10
4352.3440394371573348
 20
150.7036429623694005
 30
0.0
 40
0.0473471456363054
 50
180.1605960866600924
 51
340.2331046606830114
  0
ARC
  5
7D6C
  8
0
 10
4352.3440650592474412
 20
150.6979902494350085
 30
0.0
 40
0.0594165130371768
 50
0.7099927432323695
 51
179.28911925430981
  0
ARC
  5
7D6D
  8
0
 10
4352.3440650555303364
 20
150.6975044319154051
 30
0.0
 40
0.0594245223060246
 50
178.8207356911165107
 51
1.178376209983973
  0
ARC
  5
7D6E
  8
0
 10
4352.3440170858539204
 20
150.7044015378859001
 30
0.0
 40
0.0135000405690613
 50
0.145479503245243
 51
179.8585834046670016
  0
ARC
  5
7D6F
  8
0
 10
4352.3440170834574019
 20
150.7044691363190907
 30
0.0
 40
0.0135000405690578
 50
180.1454795033249923
 51
359.858583404588785
  0
ARC
  5
7D70
  8
0
 10
4353.0739964023568973
 20
151.1350330416678105
 30
0.0
 40
0.0135002202350235
 50
180.3316643734470972
 51
359.67455115839482
  0
ARC
  5
7D71
  8
0
 10
4353.0739964107542619
 20
151.1348782113371954
 30
0.0
 40
0.0135002202350184
 50
0.3316643732436264
 51
179.6745511585982911
  0
ARC
  5
7D72
  8
0
 10
4353.0740377478787195
 20
151.1338451496476125
 30
0.0
 40
0.0473668401694261
 50
180.3589689066558037
 51
340.1830485853722053
  0
ARC
  5
7D73
  8
0
 10
4353.0739683129304467
 20
151.1332567112818026
 30
0.0
 40
0.0473670926586648
 50
0.3590424349479143
 51
159.9504803202785865
  0
ARC
  5
7D74
  8
0
 10
4353.0740448067836041
 20
151.1253460958639891
 30
0.0
 40
0.0594085399778097
 50
0.898849381593795
 51
179.0998149017810022
  0
ARC
  5
7D75
  8
0
 10
4353.074043302379323
 20
151.1241723332308879
 30
0.0
 40
0.0594400442486734
 50
177.8229479660948016
 51
2.030180756736041
  0
ARC
  5
7D76
  8
0
 10
4353.0779547584206739
 20
150.7013859234270967
 30
0.0
 40
0.0473065944114924
 50
179.9331528515807861
 51
340.1968952920249194
  0
ARC
  5
7D77
  8
0
 10
4353.0779208580297563
 20
150.701342609679898
 30
0.0
 40
0.0473060036424812
 50
359.9258010330693764
 51
160.1673369225931935
  0
ARC
  5
7D78
  8
0
 10
4353.0744547009908274
 20
150.6980950591589021
 30
0.0
 40
0.059506009944374
 50
0.5809473250765981
 51
179.486011657261713
  0
ARC
  5
7D79
  8
0
 10
4353.0744546860114497
 20
150.6981206958708128
 30
0.0
 40
0.0595057705082928
 50
179.5106951228480909
 51
0.5562638594896685
  0
ARC
  5
7D7A
  8
0
 10
4353.0784944593269756
 20
150.7018827955731979
 30
0.0
 40
0.0134880357605691
 50
179.9019781301784917
 51
359.907487058266895
  0
ARC
  5
7D7B
  8
0
 10
4353.0784944614842971
 20
150.7018840924982896
 30
0.0
 40
0.0134880357605736
 50
359.9019778471331961
 51
179.9074873413136118
  0
ARC
  5
7D7C
  8
0
 10
4353.082057202874239
 20
150.2720850490341036
 30
0.0
 40
0.013464385582885
 50
179.8484264500210088
 51
0.1447206987069104
  0
ARC
  5
7D7D
  8
0
 10
4353.0820572070379058
 20
150.2721546774708088
 30
0.0
 40
0.0134643855828858
 50
359.8484264500178256
 51
180.1447206987101026
  0
ARC
  5
7D7E
  8
0
 10
4353.0810811142855528
 20
150.27197384263809
 30
0.0
 40
0.0471907740720567
 50
184.3495727924556036
 51
340.4590152358160822
  0
ARC
  5
7D7F
  8
0
 10
4353.0811125803111281
 20
150.2722442295101075
 30
0.0
 40
0.0471907719231536
 50
359.8324281218169176
 51
160.4590174576023003
  0
ARC
  5
7D80
  8
0
 10
4353.0750949130933805
 20
150.2717767397286082
 30
0.0
 40
0.0596860204578214
 50
0.2663152946520753
 51
179.7360239440731959
  0
ARC
  5
7D81
  8
0
 10
4353.0750949022285567
 20
150.2723089641804108
 30
0.0
 40
0.0596859304515403
 50
180.2469365196396041
 51
359.7554027190856232
  0
CIRCLE
  5
7D82
  8
0
 10
4352.7086675783293686
 20
151.1227365793432966
 30
0.0
 40
0.068
  0
ARC
  5
7D83
  8
0
 10
4352.7092510232278073
 20
151.132664457243294
 30
0.0
 40
0.0468244351
 50
0.0022919992991639
 51
19.9144172178030914
  0
ARC
  5
7D84
  8
0
 10
4352.7082366378290317
 20
151.1326732736432916
 30
0.0
 40
0.0468238178
 50
180.0022010002005004
 51
199.6794990756048946
  0
ARC
  5
7D85
  8
0
 10
4352.7087990520685707
 20
150.7037618523139884
 30
0.0
 40
0.047258447199912
 50
179.999999999985306
 51
199.6894084976320869
  0
ARC
  5
7D86
  8
0
 10
4352.7088608537687833
 20
150.7039241391140934
 30
0.0
 40
0.047258377
 50
359.9969468449006058
 51
19.7233216904081594
  0
ARC
  5
7D87
  8
0
 10
4352.7115476326052885
 20
150.2733679310524053
 30
0.0
 40
0.0473151700000056
 50
337.0568312887339175
 51
32.9165601569785835
  0
ARC
  5
7D88
  8
0
 10
4352.7115476323388066
 20
150.2733679309847901
 30
0.0
 40
0.0473151697286184
 50
171.2970901245197126
 51
202.5176190348196883
  0
ARC
  5
7D89
  8
0
 10
4352.708750893278193
 20
151.1341509826586957
 30
0.0
 40
0.0135002202350235
 50
180.3254488416052084
 51
359.6683356265527891
  0
ARC
  5
7D8A
  8
0
 10
4352.7087508848799189
 20
151.1339961523279953
 30
0.0
 40
0.0135002202350184
 50
0.3254488414016521
 51
179.6683356267564022
  0
ARC
  5
7D8B
  8
0
 10
4352.7087095477536423
 20
151.1329630906384978
 30
0.0
 40
0.0473668401694261
 50
199.8169514146277947
 51
359.6410310933442247
  0
ARC
  5
7D8C
  8
0
 10
4352.7087789827028246
 20
151.1323746522726879
 30
0.0
 40
0.0473670926586648
 50
20.0495196797213602
 51
179.6409575650521049
  0
ARC
  5
7D8D
  8
0
 10
4352.7087024888496671
 20
151.1244640368549028
 30
0.0
 40
0.0594085399778097
 50
0.9001850982189314
 51
179.1011506184061943
  0
ARC
  5
7D8E
  8
0
 10
4352.7087039932539483
 20
151.1232902742218016
 30
0.0
 40
0.0594400442486734
 50
177.9698192432639985
 51
2.1770520339051829
  0
ARC
  5
7D8F
  8
0
 10
4352.708812668453902
 20
150.7038664280887872
 30
0.0
 40
0.0473065944114924
 50
199.803104707975109
 51
0.066847148419199
  0
ARC
  5
7D90
  8
0
 10
4352.7088465688448196
 20
150.7038231143415032
 30
0.0
 40
0.0473060036424812
 50
19.83266307740681
 51
180.0741989669305951
  0
ARC
  5
7D91
  8
0
 10
4352.7090740681369425
 20
150.6979556046784126
 30
0.0
 40
0.0594496716186474
 50
346.82853222967492
 51
179.2438940262175038
  0
ARC
  5
7D92
  8
0
 10
4352.7090161890318996
 20
150.6974817413814094
 30
0.0
 40
0.0593999466485284
 50
178.7861149333247965
 51
347.2863113225744769
  0
ARC
  5
7D93
  8
0
 10
4352.7082729675476003
 20
150.7043633002348031
 30
0.0
 40
0.0134880357605691
 50
180.092512941733105
 51
0.0980218698215144
  0
ARC
  5
7D94
  8
0
 10
4352.7082729653911883
 20
150.7043645971598949
 30
0.0
 40
0.0134880357605736
 50
0.0925126586863517
 51
180.0980221528666902
  0
ARC
  5
7D95
  8
0
 10
4352.7121853284661483
 20
150.2736023411503083
 30
0.0
 40
0.013464385582885
 50
179.855279301293109
 51
0.1515735499789977
  0
ARC
  5
7D96
  8
0
 10
4352.7121853243015721
 20
150.2736719695870136
 30
0.0
 40
0.0134643855828858
 50
359.8552793012898974
 51
180.1515735499822028
  0
ARC
  5
7D97
  8
0
 10
4352.7115452827001718
 20
150.2727351452705022
 30
0.0
 40
0.0470742810343832
 50
201.8072276505845934
 51
337.7672225744191792
  0
ARC
  5
7D98
  8
0
 10
4352.7115476326198404
 20
150.273367931038905
 30
0.0
 40
0.0473151700162665
 50
32.9165601055105199
 51
171.2970902224857923
  0
ARC
  5
7D99
  8
0
 10
4352.708948114017403
 20
150.2718318890289027
 30
0.0
 40
0.0596860204578214
 50
0.2639760559267533
 51
179.7336847053479119
  0
ARC
  5
7D9A
  8
0
 10
4352.7089481248822267
 20
150.2723641134807053
 30
0.0
 40
0.0596859304515403
 50
180.2445972809144052
 51
359.7530634803604244
  0
ARC
  5
7D9B
  8
0
 10
4353.443871341578415
 20
151.130015331914791
 30
0.0
 40
0.047301649765003
 50
179.9068270054418974
 51
340.0843865683315244
  0
ARC
  5
7D9C
  8
0
 10
4353.4437859711933925
 20
151.129827945302992
 30
0.0
 40
0.0473018193658267
 50
359.9070834077314771
 51
160.0164505869304037
  0
ARC
  5
7D9D
  8
0
 10
4353.4445772758363091
 20
151.1307430165786911
 30
0.0
 40
0.0134617412026807
 50
323.4591566175053003
 51
35.8037251878197793
  0
ARC
  5
7D9E
  8
0
 10
4353.4446043496527636
 20
151.1307584168795017
 30
0.0
 40
0.013449188668162
 50
249.5335920905257865
 51
323.3377727267222213
  0
ARC
  5
7D9F
  8
0
 10
4353.4446021006051524
 20
151.1308351229517939
 30
0.0
 40
0.0135202973989352
 50
173.5931482232655867
 51
249.6561820572221109
  0
ARC
  5
7DA0
  8
0
 10
4353.444492916202762
 20
151.1308399836730985
 30
0.0
 40
0.0134112545183243
 50
99.6564916592344048
 51
173.5617333049711988
  0
ARC
  5
7DA1
  8
0
 10
4353.444508473076894
 20
151.1307227952584071
 30
0.0
 40
0.0135293927185909
 50
35.7027211553088435
 51
99.6381933282382448
  0
ARC
  5
7DA2
  8
0
 10
4353.4388998023387103
 20
151.1242187359642912
 30
0.0
 40
0.0593339184764845
 50
139.5304199535740111
 51
260.3648829553549717
  0
ARC
  5
7DA3
  8
0
 10
4353.4394797154564003
 20
151.1246498715595976
 30
0.0
 40
0.0594994311705262
 50
32.1423970634219813
 51
140.2087241241177935
  0
ARC
  5
7DA4
  8
0
 10
4353.4388143007818144
 20
151.1248608542852025
 30
0.0
 40
0.0599529748897605
 50
260.5481525613079725
 51
31.6333361675912883
  0
ARC
  5
7DA5
  8
0
 10
4353.4509915773296598
 20
150.6978255442587056
 30
0.0
 40
0.0134235793878297
 50
179.6740150186776077
 51
0.3195815854751391
  0
ARC
  5
7DA6
  8
0
 10
4353.4509915857806845
 20
150.6979767904462051
 30
0.0
 40
0.0134235793878264
 50
359.6740150186939218
 51
180.319581585460412
  0
ARC
  5
7DA7
  8
0
 10
4353.449550129884301
 20
150.6976023150091066
 30
0.0
 40
0.0470289068582077
 50
179.6382842799403932
 51
340.6700129614613957
  0
ARC
  5
7DA8
  8
0
 10
4353.4496194765897599
 20
150.6981862994574897
 30
0.0
 40
0.0470288982130579
 50
359.641051096967999
 51
160.6700218787887877
  0
ARC
  5
7DA9
  8
0
 10
4353.4407664463460605
 20
150.6984424891830088
 30
0.0
 40
0.0600148856808758
 50
180.5584262577280015
 51
359.4438626310666791
  0
ARC
  5
7DAA
  8
0
 10
4353.4407664700102032
 20
150.6972577595925031
 30
0.0
 40
0.0600150563393609
 50
0.5749321923673451
 51
179.4273566964278928
  0
ARC
  5
7DAB
  8
0
 10
4353.4511077652323365
 20
150.2721312118586923
 30
0.0
 40
0.0134223904498255
 50
359.6707068420910218
 51
179.9999999999510862
  0
ARC
  5
7DAC
  8
0
 10
4353.451107325009616
 20
150.271978018723587
 30
0.0
 40
0.0134228244451977
 50
179.3460757320694086
 51
0.3246311100227521
  0
ARC
  5
7DAD
  8
0
 10
4353.4497256345848655
 20
150.27234852344111
 30
0.0
 40
0.0470238515651984
 50
359.6365963890942226
 51
160.6779286321038001
  0
ARC
  5
7DAE
  8
0
 10
4353.4496545388556115
 20
150.2717543186587079
 30
0.0
 40
0.0470238515012206
 50
179.6365954075170066
 51
340.6779287405802847
  0
ARC
  5
7DAF
  8
0
 10
4353.4408035494661817
 20
150.2726376019159034
 30
0.0
 40
0.0600243658739247
 50
180.5747514778938978
 51
359.4262465459157738
  0
ARC
  5
7DB0
  8
0
 10
4353.4408035600363291
 20
150.2714239208114009
 30
0.0
 40
0.0600244720407336
 50
0.5847748674858818
 51
179.4162231563230989
  0
ENDSEC
  0
EOF
