  0
SECTION
  2
HEADER
  9
$ACADVER
  1
AC1009
  9
$INSBASE
 10
4350.6956287229304507
 20
150.7659751675614075
 30
0.0
  9
$EXTMIN
 10
4350.388253401336442
 20
148.319744975711302
 30
0.0
  9
$EXTMAX
 10
4350.7064009340847406
 20
153.2122053594113993
 30
0.0
  9
$LIMMIN
 10
0.0
 20
0.0
  9
$LIMMAX
 10
11.6929133858000007
 20
8.2677165353999982
  9
$ORTHOMODE
 70
     0
  9
$REGENMODE
 70
     1
  9
$FILLMODE
 70
     1
  9
$QTEXTMODE
 70
     0
  9
$MIRRTEXT
 70
     0
  9
$DRAGMODE
 70
     2
  9
$LTSCALE
 40
0.6431102362
  9
$OSMODE
 70
  4095
  9
$ATTMODE
 70
     1
  9
$TEXTSIZE
 40
0.2
  9
$TRACEWID
 40
0.05
  9
$TEXTSTYLE
  7
STANDARD
  9
$CLAYER
  8
0
  9
$CELTYPE
  6
BYLAYER
  9
$CECOLOR
 62
   256
  9
$DIMSCALE
 40
1.0
  9
$DIMASZ
 40
0.1875
  9
$DIMEXO
 40
0.0625
  9
$DIMDLI
 40
0.4443307087
  9
$DIMRND
 40
0.0
  9
$DIMDLE
 40
0.0
  9
$DIMEXE
 40
0.125
  9
$DIMTP
 40
0.01
  9
$DIMTM
 40
0.01
  9
$DIMTXT
 40
2.0
  9
$DIMCEN
 40
0.1052362205
  9
$DIMTSZ
 40
0.0
  9
$DIMTOL
 70
     1
  9
$DIMLIM
 70
     0
  9
$DIMTIH
 70
     1
  9
$DIMTOH
 70
     1
  9
$DIMSE1
 70
     0
  9
$DIMSE2
 70
     0
  9
$DIMTAD
 70
     0
  9
$DIMZIN
 70
     0
  9
$DIMBLK
  1

  9
$DIMASO
 70
     1
  9
$DIMSHO
 70
     1
  9
$DIMPOST
  1
\X
  9
$DIMAPOST
  1

  9
$DIMALT
 70
     1
  9
$DIMALTD
 70
     2
  9
$DIMALTF
 40
25.3999999999999986
  9
$DIMLFAC
 40
1.0
  9
$DIMTOFL
 70
     0
  9
$DIMTVP
 40
0.0
  9
$DIMTIX
 70
     0
  9
$DIMSOXD
 70
     0
  9
$DIMSAH
 70
     0
  9
$DIMBLK1
  1

  9
$DIMBLK2
  1

  9
$DIMSTYLE
  2
STANDARD
  9
$DIMCLRD
 70
     0
  9
$DIMCLRE
 70
     0
  9
$DIMCLRT
 70
     0
  9
$DIMTFAC
 40
1.0
  9
$DIMGAP
 40
0.09
  9
$LUNITS
 70
     2
  9
$LUPREC
 70
     4
  9
$SKETCHINC
 40
0.1
  9
$FILLETRAD
 40
0.0
  9
$AUNITS
 70
     0
  9
$AUPREC
 70
     0
  9
$MENU
  1
.
  9
$ELEVATION
 40
0.0
  9
$PELEVATION
 40
0.0
  9
$THICKNESS
 40
0.0
  9
$LIMCHECK
 70
     0
  9
$BLIPMODE
 70
     0
  9
$CHAMFERA
 40
0.0
  9
$CHAMFERB
 40
0.0
  9
$SKPOLY
 70
     0
  9
$TDCREATE
 40
2458060.468368056230247
  9
$TDUPDATE
 40
2459655.5195023152045906
  9
$TDINDWG
 40
0.3158982639
  9
$TDUSRTIMER
 40
0.3158982639
  9
$USRTIMER
 70
     1
  9
$ANGBASE
 50
0.0
  9
$ANGDIR
 70
     0
  9
$PDMODE
 70
     0
  9
$PDSIZE
 40
0.3125
  9
$PLINEWID
 40
0.0
  9
$COORDS
 70
     1
  9
$SPLFRAME
 70
     0
  9
$SPLINETYPE
 70
     6
  9
$SPLINESEGS
 70
     8
  9
$ATTDIA
 70
     1
  9
$ATTREQ
 70
     1
  9
$HANDLING
 70
     1
  9
$HANDSEED
  5
7DDC
  9
$SURFTAB1
 70
     6
  9
$SURFTAB2
 70
     6
  9
$SURFTYPE
 70
     6
  9
$SURFU
 70
     6
  9
$SURFV
 70
     6
  9
$UCSNAME
  2

  9
$UCSORG
 10
0.0
 20
0.0
 30
0.0
  9
$UCSXDIR
 10
1.0
 20
0.0
 30
0.0
  9
$UCSYDIR
 10
0.0
 20
1.0
 30
0.0
  9
$PUCSNAME
  2

  9
$PUCSORG
 10
0.0
 20
0.0
 30
0.0
  9
$PUCSXDIR
 10
1.0
 20
0.0
 30
0.0
  9
$PUCSYDIR
 10
0.0
 20
1.0
 30
0.0
  9
$USERI1
 70
     0
  9
$USERI2
 70
     0
  9
$USERI3
 70
     0
  9
$USERI4
 70
     0
  9
$USERI5
 70
     0
  9
$USERR1
 40
0.0
  9
$USERR2
 40
0.0
  9
$USERR3
 40
0.0
  9
$USERR4
 40
0.0
  9
$USERR5
 40
0.0
  9
$WORLDVIEW
 70
     1
  9
$SHADEDGE
 70
     3
  9
$SHADEDIF
 70
    70
  9
$TILEMODE
 70
     1
  9
$MAXACTVP
 70
    64
  9
$PLIMCHECK
 70
     0
  9
$PEXTMIN
 10
1.0000000000000000E+20
 20
1.0000000000000000E+20
 30
1.0000000000000000E+20
  9
$PEXTMAX
 10
-1.0000000000000000E+20
 20
-1.0000000000000000E+20
 30
-1.0000000000000000E+20
  9
$PLIMMIN
 10
0.0
 20
0.0
  9
$PLIMMAX
 10
12.0
 20
9.0
  9
$UNITMODE
 70
     0
  9
$VISRETAIN
 70
     1
  9
$PLINEGEN
 70
     0
  9
$PSLTSCALE
 70
     1
  0
ENDSEC
  0
SECTION
  2
TABLES
  0
TABLE
  2
VPORT
 70
     1
  0
VPORT
  2
*ACTIVE
 70
     0
 10
0.0
 20
0.0
 11
1.0
 21
1.0
 12
33.2846318552115008
 22
1.101302315998864
 13
0.0
 23
0.0
 14
1.0
 24
1.0
 15
0.0
 25
0.0
 16
0.0
 26
0.0
 36
45.1902730778719999
 17
4317.2626953125
 27
149.6646728515625
 37
0.0
 40
4.9231020980029339
 41
2.005224660397074
 42
50.0
 43
0.0
 44
0.0
 50
0.0
 51
0.0
 71
     0
 72
   100
 73
     1
 74
     1
 75
     0
 76
     0
 77
     0
 78
     0
  0
ENDTAB
  0
TABLE
  2
LTYPE
 70
     2
  0
LTYPE
  2
CONTINUOUS
 70
     0
  3
Solid line
 72
    65
 73
     0
 40
0.0
  0
LTYPE
  2
PHANTOM2
 70
     0
  3
___ _ _ ___ _ _ ___ _ _ ___ _ _
 72
    65
 73
     6
 40
1.25
 49
0.625
 49
-0.125
 49
0.125
 49
-0.125
 49
0.125
 49
-0.125
  0
ENDTAB
  0
TABLE
  2
LAYER
 70
     2
  0
LAYER
  2
0
 70
     0
 62
   255
  6
CONTINUOUS
  0
LAYER
  2
DEFPOINTS
 70
     0
 62
     7
  6
CONTINUOUS
  0
ENDTAB
  0
TABLE
  2
STYLE
 70
     1
  0
STYLE
  2
STANDARD
 70
     0
 40
0.0
 41
0.8
 50
0.0
 71
     0
 42
0.2
  3
txt
  4

  0
ENDTAB
  0
TABLE
  2
VIEW
 70
     0
  0
ENDTAB
  0
TABLE
  2
UCS
 70
     0
  0
ENDTAB
  0
TABLE
  2
APPID
 70
     9
  0
APPID
  2
ACAD
 70
     0
  0
APPID
  2
ACAD_MLEADERVER
 70
     0
  0
APPID
  2
ACAD_EXEMPT_FROM_CAD_STANDARDS
 70
     0
  0
APPID
  2
ACAD_NAV_VCDISPLAY
 70
     0
  0
APPID
  2
ACAECLAYERSTANDARD
 70
     0
  0
APPID
  2
ACCMTRANSPARENCY
 70
     0
  0
APPID
  2
ACAD_DSTYLE_DIMJAG
 70
     0
  0
APPID
  2
ACAD_DSTYLE_DIMTALN
 70
     0
  0
APPID
  2
ACDBATTR
 70
     0
  0
ENDTAB
  0
TABLE
  2
DIMSTYLE
 70
     1
  0
DIMSTYLE
  2
STANDARD
 70
     0
  3

  4

  5

  6

  7

 40
1.0
 41
0.1875
 42
0.0625
 43
0.38
 44
0.125
 45
0.0
 46
0.0
 47
0.01
 48
0.01
140
0.15625
141
0.09
142
0.0
143
25.3999999999999986
144
1.0
145
0.0
146
1.0
147
0.09
 71
     1
 72
     0
 73
     1
 74
     1
 75
     0
 76
     0
 77
     0
 78
     4
170
     0
171
     2
172
     0
173
     0
174
     0
175
     0
176
     0
177
     0
178
     0
  0
ENDTAB
  0
ENDSEC
  0
SECTION
  2
BLOCKS
  0
BLOCK
  8
0
  2
$MODEL_SPACE
 70
     0
 10
0.0
 20
0.0
 30
0.0
  3
$MODEL_SPACE
  1

  0
ENDBLK
  5
21
  8
0
  0
BLOCK
 67
     1
  8
0
  2
$PAPER_SPACE
 70
     0
 10
0.0
 20
0.0
 30
0.0
  3
$PAPER_SPACE
  1

  0
ENDBLK
  5
1D
 67
     1
  8
0
  0
ENDSEC
  0
SECTION
  2
ENTITIES
  0
ATTDEF
  5
3930
  8
DEFPOINTS
 10
4350.6957342674168103
 20
150.7693262336827047
 30
0.0
 40
0.001
  1
K-8002IN
  3

  2
MODELNUMBER
 70
     0
1001
ACDBATTR
1070
     0
1070
     1
  0
ATTDEF
  5
3931
  8
DEFPOINTS
 10
4350.6957343033973302
 20
150.7676595670160111
 30
0.0
 40
0.001
  1
SQUARE
  3

  2
TRADENAME
 70
     0
1001
ACDBATTR
1070
     0
1070
     1
  0
ATTDEF
  5
3932
  8
DEFPOINTS
 10
4350.6957343753592795
 20
150.7659929003492891
 30
0.0
 40
0.001
  1
BODY SPRAY
  3

  2
PRODUCT
 70
     0
1001
ACDBATTR
1070
     0
1070
     1
  0
LINE
  5
7A4E
  8
0
 10
4350.5167445052302355
 20
148.3259917495830962
 30
0.0
 11
4350.6956287229304507
 21
148.319744975711302
 31
0.0
  0
LINE
  5
7A4F
  8
0
 10
4350.4100234306288257
 20
149.4316793954830871
 30
0.0
 11
4350.4310032238709027
 21
149.430248637237014
 31
0.0
  0
LINE
  5
7A50
  8
0
 10
4350.4072671842295676
 20
149.4351419730830912
 30
0.0
 11
4350.43100087534458
 21
149.4325309202264975
 31
0.0
  0
LINE
  5
7A51
  8
0
 10
4350.4010971182296998
 20
149.5295988197831036
 30
0.0
 11
4350.4308934857217537
 21
149.5368914896050967
 31
0.0
  0
LINE
  5
7A52
  8
0
 10
4350.4107776639302756
 20
149.8615002957830882
 30
0.0
 11
4350.4305615760831643
 21
149.8594392176360088
 31
0.0
  0
LINE
  5
7A53
  8
0
 10
4350.4051762224289632
 20
149.8670765563830969
 30
0.0
 11
4350.4305583355753697
 21
149.8625883227082909
 31
0.0
  0
LINE
  5
7A54
  8
0
 10
4350.4051267996301249
 20
149.9617223513830879
 30
0.0
 11
4350.43045168802837
 21
149.9662277470521872
 31
0.0
  0
LINE
  5
7A55
  8
0
 10
4350.4098010229290594
 20
150.2899631929830946
 30
0.0
 11
4350.430121502035945
 21
150.2871004465457077
 31
0.0
  0
LINE
  5
7A56
  8
0
 10
4350.4051628946299388
 20
150.2929195914830984
 30
0.0
 11
4350.4301200634226916
 21
150.288498481654301
 31
0.0
  0
LINE
  5
7A57
  8
0
 10
4350.4051414582299913
 20
150.3875651317831057
 30
0.0
 11
4350.4300135754865551
 21
150.3919827960125986
 31
0.0
  0
LINE
  5
7A58
  8
0
 10
4350.4318634810024378
 20
148.5942560941257966
 30
0.0
 11
4350.4296287280303659
 21
150.7659751675614075
 31
0.0
  0
LINE
  5
7A59
  8
0
 10
4350.4051522712288715
 20
150.7187524497830964
 30
0.0
 11
4350.4296817988915791
 21
150.7144012334084948
 31
0.0
  0
LINE
  5
7A5A
  8
0
 10
4350.6956287229304507
 20
153.2122053594113993
 30
0.0
 11
4350.6956287229304507
 21
148.3197449757113873
 31
0.0
  0
LINE
  5
7A5B
  8
0
 10
4350.4051522782301618
 20
150.8133979061830985
 30
0.0
 11
4350.4296287280303659
 21
150.8177397034831131
 31
0.0
  0
ARC
  5
7A5C
  8
0
 10
4350.9642664551302005
 20
149.5189440032831101
 30
0.0
 40
0.5762225053
 50
183.7361520163009061
 51
184.5603987504011059
  0
ARC
  5
7A5D
  8
0
 10
4350.9542510274295637
 20
149.518384045383101
 30
0.0
 40
0.5661918831000001
 50
182.8812253873012992
 51
183.7456498752015932
  0
ARC
  5
7A5E
  8
0
 10
4350.8745659609303402
 20
149.5118269862830971
 30
0.0
 40
0.4862401241
 50
184.5648290500012934
 51
185.3741117926007007
  0
ARC
  5
7A5F
  8
0
 10
4350.8476293087296654
 20
149.5131890278831008
 30
0.0
 40
0.4594438476
 50
182.0220947249995902
 51
182.9025455898996029
  0
ARC
  5
7A60
  8
0
 10
4350.6253060059289055
 20
149.4968014721831082
 30
0.0
 40
0.2355162423
 50
183.7341648201004887
 51
184.8625229719013134
  0
ARC
  5
7A61
  8
0
 10
4350.1567626024298079
 20
149.4662216460831132
 30
0.0
 40
0.235516193
 50
3.7341646335006171
 51
4.8625230498972831
  0
ARC
  5
7A62
  8
0
 10
4350.1638270469293275
 20
149.4665878656830955
 30
0.0
 40
0.2284429153
 50
2.5891653545992819
 51
3.757902896998198
  0
ARC
  5
7A63
  8
0
 10
4350.6182414890290602
 20
149.4964352476831095
 30
0.0
 40
0.228442892
 50
182.5891653618996884
 51
183.757903035000794
  0
ARC
  5
7A64
  8
0
 10
4350.4111120553416185
 20
149.4476423183976124
 30
0.0
 40
0.0160000003667773
 50
200.5058124986423138
 51
266.0986359373168284
  0
ARC
  5
7A65
  8
0
 10
4350.679476702230204
 20
149.9143369683831111
 30
0.0
 40
0.2908270829
 50
179.9893873880002104
 51
182.6987946076000071
  0
ARC
  5
7A66
  8
0
 10
4350.6794641511296504
 20
149.9147478854831093
 30
0.0
 40
0.290814746
 50
177.3569909653992909
 51
180.0703450705997
  0
ARC
  5
7A67
  8
0
 10
4350.677349049528857
 20
150.3400983542831
 30
0.0
 40
0.2887235877
 50
179.9721652572995936
 51
182.701699869500402
  0
ARC
  5
7A68
  8
0
 10
4350.6773353556291113
 20
150.3405091509831095
 30
0.0
 40
0.2887099865
 50
177.3201297839991923
 51
180.053688390299186
  0
ARC
  5
7A69
  8
0
 10
4350.6766672795283739
 20
150.7658695258830051
 30
0.0
 40
0.2880497801979715
 50
179.9789868874771912
 51
182.695139514209103
  0
ARC
  5
7A6A
  8
0
 10
4350.412033071269434
 20
150.3058067455332036
 30
0.0
 40
0.0160000061624645
 50
226.0901350532776917
 51
261.9809138517326232
  0
ARC
  5
7A6B
  8
0
 10
4350.4124355762023697
 20
149.8774141716478141
 30
0.0
 40
0.0160000036917623
 50
207.2519591744078014
 51
264.0523645210743098
  0
LINE
  5
7A6C
  8
0
 10
4350.388937088629973
 20
150.7798450900831142
 30
0.0
 11
4350.3886175186889886
 21
150.7659751675510904
 31
0.0
  0
ARC
  5
7A6D
  8
0
 10
4350.5196612852669205
 20
148.4062708931683119
 30
0.0
 40
0.0803321137562837
 50
185.1569384197551926
 51
267.9191892260266741
  0
ARC
  5
7A6E
  8
0
 10
4355.6946127746050479
 20
148.7065392746233954
 30
0.0
 40
5.2639469640134671
 50
181.222246415792597
 51
183.3487902642127096
  0
ARC
  5
7A6F
  8
0
 10
4350.5083128035621485
 20
149.4739402940492994
 30
0.0
 40
0.1180979213532017
 50
183.7158903460612009
 51
193.154841967574697
  0
ARC
  5
7A70
  8
0
 10
4350.4110355516640993
 20
149.4536791221202066
 30
0.0
 40
0.0189163021634479
 50
200.4719787321108129
 51
258.5090769448087826
  0
ARC
  5
7A71
  8
0
 10
4350.4047960932502974
 20
149.5142505487075084
 30
0.0
 40
0.0157877117154648
 50
103.5500433479170965
 51
143.551869637695205
  0
ARC
  5
7A72
  8
0
 10
4350.4059859786257221
 20
149.5130950054054892
 30
0.0
 40
0.0174327732346868
 50
142.820208830827994
 51
174.9754920974957884
  0
ARC
  5
7A73
  8
0
 10
4350.5236773507249382
 20
149.5046613560170101
 30
0.0
 40
0.135423949388883
 50
175.78208141645311
 51
183.2526232059551887
  0
ARC
  5
7A74
  8
0
 10
4350.4394216395512558
 20
149.4899059033103015
 30
0.0
 40
0.0495350612112425
 50
174.1194999009892115
 51
184.3884824575796131
  0
ARC
  5
7A75
  8
0
 10
4350.3435559634153833
 20
149.4836884469308131
 30
0.0
 40
0.0479402598489626
 50
2.985371510515602
 51
13.6242831198456091
  0
ARC
  5
7A76
  8
0
 10
4350.4454291723122878
 20
149.4802554702150132
 30
0.0
 40
0.0548982553707466
 50
183.5691397593321028
 51
192.8552554167233097
  0
ARC
  5
7A77
  8
0
 10
4350.3444084241664314
 20
149.4731708294044097
 30
0.0
 40
0.0477746876138808
 50
353.8362233964273855
 51
4.4860169681533169
  0
ARC
  5
7A78
  8
0
 10
4350.4081620369834127
 20
149.8835427387635946
 30
0.0
 40
0.0167347019912348
 50
211.9545930066329902
 51
259.722225814059982
  0
ARC
  5
7A79
  8
0
 10
4350.5727105300256881
 20
149.9090910513484971
 30
0.0
 40
0.1839324457129326
 50
182.632454469158489
 51
185.5966611159425099
  0
ARC
  5
7A7A
  8
0
 10
4350.4605674419635761
 20
149.8974048959954075
 30
0.0
 40
0.0711876231286295
 50
185.0383200002185049
 51
192.9788007571160904
  0
ARC
  5
7A7B
  8
0
 10
4350.4129783646721989
 20
149.8864298025974904
 30
0.0
 40
0.022349392085663
 50
192.9617286313248883
 51
211.6996474841147915
  0
ARC
  5
7A7C
  8
0
 10
4350.5264288152529844
 20
149.9230486397565869
 30
0.0
 40
0.1375649760413591
 50
171.168353339427
 51
177.8713869303608135
  0
ARC
  5
7A7D
  8
0
 10
4350.4159706646087216
 20
149.9408996953395103
 30
0.0
 40
0.0256847635291226
 50
148.0652072704806983
 51
172.6867361888822074
  0
ARC
  5
7A7E
  8
0
 10
4350.4081639459791404
 20
149.945217157660494
 30
0.0
 40
0.0167823025167658
 50
100.4264488507337063
 51
146.4761817945847895
  0
ARC
  5
7A7F
  8
0
 10
4350.4393479079571989
 20
149.9144171239094021
 30
0.0
 40
0.049163712840781
 50
164.0957311171322885
 51
195.9636181921246134
  0
ARC
  5
7A80
  8
0
 10
4350.3305569672702404
 20
149.9143607788537906
 30
0.0
 40
0.0629793963037207
 50
347.654860488433826
 51
12.4044888208366402
  0
ARC
  5
7A81
  8
0
 10
4350.45549571288484
 20
150.3402535061082119
 30
0.0
 40
0.0648399614747842
 50
167.9984216348325106
 51
192.0270393834234994
  0
ARC
  5
7A82
  8
0
 10
4350.3310535056762092
 20
150.3402258563808118
 30
0.0
 40
0.0624973037945538
 50
347.5409633916149801
 51
12.4844976266364096
  0
ARC
  5
7A83
  8
0
 10
4350.4953790336867314
 20
150.3511633125378921
 30
0.0
 40
0.1064759260027796
 50
167.5414564289582131
 51
178.4690987428816982
  0
ARC
  5
7A84
  8
0
 10
4350.4086533736390265
 20
150.3701035293995005
 30
0.0
 40
0.0177077279819035
 50
131.3465280190766009
 51
166.8445443118388027
  0
ARC
  5
7A85
  8
0
 10
4350.4075946560960801
 20
150.3726240729127994
 30
0.0
 40
0.0151411168655632
 50
99.3242945443679588
 51
134.6416293944157871
  0
ARC
  5
7A86
  8
0
 10
4350.5046417106168519
 20
150.3298483893850062
 30
0.0
 40
0.1157440864944431
 50
181.663175679923512
 51
190.4967548067247094
  0
ARC
  5
7A87
  8
0
 10
4350.4124035887789432
 20
150.3122763457496092
 30
0.0
 40
0.0218534189193801
 50
189.253772787584694
 51
217.9426718298585968
  0
ARC
  5
7A88
  8
0
 10
4350.4080876968300799
 20
150.3092524255474984
 30
0.0
 40
0.0165926470610252
 50
218.87152601896139
 51
259.847370076739594
  0
ARC
  5
7A89
  8
0
 10
4350.4082229980103875
 20
150.7353827131734079
 30
0.0
 40
0.0169113873879845
 50
205.2590970682655893
 51
259.5383440716004202
  0
ARC
  5
7A8A
  8
0
 10
4350.4315310093779772
 20
150.744432525094993
 30
0.0
 40
0.0418895693238929
 50
183.4609238481561135
 51
202.8493402929597949
  0
ARC
  5
7A8B
  8
0
 10
4350.5652197526051168
 20
150.7603084664862934
 30
0.0
 40
0.1764643186757801
 50
182.593039996842009
 51
185.986672775816686
  0
ARC
  5
7A8C
  8
0
 10
4350.5027632120863927
 20
150.7764243280857954
 30
0.0
 40
0.1138775131183291
 50
168.7030316213152901
 51
178.2786354613729998
  0
ARC
  5
7A8D
  8
0
 10
4350.4110738222962027
 20
150.7947172349182949
 30
0.0
 40
0.0203811404631471
 50
137.6994406452643034
 51
168.6385345894827026
  0
ARC
  5
7A8E
  8
0
 10
4350.4080629759710064
 20
150.7971102698550112
 30
0.0
 40
0.0165456718963712
 50
100.1321415567863937
 51
136.81148067265039
  0
ARC
  5
7A8F
  8
0
 10
4350.3312142839604348
 20
150.766075460614303
 30
0.0
 40
0.0623411314836828
 50
347.4962447947722808
 51
12.5032530058484106
  0
ARC
  5
7A90
  8
0
 10
4350.4553385921180961
 20
150.7660749166375069
 30
0.0
 40
0.0646854787556592
 50
167.9563285045377086
 51
192.043169296083704
  0
LINE
  5
7A91
  8
0
 10
4350.5167445052302355
 20
153.2059585855396051
 30
0.0
 11
4350.6956287229304507
 21
153.2122053594113993
 31
0.0
  0
LINE
  5
7A92
  8
0
 10
4350.4100234306288257
 20
152.1002709396396142
 30
0.0
 11
4350.4310032238709027
 21
152.1017016978856873
 31
0.0
  0
LINE
  5
7A93
  8
0
 10
4350.4072671842295676
 20
152.0968083620396101
 30
0.0
 11
4350.43100087534458
 21
152.0994194148962038
 31
0.0
  0
LINE
  5
7A94
  8
0
 10
4350.4010971182296998
 20
152.0023515153395977
 30
0.0
 11
4350.4308934857217537
 21
151.9950588455176046
 31
0.0
  0
LINE
  5
7A95
  8
0
 10
4350.4107776639302756
 20
151.6704500393396131
 30
0.0
 11
4350.4305615760831643
 21
151.6725111174866925
 31
0.0
  0
LINE
  5
7A96
  8
0
 10
4350.4051762224289632
 20
151.6648737787396044
 30
0.0
 11
4350.4305583355753697
 21
151.6693620124144104
 31
0.0
  0
LINE
  5
7A97
  8
0
 10
4350.4051267996301249
 20
151.5702279837396134
 30
0.0
 11
4350.43045168802837
 21
151.5657225880705141
 31
0.0
  0
LINE
  5
7A98
  8
0
 10
4350.4098010229290594
 20
151.2419871421396067
 30
0.0
 11
4350.430121502035945
 21
151.2448498885769936
 31
0.0
  0
LINE
  5
7A99
  8
0
 10
4350.4051628946299388
 20
151.2390307436396029
 30
0.0
 11
4350.4301200634226916
 21
151.2434518534684003
 31
0.0
  0
LINE
  5
7A9A
  8
0
 10
4350.4051414582299913
 20
151.1443852033395956
 30
0.0
 11
4350.4300135754865551
 21
151.1399675391101027
 31
0.0
  0
LINE
  5
7A9B
  8
0
 10
4350.4318634810024378
 20
152.9376942409969047
 30
0.0
 11
4350.4296287280303659
 21
150.7659751675614075
 31
0.0
  0
ARC
  5
7A9C
  8
0
 10
4350.9642664551302005
 20
152.0130063318395912
 30
0.0
 40
0.5762225053
 50
175.4396012495971888
 51
176.2638479836990086
  0
ARC
  5
7A9D
  8
0
 10
4350.9542510274295637
 20
152.0135662897396003
 30
0.0
 40
0.5661918831000001
 50
176.2543501247982931
 51
177.1187746126985871
  0
ARC
  5
7A9E
  8
0
 10
4350.8745659609303402
 20
152.0201233488396042
 30
0.0
 40
0.4862401241
 50
174.6258882073992993
 51
175.435170949998593
  0
ARC
  5
7A9F
  8
0
 10
4350.8476293087296654
 20
152.0187613072396005
 30
0.0
 40
0.4594438476
 50
177.0974544101003971
 51
177.9779052750002961
  0
ARC
  5
7AA0
  8
0
 10
4350.6253060059289055
 20
152.0351488629395931
 30
0.0
 40
0.2355162423
 50
175.1374770280986866
 51
176.2658351798995113
  0
ARC
  5
7AA1
  8
0
 10
4350.1567626024298079
 20
152.0657286890395881
 30
0.0
 40
0.235516193
 50
355.1374769501027231
 51
356.2658353664994024
  0
ARC
  5
7AA2
  8
0
 10
4350.1638270469293275
 20
152.0653624694396058
 30
0.0
 40
0.2284429153
 50
356.2420971030018109
 51
357.4108346454007119
  0
ARC
  5
7AA3
  8
0
 10
4350.6182414890290602
 20
152.0355150874395918
 30
0.0
 40
0.228442892
 50
176.2420969649990923
 51
177.4108346381001979
  0
ARC
  5
7AA4
  8
0
 10
4350.4111120553416185
 20
152.0843080167250889
 30
0.0
 40
0.0160000003667773
 50
93.9013640626831148
 51
159.4941875013576862
  0
ARC
  5
7AA5
  8
0
 10
4350.679476702230204
 20
151.6176133667395902
 30
0.0
 40
0.2908270829
 50
177.3012053923999076
 51
180.0106126119997043
  0
ARC
  5
7AA6
  8
0
 10
4350.6794641511296504
 20
151.617202449639592
 30
0.0
 40
0.290814746
 50
179.9296549294003
 51
182.6430090346007091
  0
ARC
  5
7AA7
  8
0
 10
4350.677349049528857
 20
151.1918519808396013
 30
0.0
 40
0.2887235877
 50
177.2983001304995128
 51
180.0278347427002927
  0
ARC
  5
7AA8
  8
0
 10
4350.6773353556291113
 20
151.1914411841395918
 30
0.0
 40
0.2887099865
 50
179.9463116097007003
 51
182.679870216000694
  0
ARC
  5
7AA9
  8
0
 10
4350.412033071269434
 20
151.2261435895894977
 30
0.0
 40
0.0160000061624645
 50
98.0190861482674336
 51
133.9098649467221946
  0
ARC
  5
7AAA
  8
0
 10
4350.4124355762023697
 20
151.6545361634748872
 30
0.0
 40
0.0160000036917623
 50
95.9476354789257471
 51
152.7480408255921134
  0
ARC
  5
7AAB
  8
0
 10
4350.5196612852669205
 20
153.1256794419543894
 30
0.0
 40
0.0803321137562837
 50
92.0808107739733543
 51
174.8430615802446937
  0
ARC
  5
7AAC
  8
0
 10
4355.6946127746050479
 20
152.8254110604993059
 30
0.0
 40
5.2639469640134671
 50
176.6512097357872904
 51
178.7777535842072894
  0
ARC
  5
7AAD
  8
0
 10
4350.5083128035621485
 20
152.0580100410732882
 30
0.0
 40
0.1180979213532017
 50
166.8451580324268093
 51
176.2841096539387991
  0
ARC
  5
7AAE
  8
0
 10
4350.4110355516640993
 20
152.0782712130024947
 30
0.0
 40
0.0189163021634479
 50
101.4909230551911037
 51
159.5280212678891019
  0
ARC
  5
7AAF
  8
0
 10
4350.4047960932502974
 20
152.0176997864151929
 30
0.0
 40
0.0157877117154648
 50
216.448130362304795
 51
256.4499566520827898
  0
ARC
  5
7AB0
  8
0
 10
4350.4059859786257221
 20
152.018855329717212
 30
0.0
 40
0.0174327732346868
 50
185.0245079025042116
 51
217.179791169172006
  0
ARC
  5
7AB1
  8
0
 10
4350.5236773507249382
 20
152.0272889791056912
 30
0.0
 40
0.135423949388883
 50
176.7473767940448113
 51
184.21791858354689
  0
ARC
  5
7AB2
  8
0
 10
4350.4394216395512558
 20
152.0420444318123998
 30
0.0
 40
0.0495350612112425
 50
175.61151754241871
 51
185.8805000990107033
  0
ARC
  5
7AB3
  8
0
 10
4350.3435559634153833
 20
152.0482618881918881
 30
0.0
 40
0.0479402598489626
 50
346.375716880154414
 51
357.0146284894843802
  0
ARC
  5
7AB4
  8
0
 10
4350.4454291723122878
 20
152.051694864907688
 30
0.0
 40
0.0548982553707466
 50
167.144744583276605
 51
176.4308602406678119
  0
ARC
  5
7AB5
  8
0
 10
4350.3444084241664314
 20
152.0587795057182916
 30
0.0
 40
0.0477746876138808
 50
355.5139830318482836
 51
6.1637766035726189
  0
ARC
  5
7AB6
  8
0
 10
4350.4081620369834127
 20
151.6484075963591067
 30
0.0
 40
0.0167347019912348
 50
100.2777741859399043
 51
148.0454069933670098
  0
ARC
  5
7AB7
  8
0
 10
4350.5727105300256881
 20
151.6228592837740905
 30
0.0
 40
0.1839324457129326
 50
174.4033388840574048
 51
177.3675455308413973
  0
ARC
  5
7AB8
  8
0
 10
4350.4605674419635761
 20
151.6345454391272085
 30
0.0
 40
0.0711876231286295
 50
167.0211992428853875
 51
174.9616799997814098
  0
ARC
  5
7AB9
  8
0
 10
4350.4129783646721989
 20
151.6455205325252109
 30
0.0
 40
0.022349392085663
 50
148.3003525158852085
 51
167.0382713686751117
  0
ARC
  5
7ABA
  8
0
 10
4350.5264288152529844
 20
151.608901695366086
 30
0.0
 40
0.1375649760413591
 50
182.1286130696391012
 51
188.8316466605728863
  0
ARC
  5
7ABB
  8
0
 10
4350.4159706646087216
 20
151.5910506397831909
 30
0.0
 40
0.0256847635291226
 50
187.3132638111177926
 51
211.9347927295193017
  0
ARC
  5
7ABC
  8
0
 10
4350.4081639459791404
 20
151.5867331774622073
 30
0.0
 40
0.0167823025167658
 50
213.5238182054150968
 51
259.5735511492662795
  0
ARC
  5
7ABD
  8
0
 10
4350.4393479079571989
 20
151.6175332112132992
 30
0.0
 40
0.049163712840781
 50
164.0363818078753013
 51
195.9042688828677115
  0
ARC
  5
7ABE
  8
0
 10
4350.3305569672702404
 20
151.6175895562689107
 30
0.0
 40
0.0629793963037207
 50
347.5955111791633954
 51
12.3451395115662201
  0
ARC
  5
7ABF
  8
0
 10
4350.45549571288484
 20
151.1916968290144894
 30
0.0
 40
0.0648399614747842
 50
167.9729606165763869
 51
192.0015783651674042
  0
ARC
  5
7AC0
  8
0
 10
4350.3310535056762092
 20
151.1917244787418895
 30
0.0
 40
0.0624973037945538
 50
347.5155023733635744
 51
12.4590366083850093
  0
ARC
  5
7AC1
  8
0
 10
4350.4953790336867314
 20
151.1807870225848092
 30
0.0
 40
0.1064759260027796
 50
181.5309012571165965
 51
192.4585435710417016
  0
ARC
  5
7AC2
  8
0
 10
4350.4086533736390265
 20
151.1618468057230871
 30
0.0
 40
0.0177077279819035
 50
193.155455688161112
 51
228.6534719809233991
  0
ARC
  5
7AC3
  8
0
 10
4350.4075946560960801
 20
151.1593262622099019
 30
0.0
 40
0.0151411168655632
 50
225.3583706055842129
 51
260.6757054556319986
  0
ARC
  5
7AC4
  8
0
 10
4350.5046417106168519
 20
151.2021019457376951
 30
0.0
 40
0.1157440864944431
 50
169.5032451932752053
 51
178.336824320076488
  0
ARC
  5
7AC5
  8
0
 10
4350.4124035887789432
 20
151.2196739893730069
 30
0.0
 40
0.0218534189193801
 50
142.0573281701414032
 51
170.746227212415306
  0
ARC
  5
7AC6
  8
0
 10
4350.4080876968300799
 20
151.2226979095752029
 30
0.0
 40
0.0165926470610252
 50
100.1526299232603066
 51
141.12847398103861
  0
ENDSEC
  0
EOF
