  0
SECTION
  2
HEADER
  9
$ACADVER
  1
AC1009
  9
$INSBASE
 10
3954.9344154573341257
 20
27.6620267911040116
 30
0.0
  9
$EXTMIN
 10
3952.4881765830300537
 20
25.21579659870401
 30
0.0
  9
$EXTMAX
 10
3957.380636863770178
 20
30.1082569494308707
 30
0.0
  9
$LIMMIN
 10
0.0
 20
0.0
  9
$LIMMAX
 10
11.6929133858000007
 20
8.2677165353999982
  9
$ORTHOMODE
 70
     0
  9
$REGENMODE
 70
     1
  9
$FILLMODE
 70
     1
  9
$QTEXTMODE
 70
     0
  9
$MIRRTEXT
 70
     0
  9
$DRAGMODE
 70
     2
  9
$LTSCALE
 40
0.6431102362
  9
$OSMODE
 70
  4095
  9
$ATTMODE
 70
     1
  9
$TEXTSIZE
 40
0.2
  9
$TRACEWID
 40
0.05
  9
$TEXTSTYLE
  7
STANDARD
  9
$CLAYER
  8
0
  9
$CELTYPE
  6
BYLAYER
  9
$CECOLOR
 62
   256
  9
$DIMSCALE
 40
1.0
  9
$DIMASZ
 40
0.1875
  9
$DIMEXO
 40
0.0625
  9
$DIMDLI
 40
0.4443307087
  9
$DIMRND
 40
0.0
  9
$DIMDLE
 40
0.0
  9
$DIMEXE
 40
0.125
  9
$DIMTP
 40
0.01
  9
$DIMTM
 40
0.01
  9
$DIMTXT
 40
2.0
  9
$DIMCEN
 40
0.1052362205
  9
$DIMTSZ
 40
0.0
  9
$DIMTOL
 70
     1
  9
$DIMLIM
 70
     0
  9
$DIMTIH
 70
     1
  9
$DIMTOH
 70
     1
  9
$DIMSE1
 70
     0
  9
$DIMSE2
 70
     0
  9
$DIMTAD
 70
     0
  9
$DIMZIN
 70
     0
  9
$DIMBLK
  1

  9
$DIMASO
 70
     1
  9
$DIMSHO
 70
     1
  9
$DIMPOST
  1
\X
  9
$DIMAPOST
  1

  9
$DIMALT
 70
     1
  9
$DIMALTD
 70
     2
  9
$DIMALTF
 40
25.3999999999999986
  9
$DIMLFAC
 40
1.0
  9
$DIMTOFL
 70
     0
  9
$DIMTVP
 40
0.0
  9
$DIMTIX
 70
     0
  9
$DIMSOXD
 70
     0
  9
$DIMSAH
 70
     0
  9
$DIMBLK1
  1

  9
$DIMBLK2
  1

  9
$DIMSTYLE
  2
STANDARD
  9
$DIMCLRD
 70
     0
  9
$DIMCLRE
 70
     0
  9
$DIMCLRT
 70
     0
  9
$DIMTFAC
 40
1.0
  9
$DIMGAP
 40
0.09
  9
$LUNITS
 70
     2
  9
$LUPREC
 70
     4
  9
$SKETCHINC
 40
0.1
  9
$FILLETRAD
 40
0.0
  9
$AUNITS
 70
     0
  9
$AUPREC
 70
     0
  9
$MENU
  1
.
  9
$ELEVATION
 40
0.0
  9
$PELEVATION
 40
0.0
  9
$THICKNESS
 40
0.0
  9
$LIMCHECK
 70
     0
  9
$BLIPMODE
 70
     0
  9
$CHAMFERA
 40
0.0
  9
$CHAMFERB
 40
0.0
  9
$SKPOLY
 70
     0
  9
$TDCREATE
 40
2458060.468368056230247
  9
$TDUPDATE
 40
2459101.4795138891786337
  9
$TDINDWG
 40
0.4639422454
  9
$TDUSRTIMER
 40
0.4639422454
  9
$USRTIMER
 70
     1
  9
$ANGBASE
 50
0.0
  9
$ANGDIR
 70
     0
  9
$PDMODE
 70
     0
  9
$PDSIZE
 40
0.3125
  9
$PLINEWID
 40
0.0
  9
$COORDS
 70
     1
  9
$SPLFRAME
 70
     0
  9
$SPLINETYPE
 70
     6
  9
$SPLINESEGS
 70
     8
  9
$ATTDIA
 70
     1
  9
$ATTREQ
 70
     1
  9
$HANDLING
 70
     1
  9
$HANDSEED
  5
9082
  9
$SURFTAB1
 70
     6
  9
$SURFTAB2
 70
     6
  9
$SURFTYPE
 70
     6
  9
$SURFU
 70
     6
  9
$SURFV
 70
     6
  9
$UCSNAME
  2

  9
$UCSORG
 10
0.0
 20
0.0
 30
0.0
  9
$UCSXDIR
 10
1.0
 20
0.0
 30
0.0
  9
$UCSYDIR
 10
0.0
 20
1.0
 30
0.0
  9
$PUCSNAME
  2

  9
$PUCSORG
 10
0.0
 20
0.0
 30
0.0
  9
$PUCSXDIR
 10
1.0
 20
0.0
 30
0.0
  9
$PUCSYDIR
 10
0.0
 20
1.0
 30
0.0
  9
$USERI1
 70
     0
  9
$USERI2
 70
     0
  9
$USERI3
 70
     0
  9
$USERI4
 70
     0
  9
$USERI5
 70
     0
  9
$USERR1
 40
0.0
  9
$USERR2
 40
0.0
  9
$USERR3
 40
0.0
  9
$USERR4
 40
0.0
  9
$USERR5
 40
0.0
  9
$WORLDVIEW
 70
     1
  9
$SHADEDGE
 70
     3
  9
$SHADEDIF
 70
    70
  9
$TILEMODE
 70
     1
  9
$MAXACTVP
 70
    64
  9
$PLIMCHECK
 70
     0
  9
$PEXTMIN
 10
1.0000000000000000E+20
 20
1.0000000000000000E+20
 30
1.0000000000000000E+20
  9
$PEXTMAX
 10
-1.0000000000000000E+20
 20
-1.0000000000000000E+20
 30
-1.0000000000000000E+20
  9
$PLIMMIN
 10
0.0
 20
0.0
  9
$PLIMMAX
 10
12.0
 20
9.0
  9
$UNITMODE
 70
     0
  9
$VISRETAIN
 70
     1
  9
$PLINEGEN
 70
     0
  9
$PSLTSCALE
 70
     1
  0
ENDSEC
  0
SECTION
  2
TABLES
  0
TABLE
  2
VPORT
 70
     1
  0
VPORT
  2
*ACTIVE
 70
     0
 10
0.0
 20
0.0
 11
1.0
 21
1.0
 12
0.0
 22
0.0
 13
0.0
 23
0.0
 14
1.0
 24
1.0
 15
0.0
 25
0.0
 16
0.0
 26
0.0
 36
25.03896678050193
 17
3954.9344482421870453
 27
27.6620273590087891
 37
0.0
 40
6.9188940870785807
 41
2.8398203592814371
 42
50.0
 43
0.0
 44
0.0
 50
0.0
 51
0.0
 71
     0
 72
   100
 73
     1
 74
     1
 75
     0
 76
     0
 77
     0
 78
     0
  0
ENDTAB
  0
TABLE
  2
LTYPE
 70
     2
  0
LTYPE
  2
CONTINUOUS
 70
     0
  3
Solid line
 72
    65
 73
     0
 40
0.0
  0
LTYPE
  2
PHANTOM2
 70
     0
  3
___ _ _ ___ _ _ ___ _ _ ___ _ _
 72
    65
 73
     6
 40
1.25
 49
0.625
 49
-0.125
 49
0.125
 49
-0.125
 49
0.125
 49
-0.125
  0
ENDTAB
  0
TABLE
  2
LAYER
 70
     2
  0
LAYER
  2
0
 70
     0
 62
   255
  6
CONTINUOUS
  0
LAYER
  2
DEFPOINTS
 70
     0
 62
     7
  6
CONTINUOUS
  0
ENDTAB
  0
TABLE
  2
STYLE
 70
     1
  0
STYLE
  2
STANDARD
 70
     0
 40
0.0
 41
0.8
 50
0.0
 71
     0
 42
0.2
  3
txt
  4

  0
ENDTAB
  0
TABLE
  2
VIEW
 70
     0
  0
ENDTAB
  0
TABLE
  2
UCS
 70
     0
  0
ENDTAB
  0
TABLE
  2
APPID
 70
     9
  0
APPID
  2
ACAD
 70
     0
  0
APPID
  2
ACAD_MLEADERVER
 70
     0
  0
APPID
  2
ACAD_EXEMPT_FROM_CAD_STANDARDS
 70
     0
  0
APPID
  2
ACAD_NAV_VCDISPLAY
 70
     0
  0
APPID
  2
ACAECLAYERSTANDARD
 70
     0
  0
APPID
  2
ACCMTRANSPARENCY
 70
     0
  0
APPID
  2
ACAD_DSTYLE_DIMJAG
 70
     0
  0
APPID
  2
ACAD_DSTYLE_DIMTALN
 70
     0
  0
APPID
  2
ACDBATTR
 70
     0
  0
ENDTAB
  0
TABLE
  2
DIMSTYLE
 70
     1
  0
DIMSTYLE
  2
STANDARD
 70
     0
  3

  4

  5

  6

  7

 40
1.0
 41
0.1875
 42
0.0625
 43
0.38
 44
0.125
 45
0.0
 46
0.0
 47
0.01
 48
0.01
140
0.15625
141
0.09
142
0.0
143
25.3999999999999986
144
1.0
145
0.0
146
1.0
147
0.09
 71
     1
 72
     0
 73
     1
 74
     1
 75
     0
 76
     0
 77
     0
 78
     4
170
     0
171
     2
172
     0
173
     0
174
     0
175
     0
176
     0
177
     0
178
     0
  0
ENDTAB
  0
ENDSEC
  0
SECTION
  2
BLOCKS
  0
BLOCK
  8
0
  2
$MODEL_SPACE
 70
     0
 10
0.0
 20
0.0
 30
0.0
  3
$MODEL_SPACE
  1

  0
ENDBLK
  5
21
  8
0
  0
BLOCK
 67
     1
  8
0
  2
$PAPER_SPACE
 70
     0
 10
0.0
 20
0.0
 30
0.0
  3
$PAPER_SPACE
  1

  0
ENDBLK
  5
1D
 67
     1
  8
0
  0
BLOCK
  8
0
  2
_FILLED
 70
     0
 10
0.0
 20
0.0
 30
0.0
  3
_FILLED
  1

  0
SOLID
  5
69B4
  8
0
  6
BYBLOCK
 62
     0
 10
0.0
 20
0.0
 30
0.0
 11
-1.0
 21
0.1666666667
 31
0.0
 12
-1.0
 22
-0.1666666667
 32
0.0
 13
-1.0
 23
-0.1666666667
 33
0.0
  0
ENDBLK
  5
69B5
  8
0
  6
BYBLOCK
 62
     0
  0
BLOCK
  8
0
  2
A$CDFAF6206
 70
     0
 10
0.0
 20
0.0
 30
0.0
  3
A$CDFAF6206
  1

  0
LINE
  5
6A0E
  8
0
 10
7.4646650085734834
 20
10.9287685970688493
 30
0.0
 11
7.4646650085734896
 21
10.8905784766688498
 31
0.0
  0
ARC
  5
6A0F
  8
0
 10
7.7269027075262349
 20
10.8926811525838598
 30
0.0
 40
0.2622461286616791
 50
180.4593995232625048
 51
217.0214027758331099
  0
LINE
  5
6A10
  8
0
 10
9.767814609867095
 20
10.9287685970688493
 30
0.0
 11
9.767814609867095
 21
10.8905433757650094
 31
0.0
  0
ARC
  5
6A11
  8
0
 10
9.5068669568548287
 20
10.8922438613003703
 30
0.0
 40
0.2609531936261092
 50
322.8847083717149076
 51
359.6266329125650145
  0
LINE
  5
6A12
  8
0
 10
7.517522606271406
 20
10.7347792678688396
 30
0.0
 11
9.7149570120691777
 21
10.7347792678688396
 31
0.0
  0
LINE
  5
6A13
  8
0
 10
7.4646650085734834
 20
10.9287685970688493
 30
0.0
 11
9.7678146123202936
 21
10.9287685970688493
 31
0.0
  0
ARC
  5
6A14
  8
0
 10
4.0826771419203629
 20
8.527951346868889
 30
0.0
 40
4.0826771653999172
 50
13.3117747050523896
 51
32.7200330051415591
  0
ARC
  5
6A15
  8
0
 10
4.0826771460567306
 20
8.5279513475907933
 30
0.0
 40
4.0826771612084691
 50
359.6656501984817851
 51
13.3117747085593798
  0
ARC
  5
6A16
  8
0
 10
13.1498041284835097
 20
8.5279508235212234
 30
0.0
 40
4.0826788382043553
 50
147.2799733478981068
 51
166.6882233021349862
  0
ARC
  5
6A17
  8
0
 10
13.1498064934207992
 20
8.5279506557033251
 30
0.0
 40
4.0826811782395342
 50
166.688228652086309
 51
180.3343397625230011
  0
LINE
  5
6A18
  8
0
 10
8.1652847935202928
 20
8.504127000268852
 30
0.0
 11
9.0671948248202892
 21
8.5041270002687881
 31
0.0
  0
LINE
  5
6A19
  8
0
 10
8.1652847935202786
 20
8.5041270002667204
 30
0.0
 11
8.1652847935202928
 21
8.3607006934688481
 31
0.0
  0
ARC
  5
6A1A
  8
0
 10
5.6196779630382627
 20
8.3631022096452732
 30
0.0
 40
2.545607963272567
 50
342.0511668832173768
 51
359.945947387132378
  0
LINE
  5
6A1B
  8
0
 10
9.0671948248202892
 20
8.5041270002687881
 30
0.0
 11
9.0671948248202892
 21
8.2885990108688503
 31
0.0
  0
ARC
  5
6A1C
  8
0
 10
9.4521885297801163
 20
7.9614488056228501
 30
0.0
 40
0.5052201595850959
 50
139.6436242991769916
 51
174.6757930071850069
  0
ARC
  5
6A1D
  8
0
 10
9.9238413395551746
 20
8.1492417579399508
 30
0.0
 40
0.9848265662939324
 50
188.2263441834095943
 51
209.5593615864376034
  0
ARC
  5
6A1E
  8
0
 10
8.0788764238271256
 20
7.5665710856463297
 30
0.0
 40
0.0393715937169877
 50
162.1669117288323037
 51
227.2023190037006088
  0
ARC
  5
6A1F
  8
0
 10
8.7223682141740682
 20
8.2079667397440517
 30
0.0
 40
0.947895137885075
 50
225.0018610752970858
 51
261.4598823366255829
  0
ARC
  5
6A20
  8
0
 10
8.6645157662702701
 20
8.1695128573935332
 30
0.0
 40
0.9027466462812931
 50
264.7303071214498118
 51
281.8608311947915013
  0
ARC
  5
6A21
  8
0
 10
8.6645157662698935
 20
8.1695128573999671
 30
0.0
 40
0.9027466462876658
 50
299.1741886792128753
 51
299.1743179154552195
  0
ARC
  5
6A22
  8
0
 10
9.0843330931590316
 20
7.4150554710086141
 30
0.0
 40
0.0393703053609601
 50
251.9700352025496954
 51
252.4698971938937859
  0
ARC
  5
6A23
  8
0
 10
9.0843330931590316
 20
7.4150554710086141
 30
0.0
 40
0.0393703053609601
 50
297.2453716727138726
 51
6.8376113572703074
  0
LINE
  5
6A24
  8
0
 10
9.0671948248202892
 20
7.663402160468852
 30
0.0
 11
9.1234233799329516
 21
7.419742732911689
 31
0.0
  0
ARC
  5
6A25
  8
0
 10
8.8843741880892395
 20
9.8961379890094676
 30
0.0
 40
2.5255097382132701
 50
263.792800240752797
 51
274.9514951129821156
  0
ARC
  5
6A26
  8
0
 10
8.8258167405968848
 20
9.2763025889666508
 30
0.0
 40
1.9029970832759311
 50
246.0108363320686067
 51
263.5276935074397215
  0
ARC
  5
6A27
  8
0
 10
8.607491361665744
 20
8.3225444804829642
 30
0.0
 40
1.064510137163637
 50
283.1717405874071005
 51
297.7022170607311864
  0
LINE
  5
6A28
  8
0
 10
9.0671948248202892
 20
8.2885990108688503
 30
0.0
 11
26.2014378595979593
 21
8.2885990108689942
 31
0.0
  0
LINE
  5
6A29
  8
0
 10
26.2014378595979913
 20
7.6634021604689053
 30
0.0
 11
9.0671948248202892
 21
7.6634021604688618
 31
0.0
  0
LINE
  5
6A2A
  8
0
 10
27.8039676758446994
 20
10.9287685970690802
 30
0.0
 11
27.8039676758446888
 21
10.8905784766690807
 31
0.0
  0
ARC
  5
6A2B
  8
0
 10
27.5417299768919399
 20
10.8926811525840801
 30
0.0
 40
0.2622461286616791
 50
322.9785972241680838
 51
359.5406004767386889
  0
LINE
  5
6A2C
  8
0
 10
25.5008180745510913
 20
10.9287685970690305
 30
0.0
 11
25.5008180745510913
 21
10.8905433757651799
 31
0.0
  0
ARC
  5
6A2D
  8
0
 10
25.7617657275633505
 20
10.8922438613005497
 30
0.0
 40
0.2609531936261092
 50
180.3733670874362929
 51
217.1152916282862861
  0
LINE
  5
6A2E
  8
0
 10
27.7511100781467803
 20
10.7347792678690706
 30
0.0
 11
25.5536756723490015
 21
10.7347792678690208
 31
0.0
  0
LINE
  5
6A2F
  8
0
 10
27.8039676758446888
 20
10.9287685970686006
 30
0.0
 11
25.5008180745510806
 21
10.9287685970686006
 31
0.0
  0
ARC
  5
6A30
  8
0
 10
31.1859555424978616
 20
8.5279513468691981
 30
0.0
 40
4.0826771653999172
 50
147.2799669948597057
 51
166.6882252949490066
  0
ARC
  5
6A31
  8
0
 10
31.185955538361501
 20
8.5279513475911024
 30
0.0
 40
4.0826771612084691
 50
166.6882252914419098
 51
180.3343498015194086
  0
ARC
  5
6A32
  8
0
 10
22.1188285559344706
 20
8.5279508235212251
 30
0.0
 40
4.0826788382046102
 50
13.3117766978667795
 51
32.7200266521023977
  0
ARC
  5
6A33
  8
0
 10
22.1188261909974315
 20
8.5279506557034264
 30
0.0
 40
4.0826811782395342
 50
359.665660237478221
 51
13.31177134791497
  0
LINE
  5
6A34
  8
0
 10
27.1033478908979397
 20
8.5041270002690652
 30
0.0
 11
26.2014378595979416
 21
8.5041270002689835
 31
0.0
  0
LINE
  5
6A35
  8
0
 10
27.1033478908979504
 20
8.5041270002669354
 30
0.0
 11
27.1033478908979397
 21
8.3607006934690649
 31
0.0
  0
ARC
  5
6A36
  8
0
 10
29.6489547213799689
 20
8.3631022096455467
 30
0.0
 40
2.545607963272567
 50
180.0540526128687873
 51
197.9488331167837032
  0
LINE
  5
6A37
  8
0
 10
26.2014378595979416
 20
8.5041270002689835
 30
0.0
 11
26.2014378595979487
 21
8.2885990108690457
 31
0.0
  0
ARC
  5
6A38
  8
0
 10
25.8164441546381305
 20
7.9614488056230366
 30
0.0
 40
0.5052201595850959
 50
5.324206992816312
 51
40.3563757008241879
  0
ARC
  5
6A39
  8
0
 10
25.3447913448601803
 20
8.149241757940846
 30
0.0
 40
0.9848265662968968
 50
330.4406384136033807
 51
351.7736558165743759
  0
ARC
  5
6A3A
  8
0
 10
27.1897562605911212
 20
7.5665710856465473
 30
0.0
 40
0.0393715937169877
 50
312.7976809963004143
 51
17.8330882711689185
  0
ARC
  5
6A3B
  8
0
 10
26.5462644702441715
 20
8.2079667397442542
 30
0.0
 40
0.947895137885075
 50
278.5401176633754972
 51
314.9981389247041079
  0
ARC
  5
6A3C
  8
0
 10
26.6041169181479695
 20
8.1695128573937392
 30
0.0
 40
0.9027466462812931
 50
258.139168805210204
 51
275.2696928785518935
  0
ARC
  5
6A3D
  8
0
 10
26.6041169181483497
 20
8.1695128574001732
 30
0.0
 40
0.9027466462876658
 50
240.8256820845460027
 51
240.8258113207880058
  0
ARC
  5
6A3E
  8
0
 10
26.1842995912592293
 20
7.4150554710088086
 30
0.0
 40
0.0393703053609601
 50
287.5301028061073794
 51
288.0299647974517825
  0
ARC
  5
6A3F
  8
0
 10
26.1842995912592293
 20
7.4150554710088086
 30
0.0
 40
0.0393703053609601
 50
173.1623886427310026
 51
242.7546283272870085
  0
LINE
  5
6A40
  8
0
 10
26.2014378595981192
 20
7.6634021604690448
 30
0.0
 11
26.1452093044853093
 21
7.4197427329118826
 31
0.0
  0
ARC
  5
6A41
  8
0
 10
26.384258496328961
 20
9.8961379890096666
 30
0.0
 40
2.5255097382132701
 50
265.0485048870193054
 51
276.2071997592482262
  0
ARC
  5
6A42
  8
0
 10
26.4428159438213299
 20
9.2763025889668516
 30
0.0
 40
1.9029970832759311
 50
276.4723064925619838
 51
293.9891636679327007
  0
ARC
  5
6A43
  8
0
 10
26.6611413227524885
 20
8.3225444804831703
 30
0.0
 40
1.064510137163637
 50
242.2977829392704052
 51
256.8282594125943774
  0
LINE
  5
6A44
  8
0
 62
     4
 10
17.9031473532159602
 20
10.9287685970686006
 30
0.0
 11
24.6329820359843588
 21
20.0952817181593808
 31
0.0
  0
LINE
  5
6A45
  8
0
 62
     4
 10
17.9031473532159602
 20
-0.0000000300842942
 30
0.0
 11
22.3963351323106608
 21
4.993614497796286
 31
0.0
  0
ENDBLK
  5
6A49
  8
0
  0
BLOCK
  8
0
  2
_CLOSED
 70
     0
 10
0.0
 20
0.0
 30
0.0
  3
_CLOSED
  1

  0
LINE
  5
81AE
  8
0
  6
BYBLOCK
 62
     0
 10
0.0
 20
0.0
 30
0.0
 11
-1.0
 21
0.1666666667
 31
0.0
  0
LINE
  5
81AF
  8
0
  6
BYBLOCK
 62
     0
 10
-1.0
 20
0.1666666667
 30
0.0
 11
-1.0
 21
-0.1666666667
 31
0.0
  0
LINE
  5
81B0
  8
0
  6
BYBLOCK
 62
     0
 10
-1.0
 20
-0.1666666667
 30
0.0
 11
0.0
 21
0.0
 31
0.0
  0
LINE
  5
81B1
  8
0
  6
BYBLOCK
 62
     0
 10
-1.0
 20
0.0
 30
0.0
 11
0.0
 21
0.0
 31
0.0
  0
ENDBLK
  5
81B2
  8
0
  6
BYBLOCK
 62
     0
  0
ENDSEC
  0
SECTION
  2
ENTITIES
  0
ATTDEF
  5
3930
  8
DEFPOINTS
 10
3954.9344780719970913
 20
27.6604988409119414
 30
0.0
 40
0.001
  1
K-8002T
  3

  2
MODELNUMBER
 70
     0
1001
ACDBATTR
1070
     0
1070
     1
  0
ATTDEF
  5
3931
  8
DEFPOINTS
 10
3954.9344780719970913
 20
27.6588321742452798
 30
0.0
 40
0.001
  1
WATERTILE
  3

  2
TRADENAME
 70
     0
1001
ACDBATTR
1070
     0
1070
     1
  0
ATTDEF
  5
3932
  8
DEFPOINTS
 10
3954.9344780719970913
 20
27.6571655075786111
 30
0.0
 40
0.001
  1
BODY SPRAY
  3

  2
PRODUCT
 70
     0
1001
ACDBATTR
1070
     0
1070
     1
  0
ARC
  5
8274
  8
0
 10
3957.3007030673679765
 20
30.0283231530293193
 30
0.0
 40
0.0799338326746835
 50
0.0545840519015976
 51
89.9454160563590364
  0
ARC
  5
8275
  8
0
 10
3957.3007029666978269
 20
25.2957304935632585
 30
0.0
 40
0.0799338970712319
 50
270.0134791484629204
 51
359.9999533148949808
  0
ARC
  5
8276
  8
0
 10
3952.5681098840068444
 20
25.2957298980498599
 30
0.0
 40
0.0799333026653511
 50
180.0117762599317928
 51
269.9834876054434858
  0
ARC
  5
8277
  8
0
 10
3952.5681329832332267
 20
30.0283005493935597
 30
0.0
 40
0.0799564002021799
 50
90.0036794683797865
 51
179.999981120208588
  0
ARC
  5
8278
  8
0
 10
3953.2901936324078633
 20
29.3062398641388597
 30
0.0
 40
0.089720838565146
 50
90.0000001054710452
 51
179.9999998945374955
  0
LINE
  5
8279
  8
0
 10
3953.29019363224279
 20
29.3959607027040093
 30
0.0
 11
3956.5786127635428784
 21
29.3959636048040096
 31
0.0
  0
ARC
  5
827A
  8
0
 10
3956.5786128427321273
 20
29.3062329283932392
 30
0.0
 40
0.0897306764107991
 50
359.9999494352525744
 51
90.0000505647494151
  0
LINE
  5
827B
  8
0
 10
3956.6683435191430362
 20
29.3062328492040116
 30
0.0
 11
3956.6683406170418493
 21
26.017812781860151
 31
0.0
  0
ARC
  5
827C
  8
0
 10
3956.5786208431059094
 20
26.0178128610397685
 30
0.0
 40
0.0897197739360157
 50
269.9998638084084064
 51
359.9999494352525744
  0
LINE
  5
827D
  8
0
 10
3956.5786206298430443
 20
25.9280930871040098
 30
0.0
 11
3953.2902777651911492
 21
25.9281009034683585
 31
0.0
  0
ARC
  5
827E
  8
0
 10
3953.2902779786641076
 20
26.0179090349856885
 30
0.0
 40
0.0898081315175798
 50
180.0071350913314916
 51
269.9998638084084064
  0
LINE
  5
827F
  8
0
 10
3953.2004698478431237
 20
26.01789785110401
 30
0.0
 11
3953.2004727938428914
 21
29.3062398643040112
 31
0.0
  0
ARC
  5
8280
  8
0
 10
3953.3404067054430016
 20
29.2560267911040093
 30
0.0
 40
0.048367282300001
 50
89.9999999985930259
 51
179.9999999999990052
  0
LINE
  5
8281
  8
0
 10
3953.3404067054439111
 20
29.3043940734040085
 30
0.0
 11
3956.5284067054421939
 21
29.3043940734040085
 31
0.0
  0
ARC
  5
8282
  8
0
 10
3956.5284067054421939
 20
29.2560267911028298
 30
0.0
 40
0.0483672823011805
 50
0.0000000013994441
 51
90.0
  0
LINE
  5
8283
  8
0
 10
3956.5767739877428539
 20
29.2560267911040093
 30
0.0
 11
3956.5767739878210705
 21
26.0680267911040104
 31
0.0
  0
ARC
  5
8284
  8
0
 10
3956.5284067055217747
 20
26.0680267911028309
 30
0.0
 40
0.0483672822988197
 50
269.9999999063580276
 51
0.0000000014008689
  0
LINE
  5
8285
  8
0
 10
3956.5284067054431034
 20
26.0196595088040112
 30
0.0
 11
3953.3404067054439111
 21
26.0196595140136502
 31
0.0
  0
ARC
  5
8286
  8
0
 10
3953.3404067055230371
 20
26.0680267963938697
 30
0.0
 40
0.0483672823802217
 50
180.0000062649644121
 51
269.9999999063580276
  0
LINE
  5
8287
  8
0
 10
3953.2920394231427963
 20
26.0680267911051899
 30
0.0
 11
3953.2920394231427963
 21
29.2560267911040093
 31
0.0
  0
CIRCLE
  5
8288
  8
0
 10
3956.211906705443198
 20
28.9395267911040115
 30
0.0
 40
0.0679999999999996
  0
CIRCLE
  5
8289
  8
0
 10
3956.2174318153870445
 20
28.9466968900477291
 30
0.0
 40
0.0134704673350714
  0
CIRCLE
  5
828A
  8
0
 10
3956.2168254391472146
 20
28.9458500639898588
 30
0.0
 40
0.0472446014088416
  0
CIRCLE
  5
828B
  8
0
 10
3955.851341424147904
 20
28.517795803427159
 30
0.0
 40
0.0134886865322406
  0
CIRCLE
  5
828C
  8
0
 10
3955.8508392524990995
 20
28.5172785446184918
 30
0.0
 40
0.0472984560696898
  0
CIRCLE
  5
828D
  8
0
 10
3955.8469067054429615
 20
28.5137267911040091
 30
0.0
 40
0.0679999999999996
  0
CIRCLE
  5
828E
  8
0
 10
3955.4819067054431798
 20
28.0879267911040102
 30
0.0
 40
0.0679999999999996
  0
CIRCLE
  5
828F
  8
0
 10
3955.4847448603418343
 20
28.0894715351040105
 30
0.0
 40
0.0134939952999993
  0
CIRCLE
  5
8290
  8
0
 10
3955.4843919767431544
 20
28.0892619966040087
 30
0.0
 40
0.0473152063000004
  0
CIRCLE
  5
8291
  8
0
 10
3956.211906705443198
 20
28.5137267911040091
 30
0.0
 40
0.0679999999999996
  0
CIRCLE
  5
8292
  8
0
 10
3956.2238190808188847
 20
28.5138093614944914
 30
0.0
 40
0.0134992025035619
  0
CIRCLE
  5
8293
  8
0
 10
3956.2223639060362075
 20
28.5137976723713713
 30
0.0
 40
0.0473287913073047
  0
CIRCLE
  5
8294
  8
0
 10
3956.2239892156171663
 20
28.0879623435199584
 30
0.0
 40
0.0134990912099727
  0
CIRCLE
  5
8295
  8
0
 10
3956.2224667650548326
 20
28.0879544731390496
 30
0.0
 40
0.0473285822034297
  0
CIRCLE
  5
8296
  8
0
 10
3956.211906705443198
 20
28.0879267911040102
 30
0.0
 40
0.0679999999999996
  0
CIRCLE
  5
8297
  8
0
 10
3955.8469067054429615
 20
28.0879267911040102
 30
0.0
 40
0.0679985667011025
  0
CIRCLE
  5
8298
  8
0
 10
3955.8469067054429615
 20
28.9395267911040115
 30
0.0
 40
0.0679999999999996
  0
CIRCLE
  5
8299
  8
0
 10
3955.4819067054431798
 20
28.9395267911040115
 30
0.0
 40
0.0679999999999996
  0
CIRCLE
  5
829A
  8
0
 10
3955.1169067054429433
 20
28.9395267911040115
 30
0.0
 40
0.0679999999999996
  0
CIRCLE
  5
829B
  8
0
 10
3955.1169067054429433
 20
28.5137267911040091
 30
0.0
 40
0.0680000000000003
  0
CIRCLE
  5
829C
  8
0
 10
3955.4827231677431882
 20
28.5137267911040091
 30
0.0
 40
0.0687794773122616
  0
CIRCLE
  5
829D
  8
0
 10
3955.1169011537431288
 20
28.0880550525040107
 30
0.0
 40
0.0678717388270561
  0
CIRCLE
  5
829E
  8
0
 10
3955.1168873541851099
 20
28.9506761956564986
 30
0.0
 40
0.0134246606131256
  0
CIRCLE
  5
829F
  8
0
 10
3955.1168898887422074
 20
28.9492891037818509
 30
0.0
 40
0.0470702065990122
  0
CIRCLE
  5
82A0
  8
0
 10
3955.481841258374061
 20
28.950742817559231
 30
0.0
 40
0.0134248406623708
  0
CIRCLE
  5
82A1
  8
0
 10
3955.4818653760071356
 20
28.9493483039801589
 30
0.0
 40
0.0470680104786092
  0
CIRCLE
  5
82A2
  8
0
 10
3955.8468301022171545
 20
28.9494645421726311
 30
0.0
 40
0.0470636755960636
  0
CIRCLE
  5
82A3
  8
0
 10
3955.8468236452590645
 20
28.9508689065578508
 30
0.0
 40
0.0134227816334291
  0
CIRCLE
  5
82A4
  8
0
 10
3955.4817416468058582
 20
28.5204248840387393
 30
0.0
 40
0.0134999879684596
  0
CIRCLE
  5
82A5
  8
0
 10
3955.4818030033397918
 20
28.5194839752350617
 30
0.0
 40
0.0472166321902449
  0
CIRCLE
  5
82A6
  8
0
 10
3955.1168875573580408
 20
28.5194229236285111
 30
0.0
 40
0.0472154691741402
  0
CIRCLE
  5
82A7
  8
0
 10
3955.1168434605501716
 20
28.520346582853211
 30
0.0
 40
0.0134662256730334
  0
CIRCLE
  5
82A8
  8
0
 10
3955.8548841446790902
 20
28.0880280699540101
 30
0.0
 40
0.0134991997678787
  0
CIRCLE
  5
82A9
  8
0
 10
3955.8539090292288165
 20
28.0880162060186009
 30
0.0
 40
0.0473306855121948
  0
CIRCLE
  5
82AA
  8
0
 10
3955.1167890503429589
 20
28.0913861519040111
 30
0.0
 40
0.0135008695999996
  0
CIRCLE
  5
82AB
  8
0
 10
3955.1167883437428827
 20
28.0914147470040092
 30
0.0
 40
0.0467979606672697
  0
CIRCLE
  5
82AC
  8
0
 10
3956.211906705443198
 20
26.3845267911040082
 30
0.0
 40
0.0679999999999996
  0
CIRCLE
  5
82AD
  8
0
 10
3956.2174318153870445
 20
26.3773566921602907
 30
0.0
 40
0.0134704673350714
  0
CIRCLE
  5
82AE
  8
0
 10
3956.2168254391472146
 20
26.3782035182181502
 30
0.0
 40
0.0472446014088416
  0
CIRCLE
  5
82AF
  8
0
 10
3955.851341424147904
 20
26.80625777878085
 30
0.0
 40
0.0134886865322406
  0
CIRCLE
  5
82B0
  8
0
 10
3955.8508392524990995
 20
26.8067750375895208
 30
0.0
 40
0.0472984560696898
  0
CIRCLE
  5
82B1
  8
0
 10
3955.8469067054429615
 20
26.8103267911040106
 30
0.0
 40
0.0679999999999996
  0
CIRCLE
  5
82B2
  8
0
 10
3955.4819067054431798
 20
27.2361267911040095
 30
0.0
 40
0.0679999999999996
  0
CIRCLE
  5
82B3
  8
0
 10
3955.4847448603418343
 20
27.2345820471040092
 30
0.0
 40
0.0134939952999993
  0
CIRCLE
  5
82B4
  8
0
 10
3955.4843919767431544
 20
27.234791585604011
 30
0.0
 40
0.0473152063000004
  0
CIRCLE
  5
82B5
  8
0
 10
3956.211906705443198
 20
26.8103267911040106
 30
0.0
 40
0.0679999999999996
  0
CIRCLE
  5
82B6
  8
0
 10
3956.2238190808188847
 20
26.8102442207135283
 30
0.0
 40
0.0134992025035619
  0
CIRCLE
  5
82B7
  8
0
 10
3956.2223639060362075
 20
26.8102559098366413
 30
0.0
 40
0.0473287913073047
  0
CIRCLE
  5
82B8
  8
0
 10
3956.2239892156171663
 20
27.2360912386880614
 30
0.0
 40
0.0134990912099727
  0
CIRCLE
  5
82B9
  8
0
 10
3956.2224667650548326
 20
27.2360991090689595
 30
0.0
 40
0.0473285822034297
  0
CIRCLE
  5
82BA
  8
0
 10
3956.211906705443198
 20
27.2361267911040095
 30
0.0
 40
0.0679999999999996
  0
CIRCLE
  5
82BB
  8
0
 10
3955.8469067054429615
 20
27.2361267911040095
 30
0.0
 40
0.0679985667011025
  0
CIRCLE
  5
82BC
  8
0
 10
3955.8469067054429615
 20
26.3845267911040082
 30
0.0
 40
0.0679999999999996
  0
CIRCLE
  5
82BD
  8
0
 10
3955.4819067054431798
 20
26.3845267911040082
 30
0.0
 40
0.0679999999999996
  0
CIRCLE
  5
82BE
  8
0
 10
3955.1169067054429433
 20
26.3845267911040082
 30
0.0
 40
0.0679999999999996
  0
CIRCLE
  5
82BF
  8
0
 10
3955.1169067054429433
 20
26.8103267911040106
 30
0.0
 40
0.0680000000000003
  0
CIRCLE
  5
82C0
  8
0
 10
3955.4827231677431882
 20
26.8103267911040106
 30
0.0
 40
0.0687794773122616
  0
CIRCLE
  5
82C1
  8
0
 10
3955.1169011537431288
 20
27.235998529704009
 30
0.0
 40
0.0678717388270561
  0
CIRCLE
  5
82C2
  8
0
 10
3955.1168873541851099
 20
26.3733773865515211
 30
0.0
 40
0.0134246606131256
  0
CIRCLE
  5
82C3
  8
0
 10
3955.1168898887422074
 20
26.3747644784261617
 30
0.0
 40
0.0470702065990122
  0
CIRCLE
  5
82C4
  8
0
 10
3955.481841258374061
 20
26.3733107646487817
 30
0.0
 40
0.0134248406623708
  0
CIRCLE
  5
82C5
  8
0
 10
3955.4818653760071356
 20
26.3747052782278608
 30
0.0
 40
0.0470680104786092
  0
CIRCLE
  5
82C6
  8
0
 10
3955.8468301022171545
 20
26.3745890400353886
 30
0.0
 40
0.0470636755960636
  0
CIRCLE
  5
82C7
  8
0
 10
3955.8468236452590645
 20
26.3731846756501582
 30
0.0
 40
0.0134227816334291
  0
CIRCLE
  5
82C8
  8
0
 10
3955.4817416468058582
 20
26.8036286981692697
 30
0.0
 40
0.0134999879684596
  0
CIRCLE
  5
82C9
  8
0
 10
3955.4818030033397918
 20
26.8045696069729615
 30
0.0
 40
0.0472166321902449
  0
CIRCLE
  5
82CA
  8
0
 10
3955.1168875573580408
 20
26.8046306585795016
 30
0.0
 40
0.0472154691741402
  0
CIRCLE
  5
82CB
  8
0
 10
3955.1168434605501716
 20
26.8037069993548087
 30
0.0
 40
0.0134662256730334
  0
CIRCLE
  5
82CC
  8
0
 10
3955.8548841446790902
 20
27.2360255122540096
 30
0.0
 40
0.0134991997678787
  0
CIRCLE
  5
82CD
  8
0
 10
3955.8539090292288165
 20
27.2360373761894188
 30
0.0
 40
0.0473306855121948
  0
CIRCLE
  5
82CE
  8
0
 10
3955.1167890503429589
 20
27.2326674303040086
 30
0.0
 40
0.0135008695999996
  0
CIRCLE
  5
82CF
  8
0
 10
3955.1167883437428827
 20
27.2326388352040105
 30
0.0
 40
0.0467979606672697
  0
CIRCLE
  5
82D0
  8
0
 10
3955.4819067054431798
 20
27.6621267911040114
 30
0.0
 40
0.0680000000000002
  0
CIRCLE
  5
82D1
  8
0
 10
3955.8469067054429615
 20
27.6621267911040114
 30
0.0
 40
0.0680000000000006
  0
CIRCLE
  5
82D2
  8
0
 10
3956.211906705443198
 20
27.6621267911040114
 30
0.0
 40
0.0679999995000006
  0
CIRCLE
  5
82D3
  8
0
 10
3956.2239717667957848
 20
27.6621268027541696
 30
0.0
 40
0.0134992043585303
  0
CIRCLE
  5
82D4
  8
0
 10
3956.2225461371040183
 20
27.6621302041753303
 30
0.0
 40
0.0470525230908714
  0
CIRCLE
  5
82D5
  8
0
 10
3955.8552127388279587
 20
27.6621209440984615
 30
0.0
 40
0.0134962581292255
  0
CIRCLE
  5
82D6
  8
0
 10
3955.8539645936261877
 20
27.6620267911040116
 30
0.0
 40
0.0472045190467911
  0
CIRCLE
  5
82D7
  8
0
 10
3955.4853247119431217
 20
27.6620267911040116
 30
0.0
 40
0.0472875508515678
  0
CIRCLE
  5
82D8
  8
0
 10
3955.4858320145431207
 20
27.6620267911040116
 30
0.0
 40
0.0134878736515631
  0
CIRCLE
  5
82D9
  8
0
 10
3953.6569222649281983
 20
28.9395335986386186
 30
0.0
 40
0.0679999999999996
  0
CIRCLE
  5
82DA
  8
0
 10
3953.6513971931940432
 20
28.946703727024591
 30
0.0
 40
0.0134704673350714
  0
CIRCLE
  5
82DB
  8
0
 10
3953.6520035649209603
 20
28.9458568977354602
 30
0.0
 40
0.0472446014088416
  0
CIRCLE
  5
82DC
  8
0
 10
3954.0174852988870953
 20
28.5178006895778786
 30
0.0
 40
0.0134886865322406
  0
CIRCLE
  5
82DD
  8
0
 10
3954.0179874677801308
 20
28.5172834280932292
 30
0.0
 40
0.0472984560696898
  0
CIRCLE
  5
82DE
  8
0
 10
3954.0219199959087746
 20
28.5137316536229299
 30
0.0
 40
0.0679999999999996
  0
CIRCLE
  5
82DF
  8
0
 10
3954.3869177268888961
 20
28.0879297086072413
 30
0.0
 40
0.0679999999999996
  0
CIRCLE
  5
82E0
  8
0
 10
3954.3840795802211687
 20
28.0894744677312502
 30
0.0
 40
0.0134939952999993
  0
CIRCLE
  5
82E1
  8
0
 10
3954.3844324627048081
 20
28.0892649273508006
 30
0.0
 40
0.0473152063000004
  0
CIRCLE
  5
82E2
  8
0
 10
3953.6569199959139951
 20
28.5137335986446594
 30
0.0
 40
0.0679999999999996
  0
CIRCLE
  5
82E3
  8
0
 10
3953.6450076209789586
 20
28.5138162325141309
 30
0.0
 40
0.0134992025035619
  0
CIRCLE
  5
82E4
  8
0
 10
3953.6464627956988807
 20
28.5138045356366412
 30
0.0
 40
0.0473287913073047
  0
CIRCLE
  5
82E5
  8
0
 10
3953.6448352169168174
 20
28.0879692154522616
 30
0.0
 40
0.0134990912099727
  0
CIRCLE
  5
82E6
  8
0
 10
3953.6463576674350406
 20
28.0879613369584789
 30
0.0
 40
0.0473285822034297
  0
CIRCLE
  5
82E7
  8
0
 10
3953.6569177268997919
 20
28.0879335986507108
 30
0.0
 40
0.0679999999999996
  0
CIRCLE
  5
82E8
  8
0
 10
3954.0219177268950261
 20
28.0879316536289814
 30
0.0
 40
0.0679985667011026
  0
CIRCLE
  5
82E9
  8
0
 10
3954.0219222649229778
 20
28.9395316536168785
 30
0.0
 40
0.0679999999999996
  0
CIRCLE
  5
82EA
  8
0
 10
3954.3869222649191215
 20
28.9395297085951491
 30
0.0
 40
0.0679999999999996
  0
CIRCLE
  5
82EB
  8
0
 10
3954.751922264913901
 20
28.9395277635734089
 30
0.0
 40
0.0679999999999996
  0
CIRCLE
  5
82EC
  8
0
 10
3954.7519199958987883
 20
28.5137277635794604
 30
0.0
 40
0.0680000000000003
  0
CIRCLE
  5
82ED
  8
0
 10
3954.3861035336040004
 20
28.5137297129519816
 30
0.0
 40
0.0687794773122616
  0
CIRCLE
  5
82EE
  8
0
 10
3954.7519232792678849
 20
28.0880560249559217
 30
0.0
 40
0.0678717388270561
  0
CIRCLE
  5
82EF
  8
0
 10
3954.7519416755840211
 20
28.9506771680226294
 30
0.0
 40
0.0134246606131256
  0
CIRCLE
  5
82F0
  8
0
 10
3954.7519391336359149
 20
28.9492900761615104
 30
0.0
 40
0.0470702065990122
  0
CIRCLE
  5
82F1
  8
0
 10
3954.3869877717570489
 20
28.9507457347014601
 30
0.0
 40
0.0134248406623708
  0
CIRCLE
  5
82F2
  8
0
 10
3954.3869636466920383
 20
28.9493512212509216
 30
0.0
 40
0.0470680104786092
  0
CIRCLE
  5
82F3
  8
0
 10
3954.0219989211059328
 20
28.9494694042771599
 30
0.0
 40
0.0470636755960636
  0
CIRCLE
  5
82F4
  8
0
 10
3954.0220053855468905
 20
28.9508737686279503
 30
0.0
 40
0.0134227816334291
  0
CIRCLE
  5
82F5
  8
0
 10
3954.3870850902339953
 20
28.5204278006562717
 30
0.0
 40
0.0134999879684596
  0
CIRCLE
  5
82F6
  8
0
 10
3954.3870237286860174
 20
28.5194868921795504
 30
0.0
 40
0.0472166321902449
  0
CIRCLE
  5
82F7
  8
0
 10
3954.7519391743380766
 20
28.5194238960018609
 30
0.0
 40
0.0472154691741403
  0
CIRCLE
  5
82F8
  8
0
 10
3954.7519832760672216
 20
28.5203475549915417
 30
0.0
 40
0.0134662256730334
  0
CIRCLE
  5
82F9
  8
0
 10
3954.0139402882000468
 20
28.0880329749893711
 30
0.0
 40
0.0134991997678787
  0
CIRCLE
  5
82FA
  8
0
 10
3954.0149154035848369
 20
28.0880211058577309
 30
0.0
 40
0.0473306855121949
  0
CIRCLE
  5
82FB
  8
0
 10
3954.7520354004191177
 20
28.0913871237585013
 30
0.0
 40
0.0135008695999996
  0
CIRCLE
  5
82FC
  8
0
 10
3954.7520361071710795
 20
28.09141571885473
 30
0.0
 40
0.0467979606672697
  0
CIRCLE
  5
82FD
  8
0
 10
3953.6569086497761418
 20
26.3845335986748886
 30
0.0
 40
0.0679999999999996
  0
CIRCLE
  5
82FE
  8
0
 10
3953.6513835016248777
 20
26.3773635291736284
 30
0.0
 40
0.0134704673350714
  0
CIRCLE
  5
82FF
  8
0
 10
3953.651989882378075
 20
26.3782103520002096
 30
0.0
 40
0.0472446014088416
  0
CIRCLE
  5
8300
  8
0
 10
3954.0174761783978283
 20
26.8062626649558702
 30
0.0
 40
0.0134886865322406
  0
CIRCLE
  5
8301
  8
0
 10
3954.0179783528028565
 20
26.8067799210885411
 30
0.0
 40
0.0472984560696898
  0
CIRCLE
  5
8302
  8
0
 10
3954.021910918786034
 20
26.8103316536471112
 30
0.0
 40
0.0679999999999996
  0
CIRCLE
  5
8303
  8
0
 10
3954.3869131877950167
 20
27.236129708619341
 30
0.0
 40
0.0679999999999996
  0
CIRCLE
  5
8304
  8
0
 10
3954.384075024664071
 20
27.2345849797433992
 30
0.0
 40
0.0134939952999993
  0
CIRCLE
  5
8305
  8
0
 10
3954.3844279093800651
 20
27.234794516362939
 30
0.0
 40
0.0473152063000004
  0
CIRCLE
  5
8306
  8
0
 10
3953.6569109187907998
 20
26.8103335986688514
 30
0.0
 40
0.0679999999999996
  0
CIRCLE
  5
8307
  8
0
 10
3953.6449985429758271
 20
26.8102510917573511
 30
0.0
 40
0.0134992025035619
  0
CIRCLE
  5
8308
  8
0
 10
3953.6464537178198952
 20
26.810262773126091
 30
0.0
 40
0.0473287913073047
  0
CIRCLE
  5
8309
  8
0
 10
3953.644830677443224
 20
27.2360981106324509
 30
0.0
 40
0.0134990912099727
  0
CIRCLE
  5
830A
  8
0
 10
3953.6463531280451207
 20
27.2361059729004893
 30
0.0
 40
0.0473285822034297
  0
CIRCLE
  5
830B
  8
0
 10
3953.656913187805003
 20
27.2361335986628106
 30
0.0
 40
0.0679999999999996
  0
CIRCLE
  5
830C
  8
0
 10
3954.0219131877997825
 20
27.2361316536410705
 30
0.0
 40
0.0679985667011026
  0
CIRCLE
  5
830D
  8
0
 10
3954.0219086497709213
 20
26.3845316536531591
 30
0.0
 40
0.0679999999999996
  0
CIRCLE
  5
830E
  8
0
 10
3954.3869086497661556
 20
26.3845297086314297
 30
0.0
 40
0.0679999999999996
  0
CIRCLE
  5
830F
  8
0
 10
3954.7519086497609351
 20
26.3845277636096895
 30
0.0
 40
0.0679999999999996
  0
CIRCLE
  5
8310
  8
0
 10
3954.7519109187751383
 20
26.8103277636036417
 30
0.0
 40
0.0680000000000003
  0
CIRCLE
  5
8311
  8
0
 10
3954.3860944564808051
 20
26.81032971297617
 30
0.0
 40
0.0687794773122616
  0
CIRCLE
  5
8312
  8
0
 10
3954.751918738807035
 20
27.2359995021680206
 30
0.0
 40
0.0678717388270561
  0
CIRCLE
  5
8313
  8
0
 10
3954.7519279416051177
 20
26.3733783589542412
 30
0.0
 40
0.0134246606131256
  0
CIRCLE
  5
8314
  8
0
 10
3954.7519254144399383
 20
26.3747654508423786
 30
0.0
 40
0.0470702065990122
  0
CIRCLE
  5
8315
  8
0
 10
3954.3869740370678301
 20
26.3733136818276002
 30
0.0
 40
0.0134248406623708
  0
CIRCLE
  5
8316
  8
0
 10
3954.3869499268648724
 20
26.374708195535181
 30
0.0
 40
0.0470680104786092
  0
CIRCLE
  5
8317
  8
0
 10
3954.0219852000409446
 20
26.3745939021764784
 30
0.0
 40
0.0470636755960636
  0
CIRCLE
  5
8318
  8
0
 10
3954.0219916495148027
 20
26.3731895377568613
 30
0.0
 40
0.0134227816334291
  0
CIRCLE
  5
8319
  8
0
 10
3954.3870759417250156
 20
26.8036316148111808
 30
0.0
 40
0.0134999879684596
  0
CIRCLE
  5
831A
  8
0
 10
3954.3870145902051263
 20
26.8045725239418005
 30
0.0
 40
0.0472166321902449
  0
CIRCLE
  5
831B
  8
0
 10
3954.7519300365079289
 20
26.8046316309771804
 30
0.0
 40
0.0472154691741403
  0
CIRCLE
  5
831C
  8
0
 10
3954.7519741283917938
 20
26.8037079715175217
 30
0.0
 40
0.0134662256730334
  0
CIRCLE
  5
831D
  8
0
 10
3954.0139357480261424
 20
27.2360304173014605
 30
0.0
 40
0.0134991997678787
  0
CIRCLE
  5
831E
  8
0
 10
3954.014910863537807
 20
27.2360422760406493
 30
0.0
 40
0.0473306855121949
  0
CIRCLE
  5
831F
  8
0
 10
3954.752030824456142
 20
27.2326684021706917
 30
0.0
 40
0.0135008695999996
  0
CIRCLE
  5
8320
  8
0
 10
3954.7520315309029684
 20
27.2326398070669207
 30
0.0
 40
0.0467979606672697
  0
CIRCLE
  5
8321
  8
0
 10
3954.3869154578751477
 20
27.6621297086132891
 30
0.0
 40
0.0680000000000002
  0
CIRCLE
  5
8322
  8
0
 10
3954.0219154578808229
 20
27.6621316536350186
 30
0.0
 40
0.0680000000000006
  0
CIRCLE
  5
8323
  8
0
 10
3953.6569154578860434
 20
27.6621335986567516
 30
0.0
 40
0.0679999995000006
  0
CIRCLE
  5
8324
  8
0
 10
3953.6448503965339114
 20
27.6621336745995414
 30
0.0
 40
0.0134992043585303
  0
CIRCLE
  5
8325
  8
0
 10
3953.6462760262438678
 20
27.6621370684237604
 30
0.0
 40
0.0470525230908714
  0
CIRCLE
  5
8326
  8
0
 10
3954.0136094244639935
 20
27.6621258508908809
 30
0.0
 40
0.0134962581292255
  0
CIRCLE
  5
8327
  8
0
 10
3954.0148575691650876
 20
27.6620316912452893
 30
0.0
 40
0.0472045190467911
  0
CIRCLE
  5
8328
  8
0
 10
3954.3834974508417872
 20
27.6620297268272495
 30
0.0
 40
0.0472875508515678
  0
CIRCLE
  5
8329
  8
0
 10
3954.3829901482431524
 20
27.6620297295305804
 30
0.0
 40
0.0134878736515631
  0
LINE
  5
832A
  8
0
 10
3957.3007792178841555
 20
30.1082569494308707
 30
0.0
 11
3952.5681278485249095
 21
30.1082569494308707
 31
0.0
  0
LINE
  5
832B
  8
0
 10
3957.3007217715889965
 20
25.21579659870401
 30
0.0
 11
3952.5680868475769785
 21
25.21579659870401
 31
0.0
  0
LINE
  5
832C
  8
0
 10
3957.380636863770178
 20
30.0283993036960695
 30
0.0
 11
3957.380636863770178
 21
25.2957304284324209
 31
0.0
  0
LINE
  5
832D
  8
0
 10
3952.4881765830300537
 20
25.2957134689978282
 30
0.0
 11
3952.4881765830300537
 21
30.02830057574036
 31
0.0
  0
ENDSEC
  0
EOF
