  0
SECTION
  2
HEADER
  9
$ACADVER
  1
AC1009
  9
$INSBASE
 10
345.3010346645548907
 20
29.8424407591137104
 30
0.0
  9
$EXTMIN
 10
342.2930848569396858
 20
29.0542490802473417
 30
-0.0015258207003583
  9
$EXTMAX
 10
345.3227863364828067
 20
30.9654330364913584
 30
0.0000000349246037
  9
$LIMMIN
 10
0.0
 20
0.0
  9
$LIMMAX
 10
22.0
 20
17.0
  9
$ORTHOMODE
 70
     0
  9
$REGENMODE
 70
     1
  9
$FILLMODE
 70
     1
  9
$QTEXTMODE
 70
     0
  9
$MIRRTEXT
 70
     0
  9
$DRAGMODE
 70
     2
  9
$LTSCALE
 40
1.2099999999999991
  9
$OSMODE
 70
  3839
  9
$ATTMODE
 70
     1
  9
$TEXTSIZE
 40
0.2
  9
$TRACEWID
 40
0.05
  9
$TEXTSTYLE
  7
STANDARD
  9
$CLAYER
  8
0
  9
$CELTYPE
  6
BYLAYER
  9
$CECOLOR
 62
   256
  9
$DIMSCALE
 40
1.0
  9
$DIMASZ
 40
0.1875
  9
$DIMEXO
 40
0.0625
  9
$DIMDLI
 40
0.38
  9
$DIMRND
 40
0.0
  9
$DIMDLE
 40
0.0
  9
$DIMEXE
 40
0.125
  9
$DIMTP
 40
1.5
  9
$DIMTM
 40
1.5
  9
$DIMTXT
 40
1.5
  9
$DIMCEN
 40
0.09
  9
$DIMTSZ
 40
0.0
  9
$DIMTOL
 70
     0
  9
$DIMLIM
 70
     0
  9
$DIMTIH
 70
     1
  9
$DIMTOH
 70
     1
  9
$DIMSE1
 70
     0
  9
$DIMSE2
 70
     0
  9
$DIMTAD
 70
     0
  9
$DIMZIN
 70
     4
  9
$DIMBLK
  1

  9
$DIMASO
 70
     1
  9
$DIMSHO
 70
     1
  9
$DIMPOST
  1

  9
$DIMAPOST
  1

  9
$DIMALT
 70
     0
  9
$DIMALTD
 70
     2
  9
$DIMALTF
 40
25.3999999999999986
  9
$DIMLFAC
 40
1.0
  9
$DIMTOFL
 70
     0
  9
$DIMTVP
 40
0.0
  9
$DIMTIX
 70
     0
  9
$DIMSOXD
 70
     0
  9
$DIMSAH
 70
     0
  9
$DIMBLK1
  1

  9
$DIMBLK2
  1

  9
$DIMSTYLE
  2
STANDARD
  9
$DIMCLRD
 70
     0
  9
$DIMCLRE
 70
     0
  9
$DIMCLRT
 70
     0
  9
$DIMTFAC
 40
1.0
  9
$DIMGAP
 40
0.09
  9
$LUNITS
 70
     2
  9
$LUPREC
 70
     4
  9
$SKETCHINC
 40
0.1
  9
$FILLETRAD
 40
0.0
  9
$AUNITS
 70
     0
  9
$AUPREC
 70
     0
  9
$MENU
  1
.
  9
$ELEVATION
 40
0.0
  9
$PELEVATION
 40
0.0
  9
$THICKNESS
 40
0.0
  9
$LIMCHECK
 70
     0
  9
$BLIPMODE
 70
     0
  9
$CHAMFERA
 40
0.0
  9
$CHAMFERB
 40
0.0
  9
$SKPOLY
 70
     0
  9
$TDCREATE
 40
2457827.4934837957844138
  9
$TDUPDATE
 40
2460509.8194328709505498
  9
$TDINDWG
 40
0.4109394676
  9
$TDUSRTIMER
 40
0.4109394676
  9
$USRTIMER
 70
     1
  9
$ANGBASE
 50
0.0
  9
$ANGDIR
 70
     0
  9
$PDMODE
 70
     0
  9
$PDSIZE
 40
0.3125
  9
$PLINEWID
 40
0.0
  9
$COORDS
 70
     1
  9
$SPLFRAME
 70
     0
  9
$SPLINETYPE
 70
     6
  9
$SPLINESEGS
 70
     8
  9
$ATTDIA
 70
     1
  9
$ATTREQ
 70
     1
  9
$HANDLING
 70
     1
  9
$HANDSEED
  5
9237
  9
$SURFTAB1
 70
     6
  9
$SURFTAB2
 70
     6
  9
$SURFTYPE
 70
     6
  9
$SURFU
 70
     6
  9
$SURFV
 70
     6
  9
$UCSNAME
  2

  9
$UCSORG
 10
0.0
 20
0.0
 30
0.0
  9
$UCSXDIR
 10
1.0
 20
0.0
 30
0.0
  9
$UCSYDIR
 10
0.0
 20
1.0
 30
0.0
  9
$PUCSNAME
  2

  9
$PUCSORG
 10
0.0
 20
0.0
 30
0.0
  9
$PUCSXDIR
 10
1.0
 20
0.0
 30
0.0
  9
$PUCSYDIR
 10
0.0
 20
1.0
 30
0.0
  9
$USERI1
 70
     0
  9
$USERI2
 70
     0
  9
$USERI3
 70
     0
  9
$USERI4
 70
     0
  9
$USERI5
 70
     0
  9
$USERR1
 40
0.0
  9
$USERR2
 40
0.0
  9
$USERR3
 40
0.0
  9
$USERR4
 40
0.0
  9
$USERR5
 40
0.0
  9
$WORLDVIEW
 70
     1
  9
$SHADEDGE
 70
     3
  9
$SHADEDIF
 70
    70
  9
$TILEMODE
 70
     1
  9
$MAXACTVP
 70
    48
  9
$PLIMCHECK
 70
     0
  9
$PEXTMIN
 10
1.0000000000000000E+20
 20
1.0000000000000000E+20
 30
1.0000000000000000E+20
  9
$PEXTMAX
 10
-1.0000000000000000E+20
 20
-1.0000000000000000E+20
 30
-1.0000000000000000E+20
  9
$PLIMMIN
 10
0.0
 20
0.0
  9
$PLIMMAX
 10
12.0
 20
9.0
  9
$UNITMODE
 70
     0
  9
$VISRETAIN
 70
     1
  9
$PLINEGEN
 70
     0
  9
$PSLTSCALE
 70
     1
  0
ENDSEC
  0
SECTION
  2
TABLES
  0
TABLE
  2
VPORT
 70
     1
  0
VPORT
  2
*ACTIVE
 70
     0
 10
0.0
 20
0.0
 11
1.0
 21
1.0
 12
132.8290079844065019
 22
22.8073918728087897
 13
0.0
 23
0.0
 14
1.0
 24
1.0
 15
0.0
 25
0.0
 16
-0.0000000000000284
 26
0.0
 36
157.2215818301446859
 17
210.9789276123046875
 27
7.2024491855605604
 37
0.0
 40
1.9248678509187931
 41
2.2831541218637992
 42
50.0
 43
0.0
 44
0.0
 50
0.0
 51
0.0
 71
     0
 72
   100
 73
     1
 74
     1
 75
     0
 76
     0
 77
     0
 78
     0
  0
ENDTAB
  0
TABLE
  2
LTYPE
 70
     3
  0
LTYPE
  2
CONTINUOUS
 70
     0
  3
Solid line
 72
    65
 73
     0
 40
0.0
  0
LTYPE
  2
PHANTOM2
 70
     0
  3
___ _ _ ___ _ _ ___ _ _ ___ _ _
 72
    65
 73
     6
 40
1.25
 49
0.625
 49
-0.125
 49
0.125
 49
-0.125
 49
0.125
 49
-0.125
  0
ENDTAB
  0
TABLE
  2
LAYER
 70
     2
  0
LAYER
  2
0
 70
     0
 62
     7
  6
CONTINUOUS
  0
LAYER
  2
DEFPOINTS
 70
     0
 62
     7
  6
CONTINUOUS
  0
ENDTAB
  0
TABLE
  2
STYLE
 70
     1
  0
STYLE
  2
STANDARD
 70
     0
 40
0.0
 41
0.8
 50
0.0
 71
     0
 42
0.2
  3
txt
  4

  0
ENDTAB
  0
TABLE
  2
VIEW
 70
     0
  0
ENDTAB
  0
TABLE
  2
UCS
 70
     0
  0
ENDTAB
  0
TABLE
  2
APPID
 70
     9
  0
APPID
  2
ACAD
 70
     0
  0
APPID
  2
ACAD_MLEADERVER
 70
     0
  0
APPID
  2
ACAD_EXEMPT_FROM_CAD_STANDARDS
 70
     0
  0
APPID
  2
ACAD_NAV_VCDISPLAY
 70
     0
  0
APPID
  2
ACADANNOMONITORALERTICONDI
 70
     0
  0
APPID
  2
ACAD_DSTYLE_DIMJAG
 70
     0
  0
APPID
  2
ACAD_DSTYLE_DIMTALN
 70
     0
  0
APPID
  2
ACDBATTR
 70
     0
  0
APPID
  2
DCO15
 70
     0
  0
ENDTAB
  0
TABLE
  2
DIMSTYLE
 70
     2
  0
DIMSTYLE
  2
STANDARD
 70
     0
  3

  4

  5

  6

  7

 40
1.0
 41
0.1875
 42
0.0625
 43
0.38
 44
0.125
 45
0.0
 46
0.0
 47
1.5
 48
1.5
140
1.5
141
0.09
142
0.0
143
25.3999999999999986
144
1.0
145
0.0
146
1.0
147
0.09
 71
     0
 72
     0
 73
     1
 74
     1
 75
     0
 76
     0
 77
     0
 78
     4
170
     0
171
     2
172
     0
173
     0
174
     0
175
     0
176
     0
177
     0
178
     0
  0
ENDTAB
  0
ENDSEC
  0
SECTION
  2
BLOCKS
  0
BLOCK
  8
0
  2
$MODEL_SPACE
 70
     0
 10
0.0
 20
0.0
 30
0.0
  3
$MODEL_SPACE
  1

  0
ENDBLK
  5
21
  8
0
  0
BLOCK
 67
     1
  8
0
  2
$PAPER_SPACE
 70
     0
 10
0.0
 20
0.0
 30
0.0
  3
$PAPER_SPACE
  1

  0
ENDBLK
  5
1D
 67
     1
  8
0
  0
BLOCK
  8
0
  2
_FILLED
 70
     0
 10
0.0
 20
0.0
 30
0.0
  3
_FILLED
  1

  0
SOLID
  5
8F6F
  8
0
  6
BYBLOCK
 62
     0
 10
0.0
 20
0.0
 30
0.0
 11
-1.0
 21
0.1666666667
 31
0.0
 12
-1.0
 22
-0.1666666667
 32
0.0
 13
-1.0
 23
-0.1666666667
 33
0.0
  0
ENDBLK
  5
8F70
  8
0
  6
BYBLOCK
 62
     0
  0
ENDSEC
  0
SECTION
  2
ENTITIES
  0
ATTDEF
  5
4EF9
  8
DEFPOINTS
 10
345.3015807723223247
 20
29.8464681507236591
 30
0.0
 40
0.001
  1
K-80158IN-9
  3

  2
MODELNUMBER
 70
     0
1001
ACDBATTR
1070
     0
1070
     1
  0
ATTDEF
  5
4EFA
  8
DEFPOINTS
 10
345.3015807723223247
 20
29.8448014840569797
 30
0.0
 40
0.001
  1
COMPLEMENTARY
  3

  2
TRADENAME
 70
     0
1001
ACDBATTR
1070
     0
1070
     1
  0
ATTDEF
  5
4EFB
  8
DEFPOINTS
 10
345.3015807723223247
 20
29.843134817390311
 30
0.0
 40
0.001
  1
ANGLE VALVE
  3

  2
PRODUCT
 70
     0
1001
ACDBATTR
1070
     0
1070
     1
  0
LINE
  5
8FC7
  8
0
 10
345.1042141921549273
 20
29.0550391843137099
 30
0.0
 11
345.3010346645548907
 21
29.0550391843137099
 31
0.0
  0
LINE
  5
8FC8
  8
0
 10
345.1042141921549273
 20
30.6298423339137109
 30
0.0
 11
345.3010346645548907
 21
30.6298423339137109
 31
0.0
  0
LINE
  5
8FC9
  8
0
 10
342.3561527747548894
 20
30.3640943024137115
 30
0.0
 11
343.5569401763548854
 21
30.3640943024137115
 31
0.0
  0
LINE
  5
8FCA
  8
0
 10
342.3561527747548894
 20
29.3207872158137093
 30
0.0
 11
343.5569401763548854
 21
29.3207872158137093
 31
0.0
  0
LINE
  5
8FCB
  8
0
 10
345.3010346645548907
 20
30.6298423339137109
 30
0.0
 11
345.3010346645548907
 21
29.0550391843137099
 31
0.0
  0
LINE
  5
8FCC
  8
0
 10
342.3167826960548723
 20
29.3601572945137086
 30
0.0
 11
342.3167826960548723
 21
30.3247242237137087
 31
0.0
  0
LINE
  5
8FCD
  8
0
 10
345.0648141921549268
 20
29.0944391843137105
 30
0.0
 11
345.0648141921549268
 21
30.5904423339137104
 31
0.0
  0
ARC
  5
8FCE
  8
0
 10
342.3561527747548894
 20
29.3601572945137086
 30
0.0
 40
0.0393700786999958
 50
179.9999999999949125
 51
270.0000000000064801
  0
ARC
  5
8FCF
  8
0
 10
342.3561527747548894
 20
30.3247242237137087
 30
0.0
 40
0.0393700787000047
 50
90.0000000000065086
 51
179.9999999999922125
  0
LINE
  5
8FD0
  8
0
 10
343.5569401763548854
 20
30.3640943024137115
 30
0.0
 11
343.5569401763548854
 21
29.3207872158137093
 31
0.0
  0
LINE
  5
8FD1
  8
0
 10
343.5687511999548747
 20
29.3601572945137086
 30
0.0
 11
343.5687511999548747
 21
30.3247242236137104
 31
0.0
  0
LINE
  5
8FD2
  8
0
 10
343.5687511999548747
 20
29.3601572945137086
 30
0.0
 11
345.0550141921548857
 21
29.3601572946137104
 31
0.0
  0
LINE
  5
8FD3
  8
0
 10
343.5569401763548854
 20
29.3995273733137097
 30
0.0
 11
343.5687511999548747
 21
29.3995273733137097
 31
0.0
  0
LINE
  5
8FD4
  8
0
 10
343.5569401763548854
 20
30.28535414501372
 30
0.0
 11
343.5687511999548747
 21
30.28535414501372
 31
0.0
  0
LINE
  5
8FD5
  8
0
 10
343.5687511999548747
 20
30.3247242236137104
 30
0.0
 11
343.755714192154926
 21
30.3247242237137087
 31
0.0
  0
LINE
  5
8FD6
  8
0
 10
344.5628905700548898
 20
30.3247242237137087
 30
0.0
 11
345.0550141921548857
 21
30.3247242237137087
 31
0.0
  0
ARC
  5
8FD7
  8
0
 10
345.1042141921549273
 20
29.0944391843137105
 30
0.0
 40
0.0394
 50
180.0
 51
270.0
  0
ARC
  5
8FD8
  8
0
 10
345.1042141921549273
 20
30.5904423339137104
 30
0.0
 40
0.0394
 50
90.0
 51
180.0
  0
ARC
  5
8FD9
  8
0
 10
345.0550141921548857
 20
29.3699572946137089
 30
0.0
 40
0.0098
 50
270.0000000000097771
 51
359.9999999999947136
  0
ARC
  5
8FDA
  8
0
 10
345.0550141921548857
 20
30.3149242237137102
 30
0.0
 40
0.0098
 50
0.0000000000050889
 51
90.0
  0
LINE
  5
8FDB
  8
0
 10
344.503790570054889
 20
30.5707872158137093
 30
0.0
 11
344.503790570054889
 21
30.3838242237137095
 31
0.0
  0
LINE
  5
8FDC
  8
0
 10
343.8148141921549268
 20
30.5707872158137093
 30
0.0
 11
343.8148141921549268
 21
30.3838242237137095
 31
0.0
  0
ARC
  5
8FDD
  8
0
 10
344.5628905700548898
 20
30.3838242237137095
 30
0.0
 40
0.0591
 50
180.0
 51
270.0
  0
ARC
  5
8FDE
  8
0
 10
343.755714192154926
 20
30.3838242237137095
 30
0.0
 40
0.0591
 50
270.0
 51
0.0
  0
ARC
  5
8FDF
  8
0
 10
344.1593023811049079
 20
30.7900934051210804
 30
0.0
 40
0.6159966730946786
 50
229.0667630374047121
 51
310.9332369625926162
  0
LINE
  5
8FE1
  8
0
 10
344.5293809496549216
 20
30.5707872158137093
 30
0.0
 11
343.7892238124549067
 21
30.5707872158137093
 31
0.0
  0
LINE
  5
8FE2
  8
0
 10
343.7892238124549067
 20
30.5707872158137093
 30
0.0
 11
343.7498535621548967
 21
30.6101574843137101
 31
0.0
  0
LINE
  5
8FE3
  8
0
 10
343.7498535621548967
 20
30.6101574843137101
 30
0.0
 11
343.7498535621548967
 21
30.64598717411371
 31
0.0
  0
LINE
  5
8FE4
  8
0
 10
343.7498535621548967
 20
30.64598717411371
 30
0.0
 11
343.7800694744548764
 21
30.6637459716137109
 31
0.0
  0
LINE
  5
8FE5
  8
0
 10
343.7800694744548764
 20
30.6637459716137109
 30
0.0
 11
343.7498535621548967
 21
30.6814657314137094
 31
0.0
  0
LINE
  5
8FE6
  8
0
 10
343.7498535621548967
 20
30.6814657314137094
 30
0.0
 11
343.7498544535549172
 21
30.7174279072137111
 31
0.0
  0
LINE
  5
8FE7
  8
0
 10
343.7498544535549172
 20
30.7174279072137111
 30
0.0
 11
343.7800601303160875
 21
30.7351279082549596
 31
0.0
  0
LINE
  5
8FE8
  8
0
 10
343.7800601303160875
 20
30.7351279082549596
 30
0.0
 11
343.7498544331548942
 21
30.7528610028137095
 31
0.0
  0
LINE
  5
8FE9
  8
0
 10
343.7498544331548942
 20
30.7528610028137095
 30
0.0
 11
343.7498544331548942
 21
30.7889063042514692
 31
0.0
  0
LINE
  5
8FEA
  8
0
 10
343.7498544331548942
 20
30.7889063042514692
 30
0.0
 11
343.7800882207549193
 21
30.8065836511137086
 31
0.0
  0
LINE
  5
8FEB
  8
0
 10
343.7800882207549193
 20
30.8065836511137086
 30
0.0
 11
343.7498535621548967
 21
30.8243573506137096
 31
0.0
  0
LINE
  5
8FEC
  8
0
 10
343.7498535621548967
 20
30.8243573506137096
 30
0.0
 11
343.7498535621548967
 21
30.8602459098137096
 31
0.0
  0
LINE
  5
8FED
  8
0
 10
343.7498535621548967
 20
30.8602459098137096
 30
0.0
 11
343.7800534602498033
 21
30.8779738424144803
 31
0.0
  0
LINE
  5
8FEE
  8
0
 10
343.7800534602498033
 20
30.8779738424144803
 30
0.0
 11
343.7498535621548967
 21
30.8957125287137089
 31
0.0
  0
LINE
  5
8FEF
  8
0
 10
343.7498535621548967
 20
30.8957125287137089
 30
0.0
 11
343.7498535621548967
 21
30.9251177347137087
 31
0.0
  0
LINE
  5
8FF0
  8
0
 10
343.7498535621548967
 20
30.9251177347137087
 30
0.0
 11
343.7653770659549082
 21
30.9406412457137101
 31
0.0
  0
ARC
  5
8FF1
  8
0
 10
343.9278004312735106
 20
30.6852470889826385
 30
0.0
 40
0.3026673502276123
 50
119.2228205756291999
 51
122.4551913626256976
  0
ARC
  5
8FF2
  8
0
 10
343.7957545307559144
 20
30.9100673810220101
 30
0.0
 40
0.042350878964529
 50
93.2361876126137759
 51
111.7865300943061015
  0
ARC
  5
8FF3
  8
0
 10
343.8821235740401221
 20
30.0771188823800095
 30
0.0
 40
0.8797210265956888
 50
92.8141594952596591
 51
95.7907361725501403
  0
LINE
  5
8FF4
  8
0
 10
344.5293809496549216
 20
30.9644880032137095
 30
0.0
 11
343.7892238124549067
 21
30.9644880032137095
 31
0.0
  0
LINE
  5
8FF5
  8
0
 10
343.7892238124549067
 20
30.9644880032137095
 30
0.0
 11
343.7764818294548945
 21
30.9517460143137093
 31
0.0
  0
LINE
  5
8FF6
  8
0
 10
343.7764818294548945
 20
30.9517460143137093
 30
0.0
 11
343.7800348714682173
 21
30.9493926250592999
 31
0.0
  0
ARC
  5
8FF7
  8
0
 10
343.8191296397230872
 20
30.8159271898896883
 30
0.0
 40
0.1358075799922694
 50
98.0043622244730841
 51
113.3133743084500935
  0
ARC
  5
8FF8
  8
0
 10
344.381912069894895
 20
26.8970628061748513
 30
0.0
 40
4.0948753561499496
 50
97.6198529739075411
 51
98.1667199583010017
  0
LINE
  5
8FF9
  8
0
 10
344.5293809496549216
 20
30.5707872158137093
 30
0.0
 11
344.5687777737549027
 21
30.6101840581137097
 31
0.0
  0
LINE
  5
8FFA
  8
0
 10
344.5687777737549027
 20
30.6101840581137097
 30
0.0
 11
344.5384834820976039
 21
30.6280386242986786
 31
0.0
  0
LINE
  5
8FFB
  8
0
 10
344.5384834820976039
 20
30.6280386242986786
 30
0.0
 11
344.5687503669548732
 21
30.6457350791137095
 31
0.0
  0
LINE
  5
8FFC
  8
0
 10
344.5687503669548732
 20
30.6457350791137095
 30
0.0
 11
344.5687511999548747
 21
30.6817188966137095
 31
0.0
  0
LINE
  5
8FFD
  8
0
 10
344.5687511999548747
 20
30.6817188966137095
 30
0.0
 11
344.5385621938168015
 21
30.6994381798562692
 31
0.0
  0
LINE
  5
8FFE
  8
0
 10
344.5385621938168015
 20
30.6994381798562692
 30
0.0
 11
344.5687511999548747
 21
30.717152541113709
 31
0.0
  0
LINE
  5
8FFF
  8
0
 10
344.5687511999548747
 20
30.717152541113709
 30
0.0
 11
344.5687511999548747
 21
30.7530856697137089
 31
0.0
  0
LINE
  5
9000
  8
0
 10
344.5687511999548747
 20
30.7530856697137089
 30
0.0
 11
344.5384949552764056
 21
30.7708320922055201
 31
0.0
  0
LINE
  5
9001
  8
0
 10
344.5384949552764056
 20
30.7708320922055201
 30
0.0
 11
344.5687503934548772
 21
30.7885696799137101
 31
0.0
  0
LINE
  5
9002
  8
0
 10
344.5687503934548772
 20
30.7885696799137101
 30
0.0
 11
344.5687511999548747
 21
30.8245535400137101
 31
0.0
  0
LINE
  5
9003
  8
0
 10
344.5687511999548747
 20
30.8245535400137101
 30
0.0
 11
344.5385695253182234
 21
30.8422720424925707
 31
0.0
  0
LINE
  5
9004
  8
0
 10
344.5385695253182234
 20
30.8422720424925707
 30
0.0
 11
344.5687511999548747
 21
30.8599872902137093
 31
0.0
  0
LINE
  5
9005
  8
0
 10
344.5687511999548747
 20
30.8599872902137093
 30
0.0
 11
344.5687511999548747
 21
30.8959559702137092
 31
0.0
  0
LINE
  5
9006
  8
0
 10
344.5687511999548747
 20
30.8959559702137092
 30
0.0
 11
344.5385534080264733
 21
30.9136936487449816
 31
0.0
  0
LINE
  5
9007
  8
0
 10
344.5385534080264733
 20
30.9136936487449816
 30
0.0
 11
344.5647006406048831
 21
30.92893278896371
 31
0.0
  0
LINE
  5
9008
  8
0
 10
344.5647006406048831
 20
30.92893278896371
 30
0.0
 11
344.5293809496549216
 21
30.9644880032137095
 31
0.0
  0
LINE
  5
9009
  8
0
 10
344.5384834820976039
 20
30.6280386242986786
 30
0.0
 11
343.770498386840984
 21
30.5895385170256091
 31
0.0
  0
LINE
  5
900A
  8
0
 10
343.770498386840984
 20
30.5895385170256091
 30
0.0
 11
344.5687777737549027
 21
30.6101840581137097
 31
0.0
  0
LINE
  5
900B
  8
0
 10
343.7498535621548967
 20
30.6101574843137101
 30
0.0
 11
344.5687503669548732
 21
30.6457350791137095
 31
0.0
  0
LINE
  5
900C
  8
0
 10
344.5687511999548747
 20
30.6817188966137095
 30
0.0
 11
343.7498535621548967
 21
30.64598717411371
 31
0.0
  0
LINE
  5
900D
  8
0
 10
343.7800694744548764
 20
30.6637459716137109
 30
0.0
 11
344.5385621938168015
 21
30.6994381798562692
 31
0.0
  0
LINE
  5
900E
  8
0
 10
344.5687511999548747
 20
30.717152541113709
 30
0.0
 11
343.7498535621548967
 21
30.6814657314137094
 31
0.0
  0
LINE
  5
900F
  8
0
 10
343.7498544535549172
 20
30.7174279072137111
 30
0.0
 11
344.5687511999548747
 21
30.7530856697137089
 31
0.0
  0
LINE
  5
9010
  8
0
 10
344.5384949552764056
 20
30.7708320922055201
 30
0.0
 11
343.7800601303160875
 21
30.7351279082549596
 31
0.0
  0
LINE
  5
9011
  8
0
 10
343.7498544331548942
 20
30.7528610028137095
 30
0.0
 11
344.5687503934548772
 21
30.7885696799137101
 31
0.0
  0
LINE
  5
9012
  8
0
 10
344.5687511999548747
 20
30.8245535400137101
 30
0.0
 11
343.7498544331548942
 21
30.7889063042514692
 31
0.0
  0
LINE
  5
9013
  8
0
 10
343.7800882207549193
 20
30.8065836511137086
 30
0.0
 11
344.5385695253182234
 21
30.8422720424925707
 31
0.0
  0
LINE
  5
9014
  8
0
 10
344.5687511999548747
 20
30.8599872902137093
 30
0.0
 11
343.7498535621548967
 21
30.8243573506137096
 31
0.0
  0
LINE
  5
9015
  8
0
 10
343.7483309529225721
 20
30.859352108325961
 30
0.0
 11
344.5687511999548747
 21
30.8959559702137092
 31
0.0
  0
LINE
  5
9016
  8
0
 10
344.5385534080264733
 20
30.9136936487449816
 30
0.0
 11
343.7800534602498033
 21
30.8779738424144803
 31
0.0
  0
LINE
  5
9017
  8
0
 10
343.7498535621548967
 20
30.8957125287137089
 30
0.0
 11
344.5647006406048831
 21
30.92893278896371
 31
0.0
  0
LINE
  5
9018
  8
0
 10
344.5293809496549216
 20
30.9644880032137095
 30
0.0
 11
343.7498535621548967
 21
30.9251177347137087
 31
0.0
  0
ENDSEC
  0
EOF
