  0
SECTION
  2
HEADER
  9
$ACADVER
  1
AC1009
  9
$INSBASE
 10
4483.8066884715726701
 20
392.6723377940214732
 30
0.0
  9
$EXTMIN
 10
4475.1750756772626119
 20
392.652499430311309
 30
-0.0015258207003583
  9
$EXTMAX
 10
4492.3126677743730397
 20
414.3390208508524211
 30
0.0000000349246037
  9
$LIMMIN
 10
0.0
 20
0.0
  9
$LIMMAX
 10
11.6929133858000007
 20
8.2677165353999982
  9
$ORTHOMODE
 70
     0
  9
$REGENMODE
 70
     1
  9
$FILLMODE
 70
     1
  9
$QTEXTMODE
 70
     0
  9
$MIRRTEXT
 70
     0
  9
$DRAGMODE
 70
     2
  9
$LTSCALE
 40
0.6431102362
  9
$OSMODE
 70
     7
  9
$ATTMODE
 70
     1
  9
$TEXTSIZE
 40
0.2
  9
$TRACEWID
 40
0.05
  9
$TEXTSTYLE
  7
STANDARD
  9
$CLAYER
  8
0
  9
$CELTYPE
  6
BYLAYER
  9
$CECOLOR
 62
   256
  9
$DIMSCALE
 40
1.0
  9
$DIMASZ
 40
0.1875
  9
$DIMEXO
 40
0.0625
  9
$DIMDLI
 40
0.4443307087
  9
$DIMRND
 40
0.0
  9
$DIMDLE
 40
0.0
  9
$DIMEXE
 40
0.125
  9
$DIMTP
 40
0.01
  9
$DIMTM
 40
0.01
  9
$DIMTXT
 40
2.0
  9
$DIMCEN
 40
0.1052362205
  9
$DIMTSZ
 40
0.0
  9
$DIMTOL
 70
     1
  9
$DIMLIM
 70
     0
  9
$DIMTIH
 70
     1
  9
$DIMTOH
 70
     1
  9
$DIMSE1
 70
     0
  9
$DIMSE2
 70
     0
  9
$DIMTAD
 70
     0
  9
$DIMZIN
 70
     0
  9
$DIMBLK
  1

  9
$DIMASO
 70
     1
  9
$DIMSHO
 70
     1
  9
$DIMPOST
  1
\X
  9
$DIMAPOST
  1

  9
$DIMALT
 70
     1
  9
$DIMALTD
 70
     2
  9
$DIMALTF
 40
25.3999999999999986
  9
$DIMLFAC
 40
1.0
  9
$DIMTOFL
 70
     0
  9
$DIMTVP
 40
0.0
  9
$DIMTIX
 70
     0
  9
$DIMSOXD
 70
     0
  9
$DIMSAH
 70
     0
  9
$DIMBLK1
  1

  9
$DIMBLK2
  1

  9
$DIMSTYLE
  2
STANDARD
  9
$DIMCLRD
 70
     0
  9
$DIMCLRE
 70
     0
  9
$DIMCLRT
 70
     0
  9
$DIMTFAC
 40
1.0
  9
$DIMGAP
 40
0.09
  9
$LUNITS
 70
     2
  9
$LUPREC
 70
     4
  9
$SKETCHINC
 40
0.1
  9
$FILLETRAD
 40
0.0
  9
$AUNITS
 70
     0
  9
$AUPREC
 70
     0
  9
$MENU
  1
.
  9
$ELEVATION
 40
0.0
  9
$PELEVATION
 40
0.0
  9
$THICKNESS
 40
0.0
  9
$LIMCHECK
 70
     0
  9
$BLIPMODE
 70
     0
  9
$CHAMFERA
 40
0.0
  9
$CHAMFERB
 40
0.0
  9
$SKPOLY
 70
     0
  9
$TDCREATE
 40
2458060.468368056230247
  9
$TDUPDATE
 40
2459393.6395949078723788
  9
$TDINDWG
 40
1.1619286921
  9
$TDUSRTIMER
 40
1.1619286921
  9
$USRTIMER
 70
     1
  9
$ANGBASE
 50
0.0
  9
$ANGDIR
 70
     0
  9
$PDMODE
 70
     0
  9
$PDSIZE
 40
0.3125
  9
$PLINEWID
 40
0.0
  9
$COORDS
 70
     1
  9
$SPLFRAME
 70
     0
  9
$SPLINETYPE
 70
     6
  9
$SPLINESEGS
 70
     8
  9
$ATTDIA
 70
     1
  9
$ATTREQ
 70
     1
  9
$HANDLING
 70
     1
  9
$HANDSEED
  5
18A2B
  9
$SURFTAB1
 70
     6
  9
$SURFTAB2
 70
     6
  9
$SURFTYPE
 70
     6
  9
$SURFU
 70
     6
  9
$SURFV
 70
     6
  9
$UCSNAME
  2

  9
$UCSORG
 10
0.0
 20
0.0
 30
0.0
  9
$UCSXDIR
 10
1.0
 20
0.0
 30
0.0
  9
$UCSYDIR
 10
0.0
 20
1.0
 30
0.0
  9
$PUCSNAME
  2

  9
$PUCSORG
 10
0.0
 20
0.0
 30
0.0
  9
$PUCSXDIR
 10
1.0
 20
0.0
 30
0.0
  9
$PUCSYDIR
 10
0.0
 20
1.0
 30
0.0
  9
$USERI1
 70
     0
  9
$USERI2
 70
     0
  9
$USERI3
 70
     0
  9
$USERI4
 70
     0
  9
$USERI5
 70
     0
  9
$USERR1
 40
0.0
  9
$USERR2
 40
0.0
  9
$USERR3
 40
0.0
  9
$USERR4
 40
0.0
  9
$USERR5
 40
0.0
  9
$WORLDVIEW
 70
     1
  9
$SHADEDGE
 70
     3
  9
$SHADEDIF
 70
    70
  9
$TILEMODE
 70
     1
  9
$MAXACTVP
 70
    64
  9
$PLIMCHECK
 70
     0
  9
$PEXTMIN
 10
1.0000000000000000E+20
 20
1.0000000000000000E+20
 30
1.0000000000000000E+20
  9
$PEXTMAX
 10
-1.0000000000000000E+20
 20
-1.0000000000000000E+20
 30
-1.0000000000000000E+20
  9
$PLIMMIN
 10
0.0
 20
0.0
  9
$PLIMMAX
 10
12.0
 20
9.0
  9
$UNITMODE
 70
     0
  9
$VISRETAIN
 70
     1
  9
$PLINEGEN
 70
     0
  9
$PSLTSCALE
 70
     1
  0
ENDSEC
  0
SECTION
  2
TABLES
  0
TABLE
  2
VPORT
 70
     1
  0
VPORT
  2
*ACTIVE
 70
     0
 10
0.0
 20
0.0
 11
1.0
 21
1.0
 12
572.3785152805056669
 22
270.9161550380428025
 13
0.0
 23
0.0
 14
1.0
 24
1.0
 15
0.0
 25
0.0
 16
0.0
 26
0.0
 36
60.4960186965801583
 17
3911.3653564453120453
 27
132.5796051025390057
 37
0.0
 40
21.8531272189063692
 41
2.3461538461538458
 42
50.0
 43
0.0
 44
0.0
 50
0.0
 51
0.0
 71
     0
 72
   100
 73
     1
 74
     1
 75
     0
 76
     0
 77
     0
 78
     0
  0
ENDTAB
  0
TABLE
  2
LTYPE
 70
     2
  0
LTYPE
  2
CONTINUOUS
 70
     0
  3
Solid line
 72
    65
 73
     0
 40
0.0
  0
LTYPE
  2
PHANTOM2
 70
     0
  3
___ _ _ ___ _ _ ___ _ _ ___ _ _
 72
    65
 73
     6
 40
1.25
 49
0.625
 49
-0.125
 49
0.125
 49
-0.125
 49
0.125
 49
-0.125
  0
ENDTAB
  0
TABLE
  2
LAYER
 70
     2
  0
LAYER
  2
0
 70
     0
 62
   255
  6
CONTINUOUS
  0
LAYER
  2
DEFPOINTS
 70
     0
 62
     7
  6
CONTINUOUS
  0
ENDTAB
  0
TABLE
  2
STYLE
 70
     1
  0
STYLE
  2
STANDARD
 70
     0
 40
0.0
 41
0.8
 50
0.0
 71
     0
 42
0.2
  3
txt
  4

  0
ENDTAB
  0
TABLE
  2
VIEW
 70
     0
  0
ENDTAB
  0
TABLE
  2
UCS
 70
     0
  0
ENDTAB
  0
TABLE
  2
APPID
 70
    11
  0
APPID
  2
ACAD
 70
     0
  0
APPID
  2
ACAD_MLEADERVER
 70
     0
  0
APPID
  2
ACAD_EXEMPT_FROM_CAD_STANDARDS
 70
     0
  0
APPID
  2
ACAD_NAV_VCDISPLAY
 70
     0
  0
APPID
  2
ACAECLAYERSTANDARD
 70
     0
  0
APPID
  2
ACCMTRANSPARENCY
 70
     0
  0
APPID
  2
ACAD_DSTYLE_DIMJAG
 70
     0
  0
APPID
  2
ACAD_DSTYLE_DIMTALN
 70
     0
  0
APPID
  2
ACDBATTR
 70
     0
  0
APPID
  2
ACADANNOTATIVE
 70
     0
  0
APPID
  2
DCO15
 70
     0
  0
ENDTAB
  0
TABLE
  2
DIMSTYLE
 70
     1
  0
DIMSTYLE
  2
STANDARD
 70
     0
  3

  4

  5

  6

  7

 40
1.0
 41
0.1875
 42
0.0625
 43
0.38
 44
0.125
 45
0.0
 46
0.0
 47
0.01
 48
0.01
140
0.15625
141
0.09
142
0.0
143
25.3999999999999986
144
1.0
145
0.0
146
1.0
147
0.09
 71
     1
 72
     0
 73
     1
 74
     1
 75
     0
 76
     0
 77
     0
 78
     4
170
     0
171
     2
172
     0
173
     0
174
     0
175
     0
176
     0
177
     0
178
     0
  0
ENDTAB
  0
ENDSEC
  0
SECTION
  2
BLOCKS
  0
BLOCK
  8
0
  2
$MODEL_SPACE
 70
     0
 10
0.0
 20
0.0
 30
0.0
  3
$MODEL_SPACE
  1

  0
ENDBLK
  5
21
  8
0
  0
BLOCK
 67
     1
  8
0
  2
$PAPER_SPACE
 70
     0
 10
0.0
 20
0.0
 30
0.0
  3
$PAPER_SPACE
  1

  0
ENDBLK
  5
1D
 67
     1
  8
0
  0
ENDSEC
  0
SECTION
  2
ENTITIES
  0
ATTDEF
  5
159BF
  8
DEFPOINTS
 10
4483.8066885424186694
 20
392.6756761543256857
 30
0.0
 40
0.001
  1
K-80160T-2WT
  3

  2
MODELNUMBER
 70
     0
1001
ACDBATTR
1070
     0
1070
     1
  0
ATTDEF
  5
159C0
  8
DEFPOINTS
 10
4483.8066885424186694
 20
392.6740093139464989
 30
0.0
 40
0.001
  1
INNATE
  3

  2
TRADENAME
 70
     0
1001
ACDBATTR
1070
     0
1070
     1
  0
ATTDEF
  5
159C1
  8
DEFPOINTS
 10
4483.8066885424186694
 20
392.6723428209922986
 30
0.0
 40
0.001
  1
TOILET
  3

  2
PRODUCT
 70
     0
1001
ACDBATTR
1070
     0
1070
     1
  0
LINE
  5
185CD
  8
0
 10
4475.3007823848147382
 20
413.1390778460914248
 30
0.0
 11
4475.3007823848147382
 21
413.1406183478214871
 31
0.0
  0
LINE
  5
185CE
  8
0
 10
4492.3125945583296925
 20
413.1390778460914248
 30
0.0
 11
4492.3125945583296925
 21
413.1406183478214871
 31
0.0
  0
LINE
  5
185CF
  8
0
 10
4477.4945111315300892
 20
392.6723377940214732
 30
0.0
 11
4490.118865811615251
 21
392.6723377940214732
 31
0.0
  0
LINE
  5
185D0
  8
0
 10
4475.4406314812022174
 20
414.3390140979215062
 30
0.0
 11
4492.1727454619422133
 21
414.3390140979215062
 31
0.0
  0
LINE
  5
185D1
  8
0
 10
4491.7423018633353422
 20
408.0252315644215173
 30
0.0
 11
4475.8710750798090885
 21
408.0252315644215173
 31
0.0
  0
ARC
  5
185D2
  8
0
 10
4483.8052735695446245
 20
1049.2726556485540641
 30
0.0
 40
639.272760935493352
 50
269.6308691487948863
 51
270.369180945370772
  0
ARC
  5
185D3
  8
0
 10
4487.6357186260684102
 20
489.3551894266490194
 30
0.0
 40
79.3425491832723111
 50
270.2084302864220149
 51
272.3928741944271792
  0
ARC
  5
185D4
  8
0
 10
4491.6976803705647399
 20
410.623352822670995
 30
0.0
 40
0.4484412271923845
 50
279.0105746974256249
 51
355.2434350171392907
  0
ARC
  5
185D5
  8
0
 10
4490.723217090817343
 20
415.407353092460994
 30
0.0
 40
5.330286394057552
 50
272.4210257681900202
 51
281.3027143469540761
  0
ARC
  5
185D6
  8
0
 10
4519.514850813373414
 20
409.8410151610295884
 30
0.0
 40
27.3603832335173784
 50
175.7877829840545019
 51
177.5232611536044089
  0
ARC
  5
185D7
  8
0
 10
4466.7508009140246941
 20
413.7790535956933127
 30
0.0
 40
25.5504472825506888
 50
355.67154101548158
 51
358.5523376360767998
  0
ARC
  5
185D8
  8
0
 10
3978.4203463723079039
 20
410.4236031384476746
 30
0.0
 40
513.8893619169219846
 50
0.3050648566658926
 51
0.4236519938458689
  0
LINE
  5
185D9
  8
0
 10
4492.2013336184136278
 20
414.3264448852215196
 30
0.0
 11
4492.2956604057089862
 21
414.2233292410414833
 31
0.0
  0
ARC
  5
185DA
  8
0
 10
4492.1724501071794293
 20
414.2995464272548816
 30
0.0
 40
0.0394687757890292
 50
42.961936398669792
 51
89.571237287212881
  0
ARC
  5
185DB
  8
0
 10
4492.2646403703556643
 20
414.1956989286924795
 30
0.0
 40
0.041541265674176
 50
3.5696105015706232
 51
41.6922445735182592
  0
LINE
  5
185DC
  8
0
 10
4492.3087102183144452
 20
414.0562580322214785
 30
0.0
 11
4492.3125945583296925
 21
413.1406183478214871
 31
0.0
  0
ARC
  5
185DD
  8
0
 10
4489.4708785326165525
 20
414.0751619800818162
 30
0.0
 40
2.837894648431436
 50
359.6183352192587108
 51
2.486584072355603
  0
ARC
  5
185DE
  8
0
 10
4492.3125648965524306
 20
413.3259589320081204
 30
0.0
 40
0.1371733354136615
 50
220.0867922595317907
 51
230.2038708247027046
  0
ARC
  5
185DF
  8
0
 10
4489.8810637056840278
 20
410.1484789272694229
 30
0.0
 40
3.8640203623903071
 50
51.197135188116313
 51
52.6598971268643723
  0
ARC
  5
185E0
  8
0
 10
4489.8065661025448208
 20
410.1355745313363172
 30
0.0
 40
3.8949567642647609
 50
50.3276433869502
 51
51.9832519316059987
  0
ARC
  5
185E1
  8
0
 10
4492.278491977682279
 20
413.1142987952811154
 30
0.0
 40
0.0241639572641576
 50
1.0239038145746
 51
52.825269089774963
  0
LINE
  5
185E2
  8
0
 10
4492.3009753076048582
 20
413.050394505138172
 30
0.0
 11
4492.3125945583296925
 21
413.1390778460914248
 31
0.0
  0
ARC
  5
185E3
  8
0
 10
4492.2876152353055659
 20
413.1395933074707045
 30
0.0
 40
0.0250003457271554
 50
2.34984564595492
 51
53.6761391443686122
  0
ARC
  5
185E4
  8
0
 10
4466.7920152929000324
 20
413.7474155128571169
 30
0.0
 40
25.5184811326417993
 50
355.7504094120296827
 51
358.5793084512799282
  0
ARC
  5
185E5
  8
0
 10
4483.8054134045241881
 20
856.6070601150304356
 30
0.0
 40
448.5439877643307796
 50
269.4909098948144219
 51
270.5091253046755924
  0
ARC
  5
185E6
  8
0
 10
4487.4461676817581974
 20
490.2359728709586193
 30
0.0
 40
82.1559162796393565
 50
270.2405461931974742
 51
272.4574245836095088
  0
ARC
  5
185E7
  8
0
 10
4487.7171535492707335
 20
411.1651769577186997
 30
0.0
 40
4.4651240119874984
 50
352.5492524996453199
 51
358.1799520507340731
  0
ARC
  5
185E8
  8
0
 10
4491.7132218522483527
 20
408.6022301390567009
 30
0.0
 40
0.3539184644564028
 50
281.9406518903599022
 51
353.5265640360170778
  0
ARC
  5
185E9
  8
0
 10
4490.8660419033267317
 20
412.3737914260062212
 30
0.0
 40
4.2194314889905238
 50
271.3950451334994227
 51
282.5995081251742818
  0
LINE
  5
185EA
  8
0
 10
4490.8953563378154286
 20
408.1042158096215076
 30
0.0
 11
4491.2893214183141026
 21
408.1042289528214724
 31
0.0
  0
ARC
  5
185EB
  8
0
 10
4491.2893169077751736
 20
408.2223401118372976
 30
0.0
 40
0.1181111591018823
 50
270.0021880649520085
 51
343.402666809281925
  0
ARC
  5
185EC
  8
0
 10
4490.8953631566828335
 20
408.2223327187405175
 30
0.0
 40
0.1181169093158822
 50
218.5854066527166992
 51
269.996692324926812
  0
LINE
  5
185ED
  8
0
 10
4491.7661701204897327
 20
408.2514897287800864
 30
0.0
 11
4491.7423018633353422
 21
408.0252315644215173
 31
0.0
  0
ARC
  5
185EE
  8
0
 10
4491.3743395114142913
 20
407.72266882985042
 30
0.0
 40
0.3039948186174076
 50
354.0700952399168955
 51
84.4363547219878257
  0
LINE
  5
185EF
  8
0
 10
4491.6767076630139854
 20
407.6912626100215107
 30
0.0
 11
4490.1364951165141974
 21
392.7432783821215025
 31
0.0
  0
ARC
  5
185F0
  8
0
 10
4490.0580826932009586
 20
392.7511221941937833
 30
0.0
 40
0.0788037658842313
 50
271.2702516641476791
 51
354.2875477557327031
  0
LINE
  5
185F1
  8
0
 10
4490.1306933926480269
 20
392.7204999825901837
 30
0.0
 11
4490.1267544772135807
 21
392.6798054410214718
 31
0.0
  0
ARC
  5
185F2
  8
0
 10
4490.1188460794801358
 20
392.6802591725419234
 30
0.0
 40
0.0079214030966887
 50
270.1427233515781836
 51
356.7163471644759056
  0
ARC
  5
185F3
  8
0
 10
4488.432598322980084
 20
408.096041161807193
 30
0.0
 40
0.0708096169960458
 50
188.8326866680305898
 51
270.0426417322419752
  0
ARC
  5
185F4
  8
0
 10
4489.3686122085809984
 20
408.0962261650112737
 30
0.0
 40
0.0710172061689637
 50
271.4456900038181857
 51
359.8783255013390772
  0
LINE
  5
185F5
  8
0
 10
4489.4396292546143741
 20
408.0960753515213923
 30
0.0
 11
4489.439629247765879
 21
408.1042451968619957
 31
0.0
  0
ARC
  5
185F6
  8
0
 10
4483.8054440877021989
 20
1080.5690659786350807
 30
0.0
 40
670.4438215713149702
 50
269.6527126585132237
 51
270.3473067768148894
  0
ARC
  5
185F7
  8
0
 10
4487.6919509975741676
 20
485.8130855232008116
 30
0.0
 40
75.6757319835811302
 50
270.1343604193654073
 51
272.3891629175507774
  0
ARC
  5
185F8
  8
0
 10
4491.6052504907656839
 20
410.7179416330708932
 30
0.0
 40
0.4192193715100502
 50
282.8915411068986145
 51
353.2213533521277782
  0
ARC
  5
185F9
  8
0
 10
4466.1500587983500736
 20
413.912881793246072
 30
0.0
 40
26.0347807651612406
 50
355.6931326926659267
 51
358.4603355031928231
  0
ARC
  5
185FA
  8
0
 10
4519.9179851878370755
 20
409.9161027077255994
 30
0.0
 40
27.8815128169925508
 50
175.8007809681942888
 51
177.5001353405355076
  0
ARC
  5
185FB
  8
0
 10
4487.3192682483850149
 20
411.3226511773752918
 30
0.0
 40
4.747559382924428
 50
352.0797069292793253
 51
357.7010666150807765
  0
ARC
  5
185FC
  8
0
 10
4335.7718681030492007
 20
412.8909006744590897
 30
0.0
 40
156.4069905614537959
 50
0.1334743709814071
 51
0.5304876244585131
  0
ARC
  5
185FD
  8
0
 10
4492.1688354128309584
 20
413.2064104003324019
 30
0.0
 40
0.0497846741111243
 50
38.8308235789626508
 51
78.8833371008768296
  0
LINE
  5
185FE
  8
0
 10
4492.1784342634337008
 20
413.2552609463215276
 30
0.0
 11
4475.4349426797098204
 21
413.2552609463215276
 31
0.0
  0
LINE
  5
185FF
  8
0
 10
4475.4379368789559521
 20
413.2133537682213955
 30
0.0
 11
4492.1754400641893881
 21
413.2133537682213955
 31
0.0
  0
ARC
  5
18600
  8
0
 10
4490.6246047908189212
 20
415.458903993773788
 30
0.0
 40
5.2604551614925699
 50
272.418869691145801
 51
281.7825738993473124
  0
ARC
  5
18601
  8
0
 10
4492.1765669808373787
 20
413.1635618879748222
 30
0.0
 40
0.0498046311062193
 50
54.5691332906640909
 51
91.2965275934006399
  0
ARC
  5
18602
  8
0
 10
4537.6875186882571143
 20
408.6887129990996073
 30
0.0
 40
45.5574448938747807
 50
176.0128322018084077
 51
177.8514772646097128
  0
ARC
  5
18603
  8
0
 10
4440.5379625648502042
 20
412.2129159431191852
 30
0.0
 40
51.656078078437659
 50
355.9474709938874071
 51
357.9850359531387198
  0
LINE
  5
18604
  8
0
 10
4475.3124016355395725
 20
413.050394505138172
 30
0.0
 11
4475.3007823848147382
 21
413.1390778460914248
 31
0.0
  0
ARC
  5
18605
  8
0
 10
4475.3257617078379553
 20
413.1395933074707045
 30
0.0
 40
0.0250003457271554
 50
126.3238608556312954
 51
177.6501543540450996
  0
ARC
  5
18606
  8
0
 10
4479.9787160543719438
 20
489.3879943328591935
 30
0.0
 40
79.3753696472241472
 50
267.6073516206902241
 51
269.7892531639038225
  0
ARC
  5
18607
  8
0
 10
4475.9156965725796908
 20
410.623352822670995
 30
0.0
 40
0.4484412271923845
 50
184.7565649828574124
 51
260.989425302522875
  0
ARC
  5
18608
  8
0
 10
4476.8901598523270877
 20
415.407353092460994
 30
0.0
 40
5.330286394057552
 50
258.6972856530459239
 51
267.5789742318099798
  0
ARC
  5
18609
  8
0
 10
4448.0985261297710167
 20
409.8410151610295884
 30
0.0
 40
27.3603832335173784
 50
2.4767388463955409
 51
4.2122170159454564
  0
ARC
  5
1860A
  8
0
 10
4500.8625760291197366
 20
413.7790535956933127
 30
0.0
 40
25.5504472825506888
 50
181.4476623639199033
 51
184.3284589845183916
  0
ARC
  5
1860B
  8
0
 10
4989.1930305708356173
 20
410.4236031384476746
 30
0.0
 40
513.8893619169219846
 50
179.5763480061540918
 51
179.6949351433341064
  0
LINE
  5
1860C
  8
0
 10
4475.4120433247298934
 20
414.3264448852215196
 30
0.0
 11
4475.3177165374354445
 21
414.2233292410414833
 31
0.0
  0
ARC
  5
1860D
  8
0
 10
4475.4409268359659109
 20
414.2995464272548816
 30
0.0
 40
0.0394687757890292
 50
90.428762712787119
 51
137.038063601330208
  0
ARC
  5
1860E
  8
0
 10
4475.3487365727878569
 20
414.1956989286924795
 30
0.0
 40
0.041541265674176
 50
138.3077554264816911
 51
176.4303894984292924
  0
LINE
  5
1860F
  8
0
 10
4475.304666724830895
 20
414.0562580322214785
 30
0.0
 11
4475.3007823848147382
 21
413.1406183478214871
 31
0.0
  0
ARC
  5
18610
  8
0
 10
4478.1424984105278781
 20
414.0751619800818162
 30
0.0
 40
2.837894648431436
 50
177.5134159276443881
 51
180.3816647807412892
  0
ARC
  5
18611
  8
0
 10
4475.3006537646579091
 20
413.3261045624013832
 30
0.0
 40
0.1373882107755748
 50
309.8073919384482906
 51
319.9092491533742759
  0
ARC
  5
18612
  8
0
 10
4477.7257322743007535
 20
410.1567709786447153
 30
0.0
 40
3.853434399305804
 50
127.3371088136898948
 51
128.8038694322893889
  0
ARC
  5
18613
  8
0
 10
4477.8068108405996099
 20
410.1355745313363172
 30
0.0
 40
3.8949567642647609
 50
128.0167480683919905
 51
129.6723566130498
  0
ARC
  5
18614
  8
0
 10
4475.3348849654621517
 20
413.1142987952811154
 30
0.0
 40
0.0241639572641576
 50
127.1747309102249943
 51
178.9760961854254049
  0
ARC
  5
18615
  8
0
 10
4500.8213616502453078
 20
413.7474155128571169
 30
0.0
 40
25.5184811326417993
 50
181.4206915487199865
 51
184.2495905879702036
  0
ARC
  5
18616
  8
0
 10
4480.1682795094911853
 20
490.268180722838224
 30
0.0
 40
82.1881404014623342
 50
267.5427927202118212
 51
269.757216318657072
  0
ARC
  5
18617
  8
0
 10
4479.8968168684186821
 20
411.1652397855207823
 30
0.0
 40
4.4657206227958328
 50
181.8206307692020118
 51
187.4505594001329882
  0
ARC
  5
18618
  8
0
 10
4475.900155090896078
 20
408.6022301390567009
 30
0.0
 40
0.3539184644564028
 50
186.4734359639828938
 51
258.0593481096402115
  0
ARC
  5
18619
  8
0
 10
4476.7473350398167895
 20
412.3737914260062212
 30
0.0
 40
4.2194314889905238
 50
257.4004918748257182
 51
268.6049548665005773
  0
LINE
  5
1861A
  8
0
 10
4476.7180206053308211
 20
408.1042158096215076
 30
0.0
 11
4476.3240555248303281
 21
408.1042289528214724
 31
0.0
  0
ARC
  5
1861B
  8
0
 10
4476.3240600353701666
 20
408.2223401118372976
 30
0.0
 40
0.1181111591018823
 50
196.5973331907181034
 51
269.9978119350479915
  0
ARC
  5
1861C
  8
0
 10
4476.7180137864615972
 20
408.2223327187405175
 30
0.0
 40
0.1181169093158822
 50
270.003307675073188
 51
321.4149322445629195
  0
LINE
  5
1861D
  8
0
 10
4475.847206822654698
 20
408.2514897287800864
 30
0.0
 11
4475.8710750798090885
 21
408.0252315644215173
 31
0.0
  0
ARC
  5
1861E
  8
0
 10
4476.2390377242472823
 20
407.722668742305018
 30
0.0
 40
0.3039951005242444
 50
95.564020527355197
 51
185.9298826523518926
  0
LINE
  5
1861F
  8
0
 10
4475.9366692801304453
 20
407.6912626100215107
 30
0.0
 11
4477.4768818266302333
 21
392.7432783821215025
 31
0.0
  0
ARC
  5
18620
  8
0
 10
4477.5552942499416531
 20
392.7511221941937833
 30
0.0
 40
0.0788037658842307
 50
185.7124522442672117
 51
268.7297483358523209
  0
LINE
  5
18621
  8
0
 10
4477.4826835504973133
 20
392.7204999825901837
 30
0.0
 11
4477.48662246593085
 21
392.6798054410214718
 31
0.0
  0
ARC
  5
18622
  8
0
 10
4477.4945308636652044
 20
392.6802591725419234
 30
0.0
 40
0.0079214030966887
 50
183.2836528355242081
 51
269.8572766484218164
  0
ARC
  5
18623
  8
0
 10
4479.1807786201652561
 20
408.096041161807193
 30
0.0
 40
0.0708096169960506
 50
269.9573582677580248
 51
351.1621368382179185
  0
ARC
  5
18624
  8
0
 10
4478.2447647345643418
 20
408.0962261650112737
 30
0.0
 40
0.0710172061689637
 50
180.1216744986608944
 51
268.5543099961818143
  0
LINE
  5
18625
  8
0
 10
4478.1737476885309661
 20
408.0960753515213923
 30
0.0
 11
4478.1737476953776422
 21
408.1042454136468223
 31
0.0
  0
ARC
  5
18626
  8
0
 10
4479.9219798689809977
 20
485.8304656324855841
 30
0.0
 40
75.6931200763243623
 50
267.6109665789765018
 51
269.8635394228130053
  0
ARC
  5
18627
  8
0
 10
4476.0081264523787468
 20
410.7179416330708932
 30
0.0
 40
0.4192193715100502
 50
186.7786466478723071
 51
257.1084588931013855
  0
ARC
  5
18628
  8
0
 10
4501.4633181447943571
 20
413.912881793246072
 30
0.0
 40
26.0347807651612406
 50
181.5396644968072053
 51
184.3068673073341017
  0
ARC
  5
18629
  8
0
 10
4447.6953917553082647
 20
409.9161027077255994
 30
0.0
 40
27.8815128169925508
 50
2.4998646594644631
 51
4.1992190318056428
  0
ARC
  5
1862A
  8
0
 10
4480.2941086947594158
 20
411.3226511773752918
 30
0.0
 40
4.747559382924428
 50
182.2989333849191951
 51
187.9202930707205894
  0
ARC
  5
1862B
  8
0
 10
4631.84150884009523
 20
412.8909006744590897
 30
0.0
 40
156.4069905614537959
 50
179.4695123755415125
 51
179.8665256290186107
  0
ARC
  5
1862C
  8
0
 10
4475.4445415303143818
 20
413.2064104003324019
 30
0.0
 40
0.0497846741111243
 50
101.1166628991230994
 51
141.1691764210372924
  0
ARC
  5
1862D
  8
0
 10
4476.9887721523246
 20
415.458903993773788
 30
0.0
 40
5.2604551614925699
 50
258.2174261006526876
 51
267.5811303088540853
  0
ARC
  5
1862E
  8
0
 10
4475.4368061355544341
 20
413.1635895179007889
 30
0.0
 40
0.0497770950399755
 50
88.6983491537745152
 51
125.4455684939276949
  0
ARC
  5
1862F
  8
0
 10
4429.9258582548873164
 20
408.6887129990996073
 30
0.0
 40
45.5574448938747807
 50
2.1485227353902721
 51
3.987167798191575
  0
ARC
  5
18630
  8
0
 10
4527.075414378295136
 20
412.2129159431191852
 30
0.0
 40
51.656078078437659
 50
182.0149640468613086
 51
184.0525290061125077
  0
LINE
  5
18632
  8
0
 10
4491.5407998442833559
 20
408.0220912443214161
 30
0.0
 11
4491.5369355951315811
 21
407.9795255278468176
 31
0.0
  0
LINE
  5
18633
  8
0
 10
4491.6574084107469389
 20
408.0252315644215173
 30
0.0
 11
4491.6567768674040053
 21
408.0224830089136958
 31
0.0
  0
LINE
  5
18634
  8
0
 10
4491.5116752090616501
 20
408.0252315644215173
 30
0.0
 11
4491.5113854410546992
 21
408.0220912443214161
 31
0.0
  0
LINE
  5
18635
  8
0
 10
4491.597490573964933
 20
408.0220912443214161
 30
0.0
 11
4491.5113854410546992
 21
408.0220912443214161
 31
0.0
  0
LINE
  5
18636
  8
0
 10
4491.597490573964933
 20
408.0220912443214161
 30
0.0
 11
4491.6567768674040053
 21
408.0224830089136958
 31
0.0
  0
LINE
  5
18637
  8
0
 10
4491.597490573964933
 20
408.0220912443214161
 30
0.0
 11
4491.5981310020879391
 21
408.0252315644215173
 31
0.0
  0
LINE
  5
18638
  8
0
 10
4476.0725770988610748
 20
408.0220912443214161
 30
0.0
 11
4476.0764413427823456
 21
407.9795255854627953
 31
0.0
  0
LINE
  5
18639
  8
0
 10
4475.9559685323956728
 20
408.0252315644215173
 30
0.0
 11
4475.9566000757422444
 21
408.0224830089136958
 31
0.0
  0
LINE
  5
1863A
  8
0
 10
4476.1017017340827806
 20
408.0252315644215173
 30
0.0
 11
4476.1019915020897315
 21
408.0220912443214161
 31
0.0
  0
LINE
  5
1863B
  8
0
 10
4476.0158863691813167
 20
408.0220912443214161
 30
0.0
 11
4476.1019915020897315
 21
408.0220912443214161
 31
0.0
  0
LINE
  5
1863C
  8
0
 10
4476.0158863691813167
 20
408.0220912443214161
 30
0.0
 11
4475.9566000757422444
 21
408.0224830089136958
 31
0.0
  0
LINE
  5
1863D
  8
0
 10
4476.0158863691813167
 20
408.0220912443214161
 30
0.0
 11
4476.0152459410555821
 21
408.0252315644215173
 31
0.0
  0
ENDSEC
  0
EOF
