  0
SECTION
  2
HEADER
  9
$ACADVER
  1
AC1009
  9
$INSBASE
 10
4317.8349086867392543
 20
426.9301510980246803
 30
0.0
  9
$EXTMIN
 10
4301.3864358884729882
 20
419.0665049879517028
 30
-0.0000000349181948
  9
$EXTMAX
 10
4334.4521444924566822
 20
428.8321286121769731
 30
0.0000000814935746
  9
$LIMMIN
 10
0.0
 20
0.0
  9
$LIMMAX
 10
11.6929133858000007
 20
8.2677165353999982
  9
$ORTHOMODE
 70
     0
  9
$REGENMODE
 70
     1
  9
$FILLMODE
 70
     1
  9
$QTEXTMODE
 70
     0
  9
$MIRRTEXT
 70
     0
  9
$DRAGMODE
 70
     2
  9
$LTSCALE
 40
0.6431102362
  9
$OSMODE
 70
     3
  9
$ATTMODE
 70
     1
  9
$TEXTSIZE
 40
0.2
  9
$TRACEWID
 40
0.05
  9
$TEXTSTYLE
  7
STANDARD
  9
$CLAYER
  8
0
  9
$CELTYPE
  6
BYLAYER
  9
$CECOLOR
 62
   256
  9
$DIMSCALE
 40
1.0
  9
$DIMASZ
 40
0.1875
  9
$DIMEXO
 40
0.0625
  9
$DIMDLI
 40
0.4443307087
  9
$DIMRND
 40
0.0
  9
$DIMDLE
 40
0.0
  9
$DIMEXE
 40
0.125
  9
$DIMTP
 40
0.01
  9
$DIMTM
 40
0.01
  9
$DIMTXT
 40
2.0
  9
$DIMCEN
 40
0.1052362205
  9
$DIMTSZ
 40
0.0
  9
$DIMTOL
 70
     1
  9
$DIMLIM
 70
     0
  9
$DIMTIH
 70
     1
  9
$DIMTOH
 70
     1
  9
$DIMSE1
 70
     0
  9
$DIMSE2
 70
     0
  9
$DIMTAD
 70
     0
  9
$DIMZIN
 70
     0
  9
$DIMBLK
  1

  9
$DIMASO
 70
     1
  9
$DIMSHO
 70
     1
  9
$DIMPOST
  1
\X
  9
$DIMAPOST
  1

  9
$DIMALT
 70
     1
  9
$DIMALTD
 70
     2
  9
$DIMALTF
 40
25.3999999999999986
  9
$DIMLFAC
 40
1.0
  9
$DIMTOFL
 70
     0
  9
$DIMTVP
 40
0.0
  9
$DIMTIX
 70
     0
  9
$DIMSOXD
 70
     0
  9
$DIMSAH
 70
     0
  9
$DIMBLK1
  1

  9
$DIMBLK2
  1

  9
$DIMSTYLE
  2
STANDARD
  9
$DIMCLRD
 70
     0
  9
$DIMCLRE
 70
     0
  9
$DIMCLRT
 70
     0
  9
$DIMTFAC
 40
1.0
  9
$DIMGAP
 40
0.09
  9
$LUNITS
 70
     2
  9
$LUPREC
 70
     4
  9
$SKETCHINC
 40
0.1
  9
$FILLETRAD
 40
0.0
  9
$AUNITS
 70
     0
  9
$AUPREC
 70
     0
  9
$MENU
  1
.
  9
$ELEVATION
 40
0.0
  9
$PELEVATION
 40
0.0
  9
$THICKNESS
 40
0.0
  9
$LIMCHECK
 70
     0
  9
$BLIPMODE
 70
     0
  9
$CHAMFERA
 40
0.0
  9
$CHAMFERB
 40
0.0
  9
$SKPOLY
 70
     0
  9
$TDCREATE
 40
2458060.468368056230247
  9
$TDUPDATE
 40
2459179.5018865740858018
  9
$TDINDWG
 40
1.1540695602
  9
$TDUSRTIMER
 40
1.1540695602
  9
$USRTIMER
 70
     1
  9
$ANGBASE
 50
0.0
  9
$ANGDIR
 70
     0
  9
$PDMODE
 70
     0
  9
$PDSIZE
 40
0.3125
  9
$PLINEWID
 40
0.0
  9
$COORDS
 70
     1
  9
$SPLFRAME
 70
     0
  9
$SPLINETYPE
 70
     6
  9
$SPLINESEGS
 70
     8
  9
$ATTDIA
 70
     1
  9
$ATTREQ
 70
     1
  9
$HANDLING
 70
     1
  9
$HANDSEED
  5
17459
  9
$SURFTAB1
 70
     6
  9
$SURFTAB2
 70
     6
  9
$SURFTYPE
 70
     6
  9
$SURFU
 70
     6
  9
$SURFV
 70
     6
  9
$UCSNAME
  2

  9
$UCSORG
 10
0.0
 20
0.0
 30
0.0
  9
$UCSXDIR
 10
1.0
 20
0.0
 30
0.0
  9
$UCSYDIR
 10
0.0
 20
1.0
 30
0.0
  9
$PUCSNAME
  2

  9
$PUCSORG
 10
0.0
 20
0.0
 30
0.0
  9
$PUCSXDIR
 10
1.0
 20
0.0
 30
0.0
  9
$PUCSYDIR
 10
0.0
 20
1.0
 30
0.0
  9
$USERI1
 70
     0
  9
$USERI2
 70
     0
  9
$USERI3
 70
     0
  9
$USERI4
 70
     0
  9
$USERI5
 70
     0
  9
$USERR1
 40
0.0
  9
$USERR2
 40
0.0
  9
$USERR3
 40
0.0
  9
$USERR4
 40
0.0
  9
$USERR5
 40
0.0
  9
$WORLDVIEW
 70
     1
  9
$SHADEDGE
 70
     3
  9
$SHADEDIF
 70
    70
  9
$TILEMODE
 70
     1
  9
$MAXACTVP
 70
    64
  9
$PLIMCHECK
 70
     0
  9
$PEXTMIN
 10
1.0000000000000000E+20
 20
1.0000000000000000E+20
 30
1.0000000000000000E+20
  9
$PEXTMAX
 10
-1.0000000000000000E+20
 20
-1.0000000000000000E+20
 30
-1.0000000000000000E+20
  9
$PLIMMIN
 10
0.0
 20
0.0
  9
$PLIMMAX
 10
12.0
 20
9.0
  9
$UNITMODE
 70
     0
  9
$VISRETAIN
 70
     1
  9
$PLINEGEN
 70
     0
  9
$PSLTSCALE
 70
     1
  0
ENDSEC
  0
SECTION
  2
TABLES
  0
TABLE
  2
VPORT
 70
     1
  0
VPORT
  2
*ACTIVE
 70
     0
 10
0.0
 20
0.0
 11
1.0
 21
1.0
 12
406.5539337451527899
 22
291.3697116975253039
 13
0.0
 23
0.0
 14
1.0
 24
1.0
 15
0.0
 25
0.0
 16
0.0
 26
0.0
 36
60.4960186965801583
 17
3911.3653564453120453
 27
132.5796051025390057
 37
0.0
 40
14.3055684037263298
 41
2.318681318681318
 42
50.0
 43
0.0
 44
0.0
 50
0.0
 51
0.0
 71
     0
 72
   100
 73
     1
 74
     1
 75
     0
 76
     0
 77
     0
 78
     0
  0
ENDTAB
  0
TABLE
  2
LTYPE
 70
     3
  0
LTYPE
  2
CONTINUOUS
 70
     0
  3
Solid line
 72
    65
 73
     0
 40
0.0
  0
LTYPE
  2
PHANTOM2
 70
     0
  3
___ _ _ ___ _ _ ___ _ _ ___ _ _
 72
    65
 73
     6
 40
1.25
 49
0.625
 49
-0.125
 49
0.125
 49
-0.125
 49
0.125
 49
-0.125
  0
ENDTAB
  0
TABLE
  2
LAYER
 70
     2
  0
LAYER
  2
0
 70
     0
 62
   255
  6
CONTINUOUS
  0
LAYER
  2
DEFPOINTS
 70
     0
 62
     7
  6
CONTINUOUS
  0
ENDTAB
  0
TABLE
  2
STYLE
 70
     1
  0
STYLE
  2
STANDARD
 70
     0
 40
0.0
 41
0.8
 50
0.0
 71
     0
 42
0.2
  3
txt
  4

  0
ENDTAB
  0
TABLE
  2
VIEW
 70
     0
  0
ENDTAB
  0
TABLE
  2
UCS
 70
     0
  0
ENDTAB
  0
TABLE
  2
APPID
 70
    11
  0
APPID
  2
ACAD
 70
     0
  0
APPID
  2
ACAD_MLEADERVER
 70
     0
  0
APPID
  2
ACAD_EXEMPT_FROM_CAD_STANDARDS
 70
     0
  0
APPID
  2
ACAD_NAV_VCDISPLAY
 70
     0
  0
APPID
  2
ACAECLAYERSTANDARD
 70
     0
  0
APPID
  2
ACCMTRANSPARENCY
 70
     0
  0
APPID
  2
ACAD_DSTYLE_DIMJAG
 70
     0
  0
APPID
  2
ACAD_DSTYLE_DIMTALN
 70
     0
  0
APPID
  2
ACDBATTR
 70
     0
  0
APPID
  2
ACADANNOTATIVE
 70
     0
  0
APPID
  2
DCO15
 70
     0
  0
ENDTAB
  0
TABLE
  2
DIMSTYLE
 70
     2
  0
DIMSTYLE
  2
STANDARD
 70
     0
  3

  4

  5

  6

  7

 40
1.0
 41
0.1875
 42
0.0625
 43
0.38
 44
0.125
 45
0.0
 46
0.0
 47
0.01
 48
0.01
140
0.15625
141
0.09
142
0.0
143
25.3999999999999986
144
1.0
145
0.0
146
1.0
147
0.09
 71
     1
 72
     0
 73
     1
 74
     1
 75
     0
 76
     0
 77
     0
 78
     4
170
     0
171
     2
172
     0
173
     0
174
     0
175
     0
176
     0
177
     0
178
     0
  0
ENDTAB
  0
ENDSEC
  0
SECTION
  2
BLOCKS
  0
BLOCK
  8
0
  2
$MODEL_SPACE
 70
     0
 10
0.0
 20
0.0
 30
0.0
  3
$MODEL_SPACE
  1

  0
ENDBLK
  5
21
  8
0
  0
BLOCK
 67
     1
  8
0
  2
$PAPER_SPACE
 70
     0
 10
0.0
 20
0.0
 30
0.0
  3
$PAPER_SPACE
  1

  0
ENDBLK
  5
1D
 67
     1
  8
0
  0
ENDSEC
  0
SECTION
  2
ENTITIES
  0
ATTDEF
  5
159BF
  8
0
 10
4317.8353722854963053
 20
426.9340427242950113
 30
0.0
 40
0.001
  1
K-80230T-2KD 
  3

  2
MODELNUMBER
 70
     0
1001
ACDBATTR
1070
     0
1070
     1
  0
ATTDEF
  5
159C0
  8
0
 10
4317.8352464758390852
 20
426.9323758839158245
 30
0.0
 40
0.001
  1
ALEO
  3

  2
TRADENAME
 70
     0
1001
ACDBATTR
1070
     0
1070
     1
  0
ATTDEF
  5
159C1
  8
0
 10
4317.8353722854963053
 20
426.9307093909616242
 30
0.0
 40
0.001
  1
KITCHEN SINK
  3

  2
PRODUCT
 70
     0
1001
ACDBATTR
1070
     0
1070
     1
  0
LINE
  5
17331
  8
0
 10
4301.496326009589211
 20
427.0482613343248204
 30
0.0
 11
4301.496326009589211
 21
426.9301510980246803
 31
0.0
  0
LINE
  5
17332
  8
0
 10
4334.1734913638892976
 20
426.9301510980246803
 30
0.0
 11
4334.1734913638892976
 21
427.0482613343248204
 31
0.0
  0
LINE
  5
17333
  8
0
 10
4301.6144362457889656
 20
427.1663715705248023
 30
0.0
 11
4334.0553811276877241
 21
427.1663715705248023
 31
0.0
  0
LINE
  5
17334
  8
0
 10
4334.1734913638892976
 20
426.9301510980246803
 30
0.0
 11
4301.496326009589211
 21
426.9301510980246803
 31
0.0
  0
LINE
  5
17335
  8
0
 10
4319.7865476856886744
 20
419.0758203894246776
 30
0.0
 11
4315.8832696877880153
 21
419.0758203894246776
 31
0.0
  0
LINE
  5
17336
  8
0
 10
4331.8034125635886085
 20
428.3120409564746751
 30
0.0
 11
4331.8034125635886085
 21
427.642904931133387
 31
0.0
  0
LINE
  5
17337
  8
0
 10
4331.5829403118877963
 20
428.3120409564746751
 30
0.0
 11
4331.5829403118877963
 21
427.6429975131147216
 31
0.0
  0
LINE
  5
17338
  8
0
 10
4305.0396330961875719
 20
426.9301510980246803
 30
0.0
 11
4305.0396330961875719
 21
426.5758203894247913
 31
0.0
  0
LINE
  5
17339
  8
0
 10
4305.2364834898880872
 20
426.3789699957246739
 30
0.0
 11
4306.4175858520884503
 21
426.3789699957246739
 31
0.0
  0
LINE
  5
1733A
  8
0
 10
4306.6144362457889656
 20
426.5758203894247913
 30
0.0
 11
4306.6144362457889656
 21
426.9301510980246803
 31
0.0
  0
LINE
  5
1733B
  8
0
 10
4305.6892393953876308
 20
426.8907810193247769
 30
0.0
 11
4305.9648299465889068
 21
426.8907810193247769
 31
0.0
  0
LINE
  5
1733C
  8
0
 10
4305.6892393953876308
 20
426.5364503106247867
 30
0.0
 11
4305.9648299465889068
 21
426.5364503106247867
 31
0.0
  0
ARC
  5
1733D
  8
0
 10
4305.689239395437653
 20
426.7136156649747818
 30
0.0
 40
0.1771653543499969
 50
90.0000000161541465
 51
269.9999999838457825
  0
ARC
  5
1733E
  8
0
 10
4305.964829946537975
 20
426.7136156649747818
 30
0.0
 40
0.1771653543499987
 50
270.0000000161542175
 51
89.9999999838458393
  0
ARC
  5
1733F
  8
0
 10
4305.2364834898880872
 20
426.5758203894247913
 30
0.0
 40
0.1968503936999974
 50
180.0
 51
270.0
  0
ARC
  5
17340
  8
0
 10
4306.4175858520884503
 20
426.5758203894247913
 30
0.0
 40
0.1968503936999983
 50
270.0
 51
0.0
  0
LINE
  5
17341
  8
0
 10
4313.1104992378886891
 20
426.9301510980246803
 30
0.0
 11
4313.1104992378886891
 21
426.5758203894247913
 31
0.0
  0
LINE
  5
17342
  8
0
 10
4313.3073496315892044
 20
426.3789699957246739
 30
0.0
 11
4314.4884519937877485
 21
426.3789699957246739
 31
0.0
  0
LINE
  5
17343
  8
0
 10
4314.6853023874891733
 20
426.5758203894247913
 30
0.0
 11
4314.6853023874891733
 21
426.9301510980246803
 31
0.0
  0
LINE
  5
17344
  8
0
 10
4313.7601055370878385
 20
426.8907810193247769
 30
0.0
 11
4314.0356960882882049
 21
426.8907810193247769
 31
0.0
  0
LINE
  5
17345
  8
0
 10
4313.7601055370878385
 20
426.5364503106247867
 30
0.0
 11
4314.0356960882882049
 21
426.5364503106247867
 31
0.0
  0
ARC
  5
17346
  8
0
 10
4313.7601055371387702
 20
426.7136156649747818
 30
0.0
 40
0.1771653543499969
 50
90.0000000161541465
 51
269.9999999838457825
  0
ARC
  5
17347
  8
0
 10
4314.0356960882390922
 20
426.7136156649747818
 30
0.0
 40
0.1771653543499987
 50
270.0000000161542175
 51
89.9999999838458393
  0
ARC
  5
17348
  8
0
 10
4313.3073496315892044
 20
426.5758203894247913
 30
0.0
 40
0.1968503936999974
 50
180.0
 51
270.0
  0
ARC
  5
17349
  8
0
 10
4314.4884519937877485
 20
426.5758203894247913
 30
0.0
 40
0.1968503936999983
 50
270.0
 51
0.0
  0
LINE
  5
1734A
  8
0
 10
4320.9845149859902449
 20
426.9301510980246803
 30
0.0
 11
4320.9845149859902449
 21
426.5758203894247913
 31
0.0
  0
LINE
  5
1734B
  8
0
 10
4321.1813653796889412
 20
426.3789699957246739
 30
0.0
 11
4322.3624677418893043
 21
426.3789699957246739
 31
0.0
  0
LINE
  5
1734C
  8
0
 10
4322.5593181355889101
 20
426.5758203894247913
 30
0.0
 11
4322.5593181355889101
 21
426.9301510980246803
 31
0.0
  0
LINE
  5
1734D
  8
0
 10
4321.6341212851875753
 20
426.8907810193247769
 30
0.0
 11
4321.9097118363888512
 21
426.8907810193247769
 31
0.0
  0
LINE
  5
1734E
  8
0
 10
4321.6341212851875753
 20
426.5364503106247867
 30
0.0
 11
4321.9097118363888512
 21
426.5364503106247867
 31
0.0
  0
ARC
  5
1734F
  8
0
 10
4321.6341212852375975
 20
426.7136156649747818
 30
0.0
 40
0.1771653543499969
 50
90.0000000161541465
 51
269.9999999838457825
  0
ARC
  5
17350
  8
0
 10
4321.9097118363379195
 20
426.7136156649747818
 30
0.0
 40
0.1771653543499987
 50
270.0000000161542175
 51
89.9999999838458393
  0
ARC
  5
17351
  8
0
 10
4321.1813653796889412
 20
426.5758203894247913
 30
0.0
 40
0.1968503936999974
 50
180.0
 51
270.0
  0
ARC
  5
17352
  8
0
 10
4322.3624677418893043
 20
426.5758203894247913
 30
0.0
 40
0.1968503936999983
 50
270.0
 51
0.0
  0
LINE
  5
17353
  8
0
 10
4329.0553811276877241
 20
426.9301510980246803
 30
0.0
 11
4329.0553811276877241
 21
426.5758203894247913
 31
0.0
  0
LINE
  5
17354
  8
0
 10
4329.2522315213891488
 20
426.3789699957246739
 30
0.0
 11
4330.4333338835886025
 21
426.3789699957246739
 31
0.0
  0
LINE
  5
17355
  8
0
 10
4330.6301842772882082
 20
426.5758203894247913
 30
0.0
 11
4330.6301842772882082
 21
426.9301510980246803
 31
0.0
  0
LINE
  5
17356
  8
0
 10
4329.7049874268886924
 20
426.8907810193247769
 30
0.0
 11
4329.9805779780890589
 21
426.8907810193247769
 31
0.0
  0
LINE
  5
17357
  8
0
 10
4329.7049874268886924
 20
426.5364503106247867
 30
0.0
 11
4329.9805779780890589
 21
426.5364503106247867
 31
0.0
  0
ARC
  5
17358
  8
0
 10
4329.7049874269378051
 20
426.7136156649747818
 30
0.0
 40
0.1771653543499969
 50
90.0000000161541465
 51
269.9999999838457825
  0
ARC
  5
17359
  8
0
 10
4329.9805779780390367
 20
426.7136156649747818
 30
0.0
 40
0.1771653543499987
 50
270.0000000161542175
 51
89.9999999838458393
  0
ARC
  5
1735A
  8
0
 10
4329.2522315213891488
 20
426.5758203894247913
 30
0.0
 40
0.1968503936999974
 50
180.0
 51
270.0
  0
ARC
  5
1735B
  8
0
 10
4330.4333338835886025
 20
426.5758203894247913
 30
0.0
 40
0.1968503936999983
 50
270.0
 51
0.0
  0
ARC
  5
1735C
  8
0
 10
4301.6144362457889656
 20
427.0482613343248204
 30
0.0
 40
0.1181102361999979
 50
90.0
 51
180.0000000000032117
  0
ARC
  5
1735D
  8
0
 10
4334.0553811276877241
 20
427.0482613343248204
 30
0.0
 40
0.1181102361999997
 50
0.0
 51
90.0
  0
LINE
  5
1735E
  8
0
 10
4302.256683266688924
 20
426.9301510980246803
 30
0.0
 11
4302.5674913222892428
 21
420.999580104124675
 31
0.0
  0
LINE
  5
1735F
  8
0
 10
4303.933407908188201
 20
419.6572976769248271
 30
0.0
 11
4315.4606869423887474
 21
419.2547562229248115
 31
0.0
  0
LINE
  5
17360
  8
0
 10
4315.5163852528876305
 20
419.2288280549248043
 30
0.0
 11
4315.5822072941891747
 21
419.1559174861246788
 31
0.0
  0
LINE
  5
17361
  8
0
 10
4315.676654256089023
 20
419.1055730115248252
 30
0.0
 11
4315.8832696877880153
 21
419.0758203894246776
 31
0.0
  0
ARC
  5
17362
  8
0
 10
4315.4579389506252483
 20
419.1760640321472238
 30
0.0
 40
0.0787401571506552
 50
42.0750219965560674
 51
88.000000065486617
  0
ARC
  5
17363
  8
0
 10
4315.6990998994060647
 20
419.2614455327700966
 30
0.0
 40
0.157480315542313
 50
222.075022123315506
 51
261.8057365724156966
  0
ARC
  5
17364
  8
0
 10
4303.9830951001449648
 20
421.0739843876116879
 30
0.0
 40
1.4175577777578141
 50
183.0087036574066133
 51
267.9912990487868001
  0
LINE
  5
17365
  8
0
 10
4301.9687669544891833
 20
426.9301510980246803
 30
0.0
 11
4301.9687669544891833
 21
426.3789699957246739
 31
0.0
  0
LINE
  5
17366
  8
0
 10
4301.9687669544891833
 20
426.3789699957246739
 30
0.0
 11
4302.000263017488578
 21
426.3789699957246739
 31
0.0
  0
LINE
  5
17367
  8
0
 10
4302.000263017488578
 20
426.3789699957246739
 30
0.0
 11
4302.000263017488578
 21
426.9301510980246803
 31
0.0
  0
LINE
  5
17368
  8
0
 10
4333.4131341067877656
 20
426.9301510980246803
 30
0.0
 11
4333.1023260511883564
 21
420.999580104124675
 31
0.0
  0
LINE
  5
17369
  8
0
 10
4331.7364094652875792
 20
419.6572976769248271
 30
0.0
 11
4320.2091304310888518
 21
419.2547562229248115
 31
0.0
  0
LINE
  5
1736A
  8
0
 10
4320.1534321205890592
 20
419.2288280549248043
 30
0.0
 11
4320.0876100792902434
 21
419.1559174861246788
 31
0.0
  0
LINE
  5
1736B
  8
0
 10
4319.9931631173885762
 20
419.1055730115248252
 30
0.0
 11
4319.7865476856886744
 21
419.0758203894246776
 31
0.0
  0
ARC
  5
1736C
  8
0
 10
4320.2118784228541699
 20
419.1760640321472238
 30
0.0
 40
0.0787401571506552
 50
91.9999999345133972
 51
137.924978003443897
  0
ARC
  5
1736D
  8
0
 10
4319.970717474070625
 20
419.2614455327700966
 30
0.0
 40
0.157480315542313
 50
278.1942634275844171
 51
317.9249778766820782
  0
ARC
  5
1736E
  8
0
 10
4331.6867222733326344
 20
421.0739843876116879
 30
0.0
 40
1.4175577777578141
 50
272.0087009512131999
 51
356.9912963425935004
  0
LINE
  5
1736F
  8
0
 10
4333.7010504189893254
 20
426.9301510980246803
 30
0.0
 11
4333.7010504189893254
 21
426.3789699957246739
 31
0.0
  0
LINE
  5
17370
  8
0
 10
4333.7010504189893254
 20
426.3789699957246739
 30
0.0
 11
4333.6695543559890211
 21
426.3789699957246739
 31
0.0
  0
LINE
  5
17371
  8
0
 10
4333.6695543559890211
 20
426.3789699957246739
 30
0.0
 11
4333.6695543559890211
 21
426.9301510980246803
 31
0.0
  0
LINE
  5
17372
  8
0
 10
4315.4606869423887474
 20
419.2547562229248115
 30
0.0
 11
4320.2091304311888962
 21
419.2547562229248115
 31
0.0
  0
LINE
  5
17373
  8
0
 10
4331.128191380888893
 20
428.6348997489246813
 30
0.0
 11
4331.1191489951879703
 21
427.1663715705248023
 31
0.0
  0
LINE
  5
17374
  8
0
 10
4331.1321372445891029
 20
428.638812515324787
 30
0.0
 11
4332.2542155619876212
 21
428.638812515324787
 31
0.0
  0
LINE
  5
17375
  8
0
 10
4331.1403703744890663
 20
428.6781825941247916
 30
0.0
 11
4331.1400608548892706
 21
428.6427151668248143
 31
0.0
  0
LINE
  5
17376
  8
0
 10
4331.1293943491891696
 20
428.6781825941247916
 30
0.0
 11
4332.2569531892886516
 21
428.6781825941247916
 31
0.0
  0
LINE
  5
17377
  8
0
 10
4331.1222245396893413
 20
428.7667850403248053
 30
0.0
 11
4331.1215206329889043
 21
428.6861253227248199
 31
0.0
  0
LINE
  5
17378
  8
0
 10
4331.131984150887547
 20
428.7783135586248022
 30
0.0
 11
4331.227990060789125
 21
428.7952419909248079
 31
0.0
  0
ARC
  5
17379
  8
0
 10
4331.1340351135850142
 20
428.7666819709831998
 30
0.0
 40
0.0118110236239673
 50
99.9999998398334355
 51
179.4999998801665981
  0
ARC
  5
1737A
  8
0
 10
4331.1293943490727543
 20
428.6860566100251049
 30
0.0
 40
0.0078740159003186
 50
179.5000013068193141
 51
270.000000847833121
  0
ARC
  5
1737B
  8
0
 10
4331.1321283311781372
 20
428.6348755004507893
 30
0.0
 40
0.003937024963964
 50
89.8702824417233046
 51
179.647108155061801
  0
ARC
  5
1737C
  8
0
 10
4331.1361239970929091
 20
428.6427495230431077
 30
0.0
 40
0.0039370077031165
 50
270.0
 51
359.5000031887631167
  0
ARC
  5
1737D
  8
0
 10
4331.2621727684090729
 20
428.6013822289428958
 30
0.0
 40
0.1968503614828673
 50
92.6241341117777779
 51
100.0000003179664958
  0
LINE
  5
1737E
  8
0
 10
4332.2581614945893307
 20
428.6348997489246813
 30
0.0
 11
4332.2672038802893439
 21
427.1663715705248023
 31
0.0
  0
LINE
  5
1737F
  8
0
 10
4332.2459825009891574
 20
428.6781825941247916
 30
0.0
 11
4332.2462920205889532
 21
428.6427151668248143
 31
0.0
  0
LINE
  5
17380
  8
0
 10
4332.2641283357888824
 20
428.7667850403248053
 30
0.0
 11
4332.2648322424893195
 21
428.6861253227248199
 31
0.0
  0
LINE
  5
17381
  8
0
 10
4332.2543687245888577
 20
428.7783135586248022
 30
0.0
 11
4332.1583628146890987
 21
428.7952419909248079
 31
0.0
  0
ARC
  5
17382
  8
0
 10
4332.2523177618923
 20
428.7666819709831998
 30
0.0
 40
0.0118110236239673
 50
0.5000001198334143
 51
80.0000001601665787
  0
ARC
  5
17383
  8
0
 10
4332.2569585233422913
 20
428.6860566112703737
 30
0.0
 40
0.0078740189523448
 50
269.9611864311842169
 51
0.4999894374072129
  0
ARC
  5
17384
  8
0
 10
4332.2542245440317856
 20
428.6348755003381825
 30
0.0
 40
0.0039370252325412
 50
0.3528934595414785
 51
90.1307163593996847
  0
ARC
  5
17385
  8
0
 10
4332.2502288783844051
 20
428.6427495230431077
 30
0.0
 40
0.0039370077031165
 50
180.4999968112367981
 51
270.0
  0
ARC
  5
17386
  8
0
 10
4332.124180215178967
 20
428.6013829832755846
 30
0.0
 40
0.1968495998370356
 50
79.9999925449276361
 51
87.3759073031952056
  0
ARC
  5
17387
  8
0
 10
4331.6931764032879073
 20
419.197361457824627
 30
0.0
 40
9.6107427975002295
 50
87.3758650109129036
 51
92.6241349890870822
  0
ARC
  5
17388
  8
0
 10
4331.6931764377377476
 20
428.3120409564746751
 30
0.0
 40
0.1102361258499975
 50
0.0
 51
180.0
  0
ARC
  5
17389
  8
0
 10
4331.6931764377377476
 20
428.3120409564746751
 30
0.0
 40
0.1139952193500004
 50
345.2450890266470083
 51
194.7549109733562034
  0
ARC
  5
1738A
  8
0
 10
4331.6382769909487251
 20
427.6431904074560748
 30
0.0
 40
0.0553370152569909
 50
180.1997226265283985
 51
211.13362236130979
  0
ARC
  5
1738B
  8
0
 10
4331.6931750556468614
 20
427.7352438530174936
 30
0.0
 40
0.1653983320350976
 50
246.8513490706291975
 51
293.1486509293707741
  0
ARC
  5
1738C
  8
0
 10
4331.7480960931397931
 20
427.643192333026775
 30
0.0
 40
0.0553172170546686
 50
328.8575660437579131
 51
359.7023170998945716
  0
ARC
  5
1738D
  8
0
 10
4331.7255516702089153
 20
427.6596408409533865
 30
0.0
 40
0.0831544518539043
 50
293.1148861204205218
 51
327.1907226445040919
  0
ARC
  5
1738E
  8
0
 10
4331.6608494358661119
 20
427.659704672731209
 30
0.0
 40
0.08323318138411
 50
212.8306180570731954
 51
246.870078310420098
  0
ARC
  5
1738F
  8
0
 10
4331.6536767162206161
 20
427.6398147250833972
 30
0.0
 40
0.039244588026041
 50
132.8992242481967878
 51
227.1007757518009953
  0
ARC
  5
17390
  8
0
 10
4331.6931764965629554
 20
427.5961131517263993
 30
0.0
 40
0.0981495640618442
 50
47.5750813591325894
 51
132.4249186408652008
  0
ARC
  5
17391
  8
0
 10
4331.7326762759839767
 20
427.6398147255584945
 30
0.0
 40
0.0392445883060968
 50
312.8992257073692258
 51
47.1007742926286568
  0
ARC
  5
17392
  8
0
 10
4331.693176495959051
 20
427.6953218141777029
 30
0.0
 40
0.1071603138894078
 50
231.8373000335066081
 51
308.1627007888025105
  0
ENDSEC
  0
EOF
