  0
SECTION
  2
HEADER
  9
$ACADVER
  1
AC1009
  9
$INSBASE
 10
4354.5649301494959218
 20
454.9380656385478119
 30
0.0
  9
$EXTMIN
 10
4338.0893780393207635
 20
445.6818050375042048
 30
-0.0000000349181948
  9
$EXTMAX
 10
4371.1550866433080955
 20
464.2229276208046826
 30
0.0000000814935746
  9
$LIMMIN
 10
0.0
 20
0.0
  9
$LIMMAX
 10
11.6929133858000007
 20
8.2677165353999982
  9
$ORTHOMODE
 70
     0
  9
$REGENMODE
 70
     1
  9
$FILLMODE
 70
     1
  9
$QTEXTMODE
 70
     0
  9
$MIRRTEXT
 70
     0
  9
$DRAGMODE
 70
     2
  9
$LTSCALE
 40
0.6431102362
  9
$OSMODE
 70
     3
  9
$ATTMODE
 70
     1
  9
$TEXTSIZE
 40
0.2
  9
$TRACEWID
 40
0.05
  9
$TEXTSTYLE
  7
STANDARD
  9
$CLAYER
  8
0
  9
$CELTYPE
  6
BYLAYER
  9
$CECOLOR
 62
   256
  9
$DIMSCALE
 40
1.0
  9
$DIMASZ
 40
0.1875
  9
$DIMEXO
 40
0.0625
  9
$DIMDLI
 40
0.4443307087
  9
$DIMRND
 40
0.0
  9
$DIMDLE
 40
0.0
  9
$DIMEXE
 40
0.125
  9
$DIMTP
 40
0.01
  9
$DIMTM
 40
0.01
  9
$DIMTXT
 40
2.0
  9
$DIMCEN
 40
0.1052362205
  9
$DIMTSZ
 40
0.0
  9
$DIMTOL
 70
     1
  9
$DIMLIM
 70
     0
  9
$DIMTIH
 70
     1
  9
$DIMTOH
 70
     1
  9
$DIMSE1
 70
     0
  9
$DIMSE2
 70
     0
  9
$DIMTAD
 70
     0
  9
$DIMZIN
 70
     0
  9
$DIMBLK
  1

  9
$DIMASO
 70
     1
  9
$DIMSHO
 70
     1
  9
$DIMPOST
  1
\X
  9
$DIMAPOST
  1

  9
$DIMALT
 70
     1
  9
$DIMALTD
 70
     2
  9
$DIMALTF
 40
25.3999999999999986
  9
$DIMLFAC
 40
1.0
  9
$DIMTOFL
 70
     0
  9
$DIMTVP
 40
0.0
  9
$DIMTIX
 70
     0
  9
$DIMSOXD
 70
     0
  9
$DIMSAH
 70
     0
  9
$DIMBLK1
  1

  9
$DIMBLK2
  1

  9
$DIMSTYLE
  2
STANDARD
  9
$DIMCLRD
 70
     0
  9
$DIMCLRE
 70
     0
  9
$DIMCLRT
 70
     0
  9
$DIMTFAC
 40
1.0
  9
$DIMGAP
 40
0.09
  9
$LUNITS
 70
     2
  9
$LUPREC
 70
     4
  9
$SKETCHINC
 40
0.1
  9
$FILLETRAD
 40
0.0
  9
$AUNITS
 70
     0
  9
$AUPREC
 70
     0
  9
$MENU
  1
.
  9
$ELEVATION
 40
0.0
  9
$PELEVATION
 40
0.0
  9
$THICKNESS
 40
0.0
  9
$LIMCHECK
 70
     0
  9
$BLIPMODE
 70
     0
  9
$CHAMFERA
 40
0.0
  9
$CHAMFERB
 40
0.0
  9
$SKPOLY
 70
     0
  9
$TDCREATE
 40
2458060.468368056230247
  9
$TDUPDATE
 40
2459179.5016898149624467
  9
$TDINDWG
 40
1.1543820601999999
  9
$TDUSRTIMER
 40
1.1543820601999999
  9
$USRTIMER
 70
     1
  9
$ANGBASE
 50
0.0
  9
$ANGDIR
 70
     0
  9
$PDMODE
 70
     0
  9
$PDSIZE
 40
0.3125
  9
$PLINEWID
 40
0.0
  9
$COORDS
 70
     1
  9
$SPLFRAME
 70
     0
  9
$SPLINETYPE
 70
     6
  9
$SPLINESEGS
 70
     8
  9
$ATTDIA
 70
     1
  9
$ATTREQ
 70
     1
  9
$HANDLING
 70
     1
  9
$HANDSEED
  5
17511
  9
$SURFTAB1
 70
     6
  9
$SURFTAB2
 70
     6
  9
$SURFTYPE
 70
     6
  9
$SURFU
 70
     6
  9
$SURFV
 70
     6
  9
$UCSNAME
  2

  9
$UCSORG
 10
0.0
 20
0.0
 30
0.0
  9
$UCSXDIR
 10
1.0
 20
0.0
 30
0.0
  9
$UCSYDIR
 10
0.0
 20
1.0
 30
0.0
  9
$PUCSNAME
  2

  9
$PUCSORG
 10
0.0
 20
0.0
 30
0.0
  9
$PUCSXDIR
 10
1.0
 20
0.0
 30
0.0
  9
$PUCSYDIR
 10
0.0
 20
1.0
 30
0.0
  9
$USERI1
 70
     0
  9
$USERI2
 70
     0
  9
$USERI3
 70
     0
  9
$USERI4
 70
     0
  9
$USERI5
 70
     0
  9
$USERR1
 40
0.0
  9
$USERR2
 40
0.0
  9
$USERR3
 40
0.0
  9
$USERR4
 40
0.0
  9
$USERR5
 40
0.0
  9
$WORLDVIEW
 70
     1
  9
$SHADEDGE
 70
     3
  9
$SHADEDIF
 70
    70
  9
$TILEMODE
 70
     1
  9
$MAXACTVP
 70
    64
  9
$PLIMCHECK
 70
     0
  9
$PEXTMIN
 10
1.0000000000000000E+20
 20
1.0000000000000000E+20
 30
1.0000000000000000E+20
  9
$PEXTMAX
 10
-1.0000000000000000E+20
 20
-1.0000000000000000E+20
 30
-1.0000000000000000E+20
  9
$PLIMMIN
 10
0.0
 20
0.0
  9
$PLIMMAX
 10
12.0
 20
9.0
  9
$UNITMODE
 70
     0
  9
$VISRETAIN
 70
     1
  9
$PLINEGEN
 70
     0
  9
$PSLTSCALE
 70
     1
  0
ENDSEC
  0
SECTION
  2
TABLES
  0
TABLE
  2
VPORT
 70
     1
  0
VPORT
  2
*ACTIVE
 70
     0
 10
0.0
 20
0.0
 11
1.0
 21
1.0
 12
443.2568758960023274
 22
322.3727612266155234
 13
0.0
 23
0.0
 14
1.0
 24
1.0
 15
0.0
 25
0.0
 16
0.0
 26
0.0
 36
60.4960186965801583
 17
3911.3653564453120453
 27
132.5796051025390057
 37
0.0
 40
18.6767893339099409
 41
2.318681318681318
 42
50.0
 43
0.0
 44
0.0
 50
0.0
 51
0.0
 71
     0
 72
   100
 73
     1
 74
     1
 75
     0
 76
     0
 77
     0
 78
     0
  0
ENDTAB
  0
TABLE
  2
LTYPE
 70
     2
  0
LTYPE
  2
CONTINUOUS
 70
     0
  3
Solid line
 72
    65
 73
     0
 40
0.0
  0
LTYPE
  2
PHANTOM2
 70
     0
  3
___ _ _ ___ _ _ ___ _ _ ___ _ _
 72
    65
 73
     6
 40
1.25
 49
0.625
 49
-0.125
 49
0.125
 49
-0.125
 49
0.125
 49
-0.125
  0
ENDTAB
  0
TABLE
  2
LAYER
 70
     2
  0
LAYER
  2
0
 70
     0
 62
   255
  6
CONTINUOUS
  0
LAYER
  2
DEFPOINTS
 70
     0
 62
     7
  6
CONTINUOUS
  0
ENDTAB
  0
TABLE
  2
STYLE
 70
     1
  0
STYLE
  2
STANDARD
 70
     0
 40
0.0
 41
0.8
 50
0.0
 71
     0
 42
0.2
  3
txt
  4

  0
ENDTAB
  0
TABLE
  2
VIEW
 70
     0
  0
ENDTAB
  0
TABLE
  2
UCS
 70
     0
  0
ENDTAB
  0
TABLE
  2
APPID
 70
    11
  0
APPID
  2
ACAD
 70
     0
  0
APPID
  2
ACAD_MLEADERVER
 70
     0
  0
APPID
  2
ACAD_EXEMPT_FROM_CAD_STANDARDS
 70
     0
  0
APPID
  2
ACAD_NAV_VCDISPLAY
 70
     0
  0
APPID
  2
ACAECLAYERSTANDARD
 70
     0
  0
APPID
  2
ACCMTRANSPARENCY
 70
     0
  0
APPID
  2
ACAD_DSTYLE_DIMJAG
 70
     0
  0
APPID
  2
ACAD_DSTYLE_DIMTALN
 70
     0
  0
APPID
  2
ACDBATTR
 70
     0
  0
APPID
  2
ACADANNOTATIVE
 70
     0
  0
APPID
  2
DCO15
 70
     0
  0
ENDTAB
  0
TABLE
  2
DIMSTYLE
 70
     1
  0
DIMSTYLE
  2
STANDARD
 70
     0
  3

  4

  5

  6

  7

 40
1.0
 41
0.1875
 42
0.0625
 43
0.38
 44
0.125
 45
0.0
 46
0.0
 47
0.01
 48
0.01
140
0.15625
141
0.09
142
0.0
143
25.3999999999999986
144
1.0
145
0.0
146
1.0
147
0.09
 71
     1
 72
     0
 73
     1
 74
     1
 75
     0
 76
     0
 77
     0
 78
     4
170
     0
171
     2
172
     0
173
     0
174
     0
175
     0
176
     0
177
     0
178
     0
  0
ENDTAB
  0
ENDSEC
  0
SECTION
  2
BLOCKS
  0
BLOCK
  8
0
  2
$MODEL_SPACE
 70
     0
 10
0.0
 20
0.0
 30
0.0
  3
$MODEL_SPACE
  1

  0
ENDBLK
  5
21
  8
0
  0
BLOCK
 67
     1
  8
0
  2
$PAPER_SPACE
 70
     0
 10
0.0
 20
0.0
 30
0.0
  3
$PAPER_SPACE
  1

  0
ENDBLK
  5
1D
 67
     1
  8
0
  0
ENDSEC
  0
SECTION
  2
ENTITIES
  0
ATTDEF
  5
159BF
  8
0
 10
4354.5651977718562193
 20
454.9425286687866219
 30
0.0
 40
0.001
  1
K-80230T-2KD 
  3

  2
MODELNUMBER
 70
     0
1001
ACDBATTR
1070
     0
1070
     1
  0
ATTDEF
  5
159C0
  8
0
 10
4354.5650719621999087
 20
454.9408618284074919
 30
0.0
 40
0.001
  1
ALEO
  3

  2
TRADENAME
 70
     0
1001
ACDBATTR
1070
     0
1070
     1
  0
ATTDEF
  5
159C1
  8
0
 10
4354.5651977718562193
 20
454.9391953354532916
 30
0.0
 40
0.001
  1
KITCHEN SINK
  3

  2
PRODUCT
 70
     0
1001
ACDBATTR
1070
     0
1070
     1
  0
LINE
  5
17440
  8
0
 10
4338.620048259746909
 20
445.6860971346478095
 30
0.0
 11
4370.5098120392467536
 21
445.6860971346478095
 31
0.0
  0
LINE
  5
17441
  8
0
 10
4338.2263474723458785
 20
463.7963333550479206
 30
0.0
 11
4338.2263474723458785
 21
446.0797979220478737
 31
0.0
  0
LINE
  5
17442
  8
0
 10
4370.9035128266468746
 20
446.0797979220478737
 30
0.0
 11
4370.9035128266468746
 21
463.7963333550478069
 31
0.0
  0
LINE
  5
17443
  8
0
 10
4338.620048259746909
 20
464.1900341424478142
 30
0.0
 11
4370.5098120392467536
 21
464.1900341424478142
 31
0.0
  0
LINE
  5
17444
  8
0
 10
4368.5334340263470949
 20
461.1487922814858962
 30
0.0
 11
4368.5334340263470949
 21
457.9396717072639262
 31
0.0
  0
LINE
  5
17445
  8
0
 10
4368.3129617746471922
 20
461.1487922679453959
 30
0.0
 11
4368.3129617746471922
 21
457.939679348855293
 31
0.0
  0
CIRCLE
  5
17446
  8
0
 10
4354.564930149545944
 20
455.5286168196478229
 30
0.0
 40
1.9488188975999989
  0
CIRCLE
  5
17447
  8
0
 10
4354.564930149545944
 20
455.5286168196478229
 30
0.0
 40
2.2893002825999988
  0
CIRCLE
  5
17448
  8
0
 10
4357.2814655825468435
 20
461.9065695755477918
 30
0.0
 40
0.6889763779999996
  0
CIRCLE
  5
17449
  8
0
 10
4359.8798907791460806
 20
460.9616877012479108
 30
0.0
 40
0.1757516144999993
  0
CIRCLE
  5
1744A
  8
0
 10
4360.9035128263467413
 20
460.9734987248477864
 30
0.0
 40
0.1757516144999993
  0
CIRCLE
  5
1744B
  8
0
 10
4361.9271348736474465
 20
460.9734987248477864
 30
0.0
 40
0.1757516144999993
  0
CIRCLE
  5
1744C
  8
0
 10
4362.9507569208462883
 20
460.9734987076478205
 30
0.0
 40
0.1757516144999993
  0
CIRCLE
  5
1744D
  8
0
 10
4363.9743789681469934
 20
460.9734987076478205
 30
0.0
 40
0.1757516144999993
  0
CIRCLE
  5
1744E
  8
0
 10
4364.9980010153458352
 20
460.9734987248477864
 30
0.0
 40
0.1757516144999993
  0
CIRCLE
  5
1744F
  8
0
 10
4366.0216230626456309
 20
460.9734987076478205
 30
0.0
 40
0.1757516144999993
  0
CIRCLE
  5
17450
  8
0
 10
4359.8798907791460806
 20
461.9065696081477768
 30
0.0
 40
0.1757516144999993
  0
CIRCLE
  5
17451
  8
0
 10
4360.9035128263467413
 20
461.9183806317478798
 30
0.0
 40
0.1757516144999993
  0
CIRCLE
  5
17452
  8
0
 10
4361.9271348736474465
 20
461.9183806317478798
 30
0.0
 40
0.1757516144999993
  0
CIRCLE
  5
17453
  8
0
 10
4362.9507569208462883
 20
461.9183806145478002
 30
0.0
 40
0.1757516144999993
  0
CIRCLE
  5
17454
  8
0
 10
4363.9743789681469934
 20
461.9183806145478002
 30
0.0
 40
0.1757516144999993
  0
CIRCLE
  5
17455
  8
0
 10
4364.9980010153458352
 20
461.9183806317478798
 30
0.0
 40
0.1757516144999993
  0
CIRCLE
  5
17456
  8
0
 10
4366.0216230626456309
 20
461.9183806145478002
 30
0.0
 40
0.1757516144999993
  0
CIRCLE
  5
17457
  8
0
 10
4359.8798907676464296
 20
462.8514513987478836
 30
0.0
 40
0.1757516144999993
  0
CIRCLE
  5
17458
  8
0
 10
4360.9035128148470903
 20
462.8632624223478729
 30
0.0
 40
0.1757516144999993
  0
CIRCLE
  5
17459
  8
0
 10
4361.9271348621459765
 20
462.8632624223478729
 30
0.0
 40
0.1757516144999993
  0
CIRCLE
  5
1745A
  8
0
 10
4362.9507569093466373
 20
462.863262405147907
 30
0.0
 40
0.1757516144999993
  0
CIRCLE
  5
1745B
  8
0
 10
4363.9743789566473424
 20
462.863262405147907
 30
0.0
 40
0.1757516144999993
  0
CIRCLE
  5
1745C
  8
0
 10
4364.9980010038461842
 20
462.8632624223478729
 30
0.0
 40
0.1757516144999993
  0
CIRCLE
  5
1745D
  8
0
 10
4366.0216230511468893
 20
462.863262405147907
 30
0.0
 40
0.1757516144999993
  0
LINE
  5
1745E
  8
0
 10
4341.3759537715468468
 20
463.3967666265479011
 30
0.0
 11
4367.7539065274459062
 21
463.3967666265479011
 31
0.0
  0
LINE
  5
1745F
  8
0
 10
4339.019614988246758
 20
461.0404278432479259
 30
0.0
 11
4339.019614988246758
 21
448.8357034338479252
 31
0.0
  0
LINE
  5
17460
  8
0
 10
4367.7539065274459062
 20
446.4793646505477795
 30
0.0
 11
4341.3759537715468468
 21
446.4793646505477795
 31
0.0
  0
LINE
  5
17461
  8
0
 10
4370.1102453107469046
 20
461.0404278432479259
 30
0.0
 11
4370.1102453107469046
 21
448.8357034338479252
 31
0.0
  0
ARC
  5
17462
  8
0
 10
4367.7539065274459062
 20
461.0404278432479259
 30
0.0
 40
2.356338783299996
 50
0.0
 51
90.0
  0
ARC
  5
17463
  8
0
 10
4341.3759537715468468
 20
461.0404278432479259
 30
0.0
 40
2.356338783299992
 50
90.0
 51
180.0
  0
ARC
  5
17464
  8
0
 10
4341.3759537715468468
 20
448.8357034338479252
 30
0.0
 40
2.3563387832999991
 50
180.0
 51
270.0
  0
ARC
  5
17465
  8
0
 10
4367.7539065274459062
 20
448.8357034338478115
 30
0.0
 40
2.356338783299996
 50
270.0
 51
0.0
  0
LINE
  5
17466
  8
0
 10
4341.3324025673464348
 20
461.7251846594479048
 30
0.0
 11
4353.1442704780456552
 21
461.7365825350478872
 31
0.0
  0
LINE
  5
17467
  8
0
 10
4340.6662733926459623
 20
461.0582051404477966
 30
0.0
 11
4340.6668078546463221
 21
448.814785333947782
 31
0.0
  0
LINE
  5
17468
  8
0
 10
4341.3339576895459686
 20
448.1468751472478971
 30
0.0
 11
4367.79590260394707
 21
448.14687519164778
 31
0.0
  0
LINE
  5
17469
  8
0
 10
4368.4630524197464183
 20
448.8147853334479009
 30
0.0
 11
4368.4647523427884153
 21
457.8499634675754919
 31
0.0
  0
LINE
  5
1746A
  8
0
 10
4357.3204934286468415
 20
458.8093285892479116
 30
0.0
 11
4367.8005905726467972
 21
458.801158658747795
 31
0.0
  0
ARC
  5
1746B
  8
0
 10
4353.1468796777498937
 20
460.7492753762011262
 30
0.0
 40
0.9873106065637202
 50
27.3222251325617904
 51
90.1514177037497149
  0
ARC
  5
1746C
  8
0
 10
-178073.3556010783067904
 20
-93571.7206800459971419
 30
0.0
 40
205236.3015552656142972
 50
27.2688456947668811
 51
27.2690231838057215
  0
ARC
  5
1746D
  8
0
 10
4357.2687037003288424
 20
462.1610674693582723
 30
0.0
 40
3.323275896910725
 50
207.2907144015761958
 51
215.5521290127256862
  0
ARC
  5
1746E
  8
0
 10
4357.3383043434323554
 20
462.2283139453176091
 30
0.0
 40
3.4190317479814332
 50
215.7907958715321968
 51
269.7015251868605787
  0
ARC
  5
1746F
  8
0
 10
4341.3331438560153401
 20
461.058314599101891
 30
0.0
 40
0.6668704723518171
 50
90.0636896108258185
 51
180.0094044033953935
  0
ARC
  5
17470
  8
0
 10
4341.3347284065612257
 20
448.8147952545689918
 30
0.0
 40
0.6679205519884992
 50
180.0008510139743123
 51
269.9338860859900819
  0
ARC
  5
17471
  8
0
 10
4367.795131905713788
 20
448.8147952611079745
 30
0.0
 40
0.6679205141058223
 50
270.0661123065651736
 51
359.9991483821594898
  0
ARC
  5
17472
  8
0
 10
4367.8008377884161746
 20
458.1383727108126891
 30
0.0
 40
0.6627859940402488
 50
39.399676333479988
 51
90.0213710317707836
  0
ARC
  5
17473
  8
0
 10
4353.3324459610375925
 20
460.9974227702861072
 30
0.0
 40
2.3580779477156408
 50
27.1677561527831593
 51
90.0128553239898821
  0
ARC
  5
17474
  8
0
 10
4357.4687927460672654
 20
462.4078902309443038
 30
0.0
 40
1.9657753991863409
 50
207.1805634168578081
 51
270.0005476679672256
  0
ARC
  5
17475
  8
0
 10
4367.7539027200828059
 20
458.1270346774018094
 30
0.0
 40
2.3150801544491881
 50
0.0076386955676248
 51
70.3229010263559502
  0
ARC
  5
17476
  8
0
 10
4367.7539027200828059
 20
458.1270346774018094
 30
0.0
 40
2.3150801544491881
 50
76.0257481000272861
 51
89.9999057717686668
  0
ARC
  5
17477
  8
0
 10
4314.9835504169059277
 20
459.4490098714945816
 30
0.0
 40
55.1012855497733369
 50
358.625564223008098
 51
359.8402725075231956
  0
LINE
  5
17478
  8
0
 10
4370.0846218524466167
 20
459.2954003238479004
 30
0.0
 11
4370.0846218524466167
 21
461.0404278432479259
 31
0.0
  0
LINE
  5
17479
  8
0
 10
4354.5116567513468908
 20
463.3711431682478974
 30
0.0
 11
4367.7539065274459062
 21
463.3711431682478974
 31
0.0
  0
ARC
  5
1747A
  8
0
 10
4367.7539065274459062
 20
461.0404278432479259
 30
0.0
 40
2.330715324999999
 50
0.0
 51
90.0
  0
ARC
  5
1747B
  8
0
 10
4354.6683689563269581
 20
407.0569660188318721
 30
0.0
 40
56.3143951999042471
 50
90.159443415879025
 51
91.3598699326330745
  0
ARC
  5
1747C
  8
0
 10
-2779.8137042602711517
 20
-3202.5048599378551444
 30
0.0
 40
8021.2746490443250877
 50
27.179978516247381
 51
27.1845087981041402
  0
LINE
  5
1747D
  8
0
 10
4357.4688115361459495
 20
460.442114831847789
 30
0.0
 11
4367.7539065274459062
 21
460.442114831847789
 31
0.0
  0
ARC
  5
1747E
  8
0
 10
4338.620048259746909
 20
446.0797979220478737
 30
0.0
 40
0.3937007874000056
 50
180.0
 51
270.0
  0
ARC
  5
1747F
  8
0
 10
4338.620048259746909
 20
463.7963333550479206
 30
0.0
 40
0.3937007873999949
 50
90.0
 51
180.0
  0
ARC
  5
17480
  8
0
 10
4370.5098120392467536
 20
463.7963333550478069
 30
0.0
 40
0.3937007874000144
 50
0.0000000000032569
 51
90.0
  0
ARC
  5
17481
  8
0
 10
4370.5098120392467536
 20
446.0797979220478737
 30
0.0
 40
0.3937007874000144
 50
270.0
 51
359.9999999999968168
  0
CIRCLE
  5
17482
  8
0
 10
4368.4231978660463938
 20
461.7097188821479108
 30
0.0
 40
0.5716560699999996
  0
ARC
  5
17483
  8
0
 10
4368.4231978660463938
 20
461.7097188821479108
 30
0.0
 40
0.8267716535000541
 50
277.6622514535964115
 51
262.3377533642268986
  0
ARC
  5
17484
  8
0
 10
4368.4231983596737336
 20
457.952923558120915
 30
0.0
 40
0.1110293373740931
 50
186.8508785615566978
 51
353.1451496829710095
  0
LINE
  5
17485
  8
0
 10
4346.5729163529458674
 20
463.3135861278478274
 30
0.0
 11
4348.1477195025463516
 21
463.3135861278478274
 31
0.0
  0
LINE
  5
17486
  8
0
 10
4348.3045186074468802
 20
463.3551719846478818
 30
0.0
 11
4348.3045186074468802
 21
463.3217923589477891
 31
0.0
  0
LINE
  5
17487
  8
0
 10
4346.5729163529458674
 20
463.3633242603478948
 30
0.0
 11
4348.1477195025463516
 21
463.3633242603478948
 31
0.0
  0
LINE
  5
17488
  8
0
 10
4346.4161172481453832
 20
463.3551719846478818
 30
0.0
 11
4346.4161172481453832
 21
463.3217923589477891
 31
0.0
  0
ARC
  5
17489
  8
0
 10
4346.5506017286152201
 20
462.2805227655874774
 30
0.0
 40
1.083031402829203
 50
88.8194024016463572
 51
97.1330652503581149
  0
ARC
  5
1748A
  8
0
 10
4346.5479743403238899
 20
464.3391197002979993
 30
0.0
 40
1.025836835084462
 50
262.6149912045098063
 51
271.393216588228313
  0
ARC
  5
1748B
  8
0
 10
4348.1726615150282669
 20
464.3391197045914964
 30
0.0
 40
1.0258368393732791
 50
268.6067834254286026
 51
277.3850087779921978
  0
ARC
  5
1748C
  8
0
 10
4348.1700311655386031
 20
462.2804658061983787
 30
0.0
 40
1.0830882891198119
 50
82.8671534590691152
 51
91.1803788927085321
  0
POINT
  5
1748E
  8
DEFPOINTS
 10
4357.2814655825468435
 20
461.9065695755477918
 30
0.0
  0
ENDSEC
  0
EOF
