  0
SECTION
  2
HEADER
  9
$ACADVER
  1
AC1009
  9
$INSBASE
 10
4347.6655242751839978
 20
499.7938446530985743
 30
0.0
  9
$EXTMIN
 10
4338.3132182415738498
 20
491.9233707177018005
 30
-0.0000000000000058
  9
$EXTMAX
 10
4357.1645162432705547
 20
501.6863372454884029
 30
0.0000000000000104
  9
$LIMMIN
 10
0.0
 20
0.0
  9
$LIMMAX
 10
11.6929133858000007
 20
8.2677165353999982
  9
$ORTHOMODE
 70
     0
  9
$REGENMODE
 70
     1
  9
$FILLMODE
 70
     1
  9
$QTEXTMODE
 70
     0
  9
$MIRRTEXT
 70
     0
  9
$DRAGMODE
 70
     2
  9
$LTSCALE
 40
0.6431102362
  9
$OSMODE
 70
     3
  9
$ATTMODE
 70
     1
  9
$TEXTSIZE
 40
0.2
  9
$TRACEWID
 40
0.05
  9
$TEXTSTYLE
  7
STANDARD
  9
$CLAYER
  8
0
  9
$CELTYPE
  6
BYLAYER
  9
$CECOLOR
 62
   256
  9
$DIMSCALE
 40
1.0
  9
$DIMASZ
 40
0.1875
  9
$DIMEXO
 40
0.0625
  9
$DIMDLI
 40
0.4443307087
  9
$DIMRND
 40
0.0
  9
$DIMDLE
 40
0.0
  9
$DIMEXE
 40
0.125
  9
$DIMTP
 40
0.01
  9
$DIMTM
 40
0.01
  9
$DIMTXT
 40
2.0
  9
$DIMCEN
 40
0.1052362205
  9
$DIMTSZ
 40
0.0
  9
$DIMTOL
 70
     1
  9
$DIMLIM
 70
     0
  9
$DIMTIH
 70
     1
  9
$DIMTOH
 70
     1
  9
$DIMSE1
 70
     0
  9
$DIMSE2
 70
     0
  9
$DIMTAD
 70
     0
  9
$DIMZIN
 70
     0
  9
$DIMBLK
  1

  9
$DIMASO
 70
     1
  9
$DIMSHO
 70
     1
  9
$DIMPOST
  1
\X
  9
$DIMAPOST
  1

  9
$DIMALT
 70
     1
  9
$DIMALTD
 70
     2
  9
$DIMALTF
 40
25.3999999999999986
  9
$DIMLFAC
 40
1.0
  9
$DIMTOFL
 70
     0
  9
$DIMTVP
 40
0.0
  9
$DIMTIX
 70
     0
  9
$DIMSOXD
 70
     0
  9
$DIMSAH
 70
     0
  9
$DIMBLK1
  1

  9
$DIMBLK2
  1

  9
$DIMSTYLE
  2
STANDARD
  9
$DIMCLRD
 70
     0
  9
$DIMCLRE
 70
     0
  9
$DIMCLRT
 70
     0
  9
$DIMTFAC
 40
1.0
  9
$DIMGAP
 40
0.09
  9
$LUNITS
 70
     2
  9
$LUPREC
 70
     4
  9
$SKETCHINC
 40
0.1
  9
$FILLETRAD
 40
0.0
  9
$AUNITS
 70
     0
  9
$AUPREC
 70
     0
  9
$MENU
  1
.
  9
$ELEVATION
 40
0.0
  9
$PELEVATION
 40
0.0
  9
$THICKNESS
 40
0.0
  9
$LIMCHECK
 70
     0
  9
$BLIPMODE
 70
     0
  9
$CHAMFERA
 40
0.0
  9
$CHAMFERB
 40
0.0
  9
$SKPOLY
 70
     0
  9
$TDCREATE
 40
2458060.468368056230247
  9
$TDUPDATE
 40
2459177.7577199079096317
  9
$TDINDWG
 40
1.1610487269
  9
$TDUSRTIMER
 40
1.1610487269
  9
$USRTIMER
 70
     1
  9
$ANGBASE
 50
0.0
  9
$ANGDIR
 70
     0
  9
$PDMODE
 70
     0
  9
$PDSIZE
 40
0.3125
  9
$PLINEWID
 40
0.0
  9
$COORDS
 70
     1
  9
$SPLFRAME
 70
     0
  9
$SPLINETYPE
 70
     6
  9
$SPLINESEGS
 70
     8
  9
$ATTDIA
 70
     1
  9
$ATTREQ
 70
     1
  9
$HANDLING
 70
     1
  9
$HANDSEED
  5
17863
  9
$SURFTAB1
 70
     6
  9
$SURFTAB2
 70
     6
  9
$SURFTYPE
 70
     6
  9
$SURFU
 70
     6
  9
$SURFV
 70
     6
  9
$UCSNAME
  2

  9
$UCSORG
 10
0.0
 20
0.0
 30
0.0
  9
$UCSXDIR
 10
1.0
 20
0.0
 30
0.0
  9
$UCSYDIR
 10
0.0
 20
1.0
 30
0.0
  9
$PUCSNAME
  2

  9
$PUCSORG
 10
0.0
 20
0.0
 30
0.0
  9
$PUCSXDIR
 10
1.0
 20
0.0
 30
0.0
  9
$PUCSYDIR
 10
0.0
 20
1.0
 30
0.0
  9
$USERI1
 70
     0
  9
$USERI2
 70
     0
  9
$USERI3
 70
     0
  9
$USERI4
 70
     0
  9
$USERI5
 70
     0
  9
$USERR1
 40
0.0
  9
$USERR2
 40
0.0
  9
$USERR3
 40
0.0
  9
$USERR4
 40
0.0
  9
$USERR5
 40
0.0
  9
$WORLDVIEW
 70
     1
  9
$SHADEDGE
 70
     3
  9
$SHADEDIF
 70
    70
  9
$TILEMODE
 70
     1
  9
$MAXACTVP
 70
    64
  9
$PLIMCHECK
 70
     0
  9
$PEXTMIN
 10
1.0000000000000000E+20
 20
1.0000000000000000E+20
 30
1.0000000000000000E+20
  9
$PEXTMAX
 10
-1.0000000000000000E+20
 20
-1.0000000000000000E+20
 30
-1.0000000000000000E+20
  9
$PLIMMIN
 10
0.0
 20
0.0
  9
$PLIMMAX
 10
12.0
 20
9.0
  9
$UNITMODE
 70
     0
  9
$VISRETAIN
 70
     1
  9
$PLINEGEN
 70
     0
  9
$PSLTSCALE
 70
     1
  0
ENDSEC
  0
SECTION
  2
TABLES
  0
TABLE
  2
VPORT
 70
     1
  0
VPORT
  2
*ACTIVE
 70
     0
 10
0.0
 20
0.0
 11
1.0
 21
1.0
 12
436.3735107971097023
 22
364.2252488790559823
 13
0.0
 23
0.0
 14
1.0
 24
1.0
 15
0.0
 25
0.0
 16
0.0
 26
0.0
 36
60.4960186965801583
 17
3911.3653564453120453
 27
132.5796051025390057
 37
0.0
 40
9.8218484141220852
 41
1.9267068273092369
 42
50.0
 43
0.0
 44
0.0
 50
0.0
 51
0.0
 71
     0
 72
   100
 73
     1
 74
     1
 75
     0
 76
     0
 77
     0
 78
     0
  0
ENDTAB
  0
TABLE
  2
LTYPE
 70
     2
  0
LTYPE
  2
CONTINUOUS
 70
     0
  3
Solid line
 72
    65
 73
     0
 40
0.0
  0
LTYPE
  2
PHANTOM2
 70
     0
  3
___ _ _ ___ _ _ ___ _ _ ___ _ _
 72
    65
 73
     6
 40
1.25
 49
0.625
 49
-0.125
 49
0.125
 49
-0.125
 49
0.125
 49
-0.125
  0
ENDTAB
  0
TABLE
  2
LAYER
 70
     2
  0
LAYER
  2
0
 70
     0
 62
   255
  6
CONTINUOUS
  0
LAYER
  2
DEFPOINTS
 70
     0
 62
     7
  6
CONTINUOUS
  0
ENDTAB
  0
TABLE
  2
STYLE
 70
     1
  0
STYLE
  2
STANDARD
 70
     0
 40
0.0
 41
0.8
 50
0.0
 71
     0
 42
0.2
  3
txt
  4

  0
ENDTAB
  0
TABLE
  2
VIEW
 70
     0
  0
ENDTAB
  0
TABLE
  2
UCS
 70
     0
  0
ENDTAB
  0
TABLE
  2
APPID
 70
    11
  0
APPID
  2
ACAD
 70
     0
  0
APPID
  2
ACAD_MLEADERVER
 70
     0
  0
APPID
  2
ACAD_EXEMPT_FROM_CAD_STANDARDS
 70
     0
  0
APPID
  2
ACAD_NAV_VCDISPLAY
 70
     0
  0
APPID
  2
ACAECLAYERSTANDARD
 70
     0
  0
APPID
  2
ACCMTRANSPARENCY
 70
     0
  0
APPID
  2
ACAD_DSTYLE_DIMJAG
 70
     0
  0
APPID
  2
ACAD_DSTYLE_DIMTALN
 70
     0
  0
APPID
  2
ACDBATTR
 70
     0
  0
APPID
  2
ACADANNOTATIVE
 70
     0
  0
APPID
  2
DCO15
 70
     0
  0
ENDTAB
  0
TABLE
  2
DIMSTYLE
 70
     1
  0
DIMSTYLE
  2
STANDARD
 70
     0
  3

  4

  5

  6

  7

 40
1.0
 41
0.1875
 42
0.0625
 43
0.38
 44
0.125
 45
0.0
 46
0.0
 47
0.01
 48
0.01
140
0.15625
141
0.09
142
0.0
143
25.3999999999999986
144
1.0
145
0.0
146
1.0
147
0.09
 71
     1
 72
     0
 73
     1
 74
     1
 75
     0
 76
     0
 77
     0
 78
     4
170
     0
171
     2
172
     0
173
     0
174
     0
175
     0
176
     0
177
     0
178
     0
  0
ENDTAB
  0
ENDSEC
  0
SECTION
  2
BLOCKS
  0
BLOCK
  8
0
  2
$MODEL_SPACE
 70
     0
 10
0.0
 20
0.0
 30
0.0
  3
$MODEL_SPACE
  1

  0
ENDBLK
  5
21
  8
0
  0
BLOCK
 67
     1
  8
0
  2
$PAPER_SPACE
 70
     0
 10
0.0
 20
0.0
 30
0.0
  3
$PAPER_SPACE
  1

  0
ENDBLK
  5
1D
 67
     1
  8
0
  0
ENDSEC
  0
SECTION
  2
ENTITIES
  0
ATTDEF
  5
159BF
  8
0
 10
4347.6658465724331109
 20
499.7977644061757019
 30
0.0
 40
0.001
  1
K-80231T-2KD
  3

  2
MODELNUMBER
 70
     0
1001
ACDBATTR
1070
     0
1070
     1
  0
ATTDEF
  5
159C0
  8
0
 10
4347.6657207627758908
 20
499.796097565796515
 30
0.0
 40
0.001
  1
ALEO
  3

  2
TRADENAME
 70
     0
1001
ACDBATTR
1070
     0
1070
     1
  0
ATTDEF
  5
159C1
  8
0
 10
4347.6658465724331109
 20
499.7944310728423147
 30
0.0
 40
0.001
  1
KITCHEN SINK
  3

  2
PRODUCT
 70
     0
1001
ACDBATTR
1070
     0
1070
     1
  0
LINE
  5
1777C
  8
0
 10
4350.2077128857854404
 20
491.9395139444985716
 30
0.0
 11
4346.3044356725840771
 21
491.9395139444985716
 31
0.0
  0
LINE
  5
1777D
  8
0
 10
4356.799382542884814
 20
500.0300651255986963
 30
0.0
 11
4338.5316660074840911
 21
500.0300651255986963
 31
0.0
  0
LINE
  5
1777E
  8
0
 10
4338.413555771285246
 20
499.7938446530985743
 30
0.0
 11
4356.9174927790845686
 21
499.7938446530985743
 31
0.0
  0
LINE
  5
1777F
  8
0
 10
4338.413555771285246
 20
499.9119548893987144
 30
0.0
 11
4338.413555771285246
 21
499.7938446530985743
 31
0.0
  0
LINE
  5
17780
  8
0
 10
4356.9174927790845686
 20
499.9119548893987144
 30
0.0
 11
4356.9174927790845686
 21
499.7938446530985743
 31
0.0
  0
LINE
  5
17781
  8
0
 10
4341.9174927790836591
 20
499.7938446530985743
 30
0.0
 11
4341.9174927790836591
 21
499.4395139444986853
 31
0.0
  0
LINE
  5
17782
  8
0
 10
4342.1143431727832649
 20
499.2426635507986248
 30
0.0
 11
4343.295445534983628
 21
499.2426635507986248
 31
0.0
  0
LINE
  5
17783
  8
0
 10
4343.4922959286841433
 20
499.7938446530985743
 30
0.0
 11
4343.4922959286841433
 21
499.4395139444986853
 31
0.0
  0
LINE
  5
17784
  8
0
 10
4342.567099078283718
 20
499.7544745743986141
 30
0.0
 11
4342.8426896294840844
 21
499.7544745743986141
 31
0.0
  0
LINE
  5
17785
  8
0
 10
4342.567099078283718
 20
499.4001438656986807
 30
0.0
 11
4342.8426896294840844
 21
499.4001438656986807
 31
0.0
  0
ARC
  5
17786
  8
0
 10
4342.5670990783337402
 20
499.5773092200486758
 30
0.0
 40
0.177165354350004
 50
90.0000000161541465
 51
269.9999999838457825
  0
ARC
  5
17787
  8
0
 10
4342.8426896294340622
 20
499.5773092200486758
 30
0.0
 40
0.1771653543500005
 50
270.0000000161542175
 51
89.9999999838458393
  0
ARC
  5
17788
  8
0
 10
4342.1143431727832649
 20
499.4395139444986853
 30
0.0
 40
0.196850393700005
 50
180.0
 51
270.0
  0
ARC
  5
17789
  8
0
 10
4343.295445534983628
 20
499.4395139444986853
 30
0.0
 40
0.1968503937000019
 50
270.0
 51
0.0
  0
LINE
  5
1778A
  8
0
 10
4351.8387526215838079
 20
499.7938446530985743
 30
0.0
 11
4351.8387526215838079
 21
499.4395139444986853
 31
0.0
  0
LINE
  5
1778B
  8
0
 10
4352.0356030152843232
 20
499.2426635507986248
 30
0.0
 11
4353.2167053774846863
 21
499.2426635507986248
 31
0.0
  0
LINE
  5
1778C
  8
0
 10
4353.4135557711842921
 20
499.7938446530985743
 30
0.0
 11
4353.4135557711842921
 21
499.4395139444986853
 31
0.0
  0
LINE
  5
1778D
  8
0
 10
4352.4883589207838668
 20
499.7544745743986141
 30
0.0
 11
4352.7639494719842332
 21
499.7544745743986141
 31
0.0
  0
LINE
  5
1778E
  8
0
 10
4352.4883589207838668
 20
499.4001438656986807
 30
0.0
 11
4352.7639494719842332
 21
499.4001438656986807
 31
0.0
  0
ARC
  5
1778F
  8
0
 10
4352.4883589208347985
 20
499.5773092200486758
 30
0.0
 40
0.177165354350004
 50
90.0000000161541465
 51
269.9999999838457825
  0
ARC
  5
17790
  8
0
 10
4352.763949471934211
 20
499.5773092200486758
 30
0.0
 40
0.1771653543500005
 50
270.0000000161542175
 51
89.9999999838458393
  0
ARC
  5
17791
  8
0
 10
4352.0356030152843232
 20
499.4395139444986853
 30
0.0
 40
0.196850393700005
 50
180.0
 51
270.0
  0
ARC
  5
17792
  8
0
 10
4353.2167053774846863
 20
499.4395139444986853
 30
0.0
 40
0.1968503937000019
 50
270.0
 51
0.0
  0
ARC
  5
17793
  8
0
 10
4353.8435419824836572
 20
493.3017186688986726
 30
0.0
 40
7.984251968499982
 50
90.0
 51
114.173360979813495
  0
ARC
  5
17794
  8
0
 10
4353.8435419824836572
 20
493.3017186688986158
 30
0.0
 40
7.7637795276000272
 50
90.0
 51
113.2660189204950001
  0
ARC
  5
17795
  8
0
 10
4351.2156423853848537
 20
501.2833303481988878
 30
0.0
 40
0.9587401575002736
 50
227.8242190081018919
 51
242.3066544539186964
  0
ARC
  5
17796
  8
0
 10
4350.5772307033512334
 20
500.5786524595592937
 30
0.0
 40
0.0078771823574465
 50
114.2172113209933002
 51
227.7776158103584123
  0
ARC
  5
17797
  8
0
 10
4350.773737957778394
 20
500.4414337734061746
 30
0.0
 40
0.0079145620134379
 50
242.4577254537761917
 51
293.1027595098976235
  0
ARC
  5
17798
  8
0
 10
4353.3137224022566443
 20
501.1791548021133167
 30
0.0
 40
0.5680503405567601
 50
348.0697695802822977
 51
11.2246477860858
  0
LINE
  5
17799
  8
0
 10
4353.8435419824836572
 20
501.2859706373985773
 30
0.0
 11
4353.8716395706060212
 21
501.2859706373985773
 31
0.0
  0
LINE
  5
1779A
  8
0
 10
4353.8435419824836572
 20
501.0654981964987087
 30
0.0
 11
4353.8702862938116596
 21
501.0654981963987211
 31
0.0
  0
LINE
  5
1779B
  8
0
 10
4345.9375512376836923
 20
492.0925216099986983
 30
0.0
 11
4346.0033732789852365
 21
492.0196110412986172
 31
0.0
  0
LINE
  5
1779C
  8
0
 10
4346.0978202408841753
 20
491.9692665666985931
 30
0.0
 11
4346.3044356725840771
 21
491.9395139444985716
 31
0.0
  0
ARC
  5
1779D
  8
0
 10
4345.8791048306529774
 20
492.0397574453475045
 30
0.0
 40
0.0787403299847653
 50
42.0750475405950723
 51
87.9993568387167642
  0
ARC
  5
1779E
  8
0
 10
4346.1202658835054535
 20
492.1251390866353859
 30
0.0
 40
0.1574803141475897
 50
222.0750219399963896
 51
261.8057367557353246
  0
LINE
  5
1779F
  8
0
 10
4350.5745973206840063
 20
492.0925216099986983
 30
0.0
 11
4350.508775279384281
 21
492.0196110412986172
 31
0.0
  0
LINE
  5
177A0
  8
0
 10
4350.4143283174844328
 20
491.9692665666985931
 30
0.0
 11
4350.2077128857854404
 21
491.9395139444985716
 31
0.0
  0
ARC
  5
177A1
  8
0
 10
4350.6330434135188625
 20
492.0397578708326023
 30
0.0
 40
0.0787398116479828
 50
91.998713469320009
 51
137.9250290673550978
  0
ARC
  5
177A2
  8
0
 10
4350.3918826748631545
 20
492.1251390866353859
 30
0.0
 40
0.1574803141475897
 50
278.1942632442646754
 51
317.9249780600036956
  0
LINE
  5
177A3
  8
0
 10
4339.1739130282840051
 20
499.7938446530985743
 30
0.0
 11
4339.4969698382838033
 21
493.6298131478985738
 31
0.0
  0
LINE
  5
177A4
  8
0
 10
4353.2088895918841445
 20
499.1286742559987033
 30
0.0
 11
4352.9153437339846278
 21
493.5274856176985736
 31
0.0
  0
LINE
  5
177A5
  8
0
 10
4340.8625480418841107
 20
492.2937277943987056
 30
0.0
 11
4345.881853711884105
 21
492.1184497779987055
 31
0.0
  0
LINE
  5
177A6
  8
0
 10
4350.6302972006842538
 20
492.1184497779987055
 30
0.0
 11
4354.3814458081842531
 21
492.2515444273986986
 31
0.0
  0
LINE
  5
177A7
  8
0
 10
4356.1571355220839905
 20
499.7938446530985743
 30
0.0
 11
4355.8324534293851684
 21
493.598541263098582
 31
0.0
  0
LINE
  5
177A8
  8
0
 10
4356.1320823930836923
 20
499.278846070398572
 30
0.0
 11
4356.1701183528839465
 21
499.2761863369985917
 31
0.0
  0
LINE
  5
177A9
  8
0
 10
4356.2066881584842122
 20
499.2348516910985836
 30
0.0
 11
4356.1590653799830761
 21
498.3261549441987199
 31
0.0
  0
LINE
  5
177AA
  8
0
 10
4356.1590653799830761
 20
498.3261549441987199
 30
0.0
 11
4356.0822944667843331
 21
498.3288358435987107
 31
0.0
  0
LINE
  5
177AB
  8
0
 10
4356.1836831315840755
 20
498.7958896286987169
 30
0.0
 11
4356.145053169185303
 21
498.7979141392987117
 31
0.0
  0
LINE
  5
177AC
  8
0
 10
4356.145053169185303
 20
498.7979141392987117
 30
0.0
 11
4356.1399019923837841
 21
498.6996238306987266
 31
0.0
  0
LINE
  5
177AD
  8
0
 10
4356.1399019923837841
 20
498.6996238306987266
 30
0.0
 11
4356.1785319547843756
 21
498.6975993201987194
 31
0.0
  0
LINE
  5
177AE
  8
0
 10
4356.1818536647842848
 20
498.7169151391987043
 30
0.0
 11
4356.2562706335847906
 21
498.7839204787986205
 31
0.0
  0
LINE
  5
177AF
  8
0
 10
4356.2562706335847906
 20
498.7839204787986205
 30
0.0
 11
4356.2678385561839605
 21
499.0046495920987013
 31
0.0
  0
LINE
  5
177B0
  8
0
 10
4356.2678385561839605
 20
499.0046495920987013
 30
0.0
 11
4356.2008332165842148
 21
499.0790665608986956
 31
0.0
  0
LINE
  5
177B1
  8
0
 10
4356.1701183528839465
 20
499.2761863369985917
 30
0.0
 11
4356.1557676168840771
 21
499.0023579809986245
 31
0.0
  0
LINE
  5
177B2
  8
0
 10
4356.1557676168840771
 20
499.0023579809986245
 30
0.0
 11
4356.1943975793838035
 21
499.0003334704986742
 31
0.0
  0
ARC
  5
177B3
  8
0
 10
4356.2066847504702309
 20
499.0843353057821901
 30
0.0
 40
0.0078740155876583
 50
176.9999998227553988
 51
222.0000005769726101
  0
ARC
  5
177B4
  8
0
 10
4356.187122410055963
 20
498.7110636050044263
 30
0.0
 40
0.0078740160757522
 50
132.0000011757103948
 51
176.9999994414438902
  0
ARC
  5
177B5
  8
0
 10
4356.0822257670861291
 20
498.3268685387508867
 30
0.0
 40
0.0019685040037718
 50
88.0000029238574371
 51
176.9999987825543997
  0
ARC
  5
177B6
  8
0
 10
4356.1673720350127041
 20
499.2369121617408041
 30
0.0
 40
0.0393700787912404
 50
357.0000001147147941
 51
85.9999999953674745
  0
ARC
  5
177B7
  8
0
 10
4356.1322197091212729
 20
499.2808097792465105
 30
0.0
 40
0.0019685040343243
 50
177.0000015813733114
 51
265.9999960019184755
  0
LINE
  5
177B8
  8
0
 10
4356.4135557712843365
 20
499.7938446530985743
 30
0.0
 11
4356.4135557712843365
 21
499.2426635507986248
 31
0.0
  0
LINE
  5
177B9
  8
0
 10
4356.4135557712843365
 20
499.2426635507986248
 30
0.0
 11
4356.4450518341836869
 21
499.2426635507986248
 31
0.0
  0
LINE
  5
177BA
  8
0
 10
4356.4450518341836869
 20
499.2426635507986248
 30
0.0
 11
4356.4450518341836869
 21
499.7938446530985743
 31
0.0
  0
ARC
  5
177BB
  8
0
 10
4356.799382542884814
 20
499.9119548893987144
 30
0.0
 40
0.1181102361999962
 50
359.9999999999968168
 51
90.0
  0
LINE
  5
177BC
  8
0
 10
4355.9020211877841575
 20
499.2032934719986201
 30
0.0
 11
4352.0228589608841503
 21
499.2032934719986201
 31
0.0
  0
ARC
  5
177BD
  8
0
 10
4353.2875218388189751
 20
499.1245533145126956
 30
0.0
 40
0.0787401575860026
 50
90.0000000249607837
 51
176.9999999679255041
  0
ARC
  5
177BE
  8
0
 10
4355.9020211876058966
 20
499.4395139445807104
 30
0.0
 40
0.2362204725820813
 50
270.0000000431994067
 51
357.0000000121776793
  0
ARC
  5
177BF
  8
0
 10
4352.2459091565351628
 20
487.6370846766761815
 30
0.0
 40
11.5683593169807093
 50
91.1047916518853924
 51
95.2639155880613231
  0
LINE
  5
177C0
  8
0
 10
4351.1845877314835889
 20
499.156656462098681
 30
0.0
 11
4350.8545006530839601
 21
499.1286742559987033
 31
0.0
  0
ARC
  5
177C1
  8
0
 10
4354.4095780427560385
 20
493.6762632229119845
 30
0.0
 40
1.4249965154030839
 50
268.868795107554206
 51
356.8734301711228909
  0
ARC
  5
177C2
  8
0
 10
4351.4344726130320851
 20
493.6315838973197856
 30
0.0
 40
1.484525422042928
 50
273.9800185675453008
 51
355.9789904668047029
  0
ARC
  5
177C3
  8
0
 10
4340.9120431874071073
 20
493.7102192168555916
 30
0.0
 40
1.4173558901434209
 50
183.2521140650189864
 51
267.9987809334966187
  0
LINE
  5
177C4
  8
0
 10
4338.8859967160842643
 20
499.7938446530985743
 30
0.0
 11
4338.8859967160842643
 21
499.2426635507986248
 31
0.0
  0
LINE
  5
177C5
  8
0
 10
4338.8859967160842643
 20
499.2426635507986248
 30
0.0
 11
4338.9174927790836591
 21
499.2426635507986248
 31
0.0
  0
LINE
  5
177C6
  8
0
 10
4338.9174927790836591
 20
499.2426635507986248
 30
0.0
 11
4338.9174927790836591
 21
499.7938446530985743
 31
0.0
  0
ARC
  5
177C7
  8
0
 10
4338.5316660074840911
 20
499.9119548893987144
 30
0.0
 40
0.1181102362000033
 50
90.0
 51
179.9999999999967031
  0
LINE
  5
177C8
  8
0
 10
4355.0021628408840115
 20
501.4985933039985753
 30
0.0
 11
4355.0112052265840248
 21
500.0300651255986963
 31
0.0
  0
LINE
  5
177C9
  8
0
 10
4353.8761386597843739
 20
501.5025060704987254
 30
0.0
 11
4354.9982169770846667
 21
501.5025060704987254
 31
0.0
  0
LINE
  5
177CA
  8
0
 10
4354.9899838472847478
 20
501.5418761491986857
 30
0.0
 11
4354.990293366883634
 21
501.5064087218987083
 31
0.0
  0
LINE
  5
177CB
  8
0
 10
4355.0009546044839226
 20
501.5418761491986857
 30
0.0
 11
4353.8733957643844406
 21
501.5418761491986857
 31
0.0
  0
LINE
  5
177CC
  8
0
 10
4355.0081296820835632
 20
501.6304785953986993
 30
0.0
 11
4355.0088335887840003
 21
501.5498188777987139
 31
0.0
  0
LINE
  5
177CD
  8
0
 10
4354.9023641609837796
 20
501.6589355459987019
 30
0.0
 11
4354.9983700708844481
 21
501.6420071136986962
 31
0.0
  0
ARC
  5
177CE
  8
0
 10
4354.9963191081869809
 20
501.6303755260570938
 30
0.0
 40
0.0118110236239696
 50
0.5000001198269008
 51
80.0000001601660102
  0
ARC
  5
177CF
  8
0
 10
4355.0009598697151887
 20
501.5497501663123785
 30
0.0
 40
0.0078740188740907
 50
269.9616872144601984
 51
0.4999896747360235
  0
ARC
  5
177D0
  8
0
 10
4354.9942302246790859
 20
501.5064430781171154
 30
0.0
 40
0.0039370077031311
 50
180.4999968113639
 51
270.0
  0
ARC
  5
177D1
  8
0
 10
4354.9982258904228729
 20
501.4985690554527764
 30
0.0
 40
0.0039370251356683
 50
0.3528928754661732
 51
90.1297165156529871
  0
ARC
  5
177D2
  8
0
 10
4354.8681814499395841
 20
501.4650757601290252
 30
0.0
 40
0.1968503856022023
 50
79.999999908029892
 51
87.375865212425964
  0
LINE
  5
177D3
  8
0
 10
4353.8721928649847541
 20
501.4985933039985753
 30
0.0
 11
4353.870906796347299
 21
501.2897293940754935
 31
0.0
  0
LINE
  5
177D4
  8
0
 10
4353.8695028846441346
 20
501.0617271869459159
 30
0.0
 11
4353.8631504792838314
 21
500.0300651255986963
 31
0.0
  0
LINE
  5
177D5
  8
0
 10
4353.8843718585831084
 20
501.5418761491986857
 30
0.0
 11
4353.8840623389842222
 21
501.5064087218987083
 31
0.0
  0
LINE
  5
177D6
  8
0
 10
4353.8662260237842929
 20
501.6304785953986993
 30
0.0
 11
4353.8655221170847653
 21
501.5498188777987139
 31
0.0
  0
LINE
  5
177D7
  8
0
 10
4353.9719915448840766
 20
501.6589355459987019
 30
0.0
 11
4353.8759856349843176
 21
501.6420071136986962
 31
0.0
  0
ARC
  5
177D8
  8
0
 10
4353.8780365976808753
 20
501.6303755260570938
 30
0.0
 40
0.0118110236239696
 50
99.999999839834004
 51
179.4999998801731067
  0
ARC
  5
177D9
  8
0
 10
4353.8733958331677059
 20
501.5497501650982031
 30
0.0
 40
0.0078740158998352
 50
179.500001301073894
 51
269.9994994960960071
  0
ARC
  5
177DA
  8
0
 10
4353.8801254811887702
 20
501.5064430781171154
 30
0.0
 40
0.0039370077031311
 50
270.0
 51
359.5000031886360716
  0
ARC
  5
177DB
  8
0
 10
4353.8761298151775918
 20
501.4985690555647011
 30
0.0
 40
0.0039370248687623
 50
89.8712837651036409
 51
179.6471087290470905
  0
ARC
  5
177DC
  8
0
 10
4354.0061743649894197
 20
501.4650749991619136
 30
0.0
 40
0.1968511539468388
 50
92.6241763924287369
 51
99.9999928921616856
  0
ARC
  5
177DD
  8
0
 10
4354.4371778184840878
 20
492.0610549866365204
 30
0.0
 40
9.6107428238621697
 50
87.3758650180594145
 51
92.6241349819405855
  0
LINE
  5
177DF
  8
0
 10
4345.881853711884105
 20
492.1184497779987055
 30
0.0
 11
4350.6302972006842538
 21
492.1184497779987055
 31
0.0
  0
LINE
  5
177E0
  8
0
 10
4350.8545006530839601
 20
499.1286742559987033
 30
0.0
 11
4353.2088895918841445
 21
499.1286742559987033
 31
0.0
  0
ENDSEC
  0
EOF
