  0
SECTION
  2
HEADER
  9
$ACADVER
  1
AC1009
  9
$INSBASE
 10
4050.4438204992097781
 20
158.1530507996270103
 30
0.0
  9
$EXTMIN
 10
4025.3319026852609568
 20
158.1476596058276129
 30
0.0
  9
$EXTMAX
 10
4075.5557383131599636
 20
235.4404523744269966
 30
0.0
  9
$LIMMIN
 10
0.0
 20
0.0
  9
$LIMMAX
 10
11.6929133858000007
 20
8.2677165353999982
  9
$ORTHOMODE
 70
     1
  9
$REGENMODE
 70
     1
  9
$FILLMODE
 70
     1
  9
$QTEXTMODE
 70
     0
  9
$MIRRTEXT
 70
     0
  9
$DRAGMODE
 70
     2
  9
$LTSCALE
 40
0.6431102362
  9
$OSMODE
 70
  4095
  9
$ATTMODE
 70
     1
  9
$TEXTSIZE
 40
0.2
  9
$TRACEWID
 40
0.05
  9
$TEXTSTYLE
  7
STANDARD
  9
$CLAYER
  8
0
  9
$CELTYPE
  6
BYLAYER
  9
$CECOLOR
 62
   256
  9
$DIMSCALE
 40
1.0
  9
$DIMASZ
 40
0.1875
  9
$DIMEXO
 40
0.0625
  9
$DIMDLI
 40
0.4443307087
  9
$DIMRND
 40
0.0
  9
$DIMDLE
 40
0.0
  9
$DIMEXE
 40
0.125
  9
$DIMTP
 40
0.01
  9
$DIMTM
 40
0.01
  9
$DIMTXT
 40
2.0
  9
$DIMCEN
 40
0.1052362205
  9
$DIMTSZ
 40
0.0
  9
$DIMTOL
 70
     1
  9
$DIMLIM
 70
     0
  9
$DIMTIH
 70
     1
  9
$DIMTOH
 70
     1
  9
$DIMSE1
 70
     0
  9
$DIMSE2
 70
     0
  9
$DIMTAD
 70
     0
  9
$DIMZIN
 70
     0
  9
$DIMBLK
  1

  9
$DIMASO
 70
     1
  9
$DIMSHO
 70
     1
  9
$DIMPOST
  1
\X
  9
$DIMAPOST
  1

  9
$DIMALT
 70
     1
  9
$DIMALTD
 70
     2
  9
$DIMALTF
 40
25.3999999999999986
  9
$DIMLFAC
 40
1.0
  9
$DIMTOFL
 70
     0
  9
$DIMTVP
 40
0.0
  9
$DIMTIX
 70
     0
  9
$DIMSOXD
 70
     0
  9
$DIMSAH
 70
     0
  9
$DIMBLK1
  1

  9
$DIMBLK2
  1

  9
$DIMSTYLE
  2
STANDARD
  9
$DIMCLRD
 70
     0
  9
$DIMCLRE
 70
     0
  9
$DIMCLRT
 70
     0
  9
$DIMTFAC
 40
1.0
  9
$DIMGAP
 40
0.09
  9
$LUNITS
 70
     2
  9
$LUPREC
 70
     4
  9
$SKETCHINC
 40
0.1
  9
$FILLETRAD
 40
0.0
  9
$AUNITS
 70
     0
  9
$AUPREC
 70
     0
  9
$MENU
  1
.
  9
$ELEVATION
 40
0.0
  9
$PELEVATION
 40
0.0
  9
$THICKNESS
 40
0.0
  9
$LIMCHECK
 70
     0
  9
$BLIPMODE
 70
     0
  9
$CHAMFERA
 40
0.0
  9
$CHAMFERB
 40
0.0
  9
$SKPOLY
 70
     0
  9
$TDCREATE
 40
2458060.468368056230247
  9
$TDUPDATE
 40
2459010.3949421299621463
  9
$TDINDWG
 40
0.300296412
  9
$TDUSRTIMER
 40
0.300296412
  9
$USRTIMER
 70
     1
  9
$ANGBASE
 50
0.0
  9
$ANGDIR
 70
     0
  9
$PDMODE
 70
     0
  9
$PDSIZE
 40
0.3125
  9
$PLINEWID
 40
0.0
  9
$COORDS
 70
     1
  9
$SPLFRAME
 70
     0
  9
$SPLINETYPE
 70
     6
  9
$SPLINESEGS
 70
     8
  9
$ATTDIA
 70
     1
  9
$ATTREQ
 70
     1
  9
$HANDLING
 70
     1
  9
$HANDSEED
  5
6946
  9
$SURFTAB1
 70
     6
  9
$SURFTAB2
 70
     6
  9
$SURFTYPE
 70
     6
  9
$SURFU
 70
     6
  9
$SURFV
 70
     6
  9
$UCSNAME
  2

  9
$UCSORG
 10
0.0
 20
0.0
 30
0.0
  9
$UCSXDIR
 10
1.0
 20
0.0
 30
0.0
  9
$UCSYDIR
 10
0.0
 20
1.0
 30
0.0
  9
$PUCSNAME
  2

  9
$PUCSORG
 10
0.0
 20
0.0
 30
0.0
  9
$PUCSXDIR
 10
1.0
 20
0.0
 30
0.0
  9
$PUCSYDIR
 10
0.0
 20
1.0
 30
0.0
  9
$USERI1
 70
     0
  9
$USERI2
 70
     0
  9
$USERI3
 70
     0
  9
$USERI4
 70
     0
  9
$USERI5
 70
     0
  9
$USERR1
 40
0.0
  9
$USERR2
 40
0.0
  9
$USERR3
 40
0.0
  9
$USERR4
 40
0.0
  9
$USERR5
 40
0.0
  9
$WORLDVIEW
 70
     1
  9
$SHADEDGE
 70
     3
  9
$SHADEDIF
 70
    70
  9
$TILEMODE
 70
     1
  9
$MAXACTVP
 70
    64
  9
$PLIMCHECK
 70
     0
  9
$PEXTMIN
 10
1.0000000000000000E+20
 20
1.0000000000000000E+20
 30
1.0000000000000000E+20
  9
$PEXTMAX
 10
-1.0000000000000000E+20
 20
-1.0000000000000000E+20
 30
-1.0000000000000000E+20
  9
$PLIMMIN
 10
0.0
 20
0.0
  9
$PLIMMAX
 10
12.0
 20
9.0
  9
$UNITMODE
 70
     0
  9
$VISRETAIN
 70
     1
  9
$PLINEGEN
 70
     0
  9
$PSLTSCALE
 70
     1
  0
ENDSEC
  0
SECTION
  2
TABLES
  0
TABLE
  2
VPORT
 70
     1
  0
VPORT
  2
*ACTIVE
 70
     0
 10
0.0
 20
0.0
 11
1.0
 21
1.0
 12
0.0
 22
0.0
 13
0.0
 23
0.0
 14
1.0
 24
1.0
 15
0.0
 25
0.0
 16
0.0
 26
0.0
 36
262.0482828319036912
 17
4050.4437255859379547
 27
196.7940522760582951
 37
0.0
 40
92.1770713458032134
 41
2.127494456762749
 42
50.0
 43
0.0
 44
0.0
 50
0.0
 51
0.0
 71
     0
 72
   100
 73
     1
 74
     1
 75
     0
 76
     0
 77
     0
 78
     0
  0
ENDTAB
  0
TABLE
  2
LTYPE
 70
     2
  0
LTYPE
  2
CONTINUOUS
 70
     0
  3
Solid line
 72
    65
 73
     0
 40
0.0
  0
LTYPE
  2
PHANTOM2
 70
     0
  3
___ _ _ ___ _ _ ___ _ _ ___ _ _
 72
    65
 73
     6
 40
1.25
 49
0.625
 49
-0.125
 49
0.125
 49
-0.125
 49
0.125
 49
-0.125
  0
ENDTAB
  0
TABLE
  2
LAYER
 70
     2
  0
LAYER
  2
0
 70
     0
 62
   255
  6
CONTINUOUS
  0
LAYER
  2
DEFPOINTS
 70
     0
 62
     7
  6
CONTINUOUS
  0
ENDTAB
  0
TABLE
  2
STYLE
 70
     1
  0
STYLE
  2
STANDARD
 70
     0
 40
0.0
 41
0.8
 50
0.0
 71
     0
 42
0.2
  3
txt
  4

  0
ENDTAB
  0
TABLE
  2
VIEW
 70
     0
  0
ENDTAB
  0
TABLE
  2
UCS
 70
     0
  0
ENDTAB
  0
TABLE
  2
APPID
 70
     9
  0
APPID
  2
ACAD
 70
     0
  0
APPID
  2
ACAD_MLEADERVER
 70
     0
  0
APPID
  2
ACAD_EXEMPT_FROM_CAD_STANDARDS
 70
     0
  0
APPID
  2
ACAD_NAV_VCDISPLAY
 70
     0
  0
APPID
  2
ACAECLAYERSTANDARD
 70
     0
  0
APPID
  2
ACCMTRANSPARENCY
 70
     0
  0
APPID
  2
ACAD_DSTYLE_DIMJAG
 70
     0
  0
APPID
  2
ACAD_DSTYLE_DIMTALN
 70
     0
  0
APPID
  2
ACDBATTR
 70
     0
  0
ENDTAB
  0
TABLE
  2
DIMSTYLE
 70
     1
  0
DIMSTYLE
  2
STANDARD
 70
     0
  3

  4

  5

  6

  7

 40
1.0
 41
0.1875
 42
0.0625
 43
0.38
 44
0.125
 45
0.0
 46
0.0
 47
0.01
 48
0.01
140
0.15625
141
0.09
142
0.0
143
25.3999999999999986
144
1.0
145
0.0
146
1.0
147
0.09
 71
     1
 72
     0
 73
     1
 74
     1
 75
     0
 76
     0
 77
     0
 78
     4
170
     0
171
     2
172
     0
173
     0
174
     0
175
     0
176
     0
177
     0
178
     0
  0
ENDTAB
  0
ENDSEC
  0
SECTION
  2
BLOCKS
  0
BLOCK
  8
0
  2
$MODEL_SPACE
 70
     0
 10
0.0
 20
0.0
 30
0.0
  3
$MODEL_SPACE
  1

  0
ENDBLK
  5
21
  8
0
  0
BLOCK
 67
     1
  8
0
  2
$PAPER_SPACE
 70
     0
 10
0.0
 20
0.0
 30
0.0
  3
$PAPER_SPACE
  1

  0
ENDBLK
  5
1D
 67
     1
  8
0
  0
ENDSEC
  0
SECTION
  2
ENTITIES
  0
ATTDEF
  5
3930
  8
DEFPOINTS
 10
4050.4396983870460645
 20
158.1509929391608864
 30
0.0
 40
0.001
  1
K-81014T-FM
  3

  2
MODELNUMBER
 70
     0
1001
ACDBATTR
1070
     0
1070
     1
  0
ATTDEF
  5
3931
  8
DEFPOINTS
 10
4050.4396983870460645
 20
158.1493262724941928
 30
0.0
 40
0.001
  1
SKYLINE
  3

  2
TRADENAME
 70
     0
1001
ACDBATTR
1070
     0
1070
     1
  0
ATTDEF
  5
3932
  8
DEFPOINTS
 10
4050.4396983870460645
 20
158.1476596058276129
 30
0.0
 40
0.001
  1
SHOWER DOOR
  3

  2
PRODUCT
 70
     0
1001
ACDBATTR
1070
     0
1070
     1
  0
LINE
  5
6691
  8
0
 10
4026.1485164165601418
 20
235.4026449933269873
 30
0.0
 11
4026.1999407181601782
 21
235.439007465626986
 31
0.0
  0
LINE
  5
6692
  8
0
 10
4025.3319026852609568
 20
158.1530507996270103
 30
0.0
 11
4075.5557383131599636
 21
158.1530507996270103
 31
0.0
  0
LINE
  5
6693
  8
0
 10
4025.3319026852609568
 20
160.5152555240269976
 30
0.0
 11
4075.5557383131599636
 21
160.5152555240269976
 31
0.0
  0
LINE
  5
6694
  8
0
 10
4027.4029011944599006
 20
162.2839900667624136
 30
0.0
 11
4036.0696059127599256
 21
162.2879250254270005
 31
0.0
  0
LINE
  5
6695
  8
0
 10
4037.5894897905600374
 20
162.2879250254270005
 30
0.0
 11
4063.2981512078599735
 21
162.2879250254270005
 31
0.0
  0
LINE
  5
6696
  8
0
 10
4037.5816157747608486
 20
162.3486019807270111
 30
0.0
 11
4036.0858315834598216
 21
162.3486019807270111
 31
0.0
  0
LINE
  5
6697
  8
0
 10
4037.9957972093611716
 20
162.3680153666269916
 30
0.0
 11
4058.3107578392609867
 21
162.3680153666269916
 31
0.0
  0
LINE
  5
6698
  8
0
 10
4059.3962960539602136
 20
162.377857886226991
 30
0.0
 11
4058.8787623714601978
 21
162.377857886226991
 31
0.0
  0
LINE
  5
6699
  8
0
 10
4063.8619389416599006
 20
162.3877004059270064
 30
0.0
 11
4063.901309020359804
 21
162.3877004059270064
 31
0.0
  0
LINE
  5
669A
  8
0
 10
4060.8493323102597969
 20
162.3885028235270056
 30
0.0
 11
4060.3386075649600571
 21
162.3885028235270056
 31
0.0
  0
LINE
  5
669B
  8
0
 10
4059.7233480582599441
 20
162.3885028235270056
 30
0.0
 11
4060.234072795659813
 21
162.3885028235270056
 31
0.0
  0
LINE
  5
669C
  8
0
 10
4063.901309020359804
 20
162.4073854453270087
 30
0.0
 11
4063.9835901577598634
 21
162.4073854453270087
 31
0.0
  0
LINE
  5
669D
  8
0
 10
4059.9643011463608673
 20
162.4172279650269957
 30
0.0
 11
4058.3107578392609867
 21
162.4172279650269957
 31
0.0
  0
LINE
  5
669E
  8
0
 10
4059.9446161069599839
 20
162.4664405634269997
 30
0.0
 11
4058.3304428786600511
 21
162.4664405634269997
 31
0.0
  0
LINE
  5
669F
  8
0
 10
4037.9957972093611716
 20
162.6239208784269863
 30
0.0
 11
4038.0351672880601654
 21
162.6239208784269863
 31
0.0
  0
LINE
  5
66A0
  8
0
 10
4037.9957972093611716
 20
162.6632909571270034
 30
0.0
 11
4038.0351672880601654
 21
162.6632909571270034
 31
0.0
  0
LINE
  5
66A1
  8
0
 10
4038.0351672880601654
 20
163.0176216658269936
 30
0.0
 11
4058.3107578392609867
 21
163.0176216658269936
 31
0.0
  0
LINE
  5
66A2
  8
0
 10
4060.0796479737600748
 20
163.1759043983269919
 30
0.0
 11
4060.4930323947592115
 21
163.1759043983269919
 31
0.0
  0
LINE
  5
66A3
  8
0
 10
4060.2863401843601423
 20
162.3890774306269975
 30
0.0
 11
4060.290872308859889
 21
162.3890685555269897
 31
0.0
  0
LINE
  5
66A4
  8
0
 10
4058.3304428786600511
 20
164.986125602827002
 30
0.0
 11
4059.9446161069599839
 21
164.986125602827002
 31
0.0
  0
LINE
  5
66A5
  8
0
 10
4025.3319026852609568
 20
158.1530507996270103
 30
0.0
 11
4025.3319026852609568
 21
160.5152555240269976
 31
0.0
  0
LINE
  5
66A6
  8
0
 10
4025.9176985109597808
 20
235.3184051303269939
 30
0.0
 11
4025.9176985109597808
 21
160.5152555240269976
 31
0.0
  0
LINE
  5
66A7
  8
0
 10
4025.9204102424600933
 20
235.3695862327271016
 30
0.0
 11
4025.9204102424600933
 21
235.3262791461270069
 31
0.0
  0
LINE
  5
66A8
  8
0
 10
4026.1451884659600182
 20
235.3207113762269955
 30
0.0
 11
4026.1451884659600182
 21
235.3962158863270133
 31
0.0
  0
LINE
  5
66A9
  8
0
 10
4026.1501524954601337
 20
235.3184051303269939
 30
0.0
 11
4026.1501524954601337
 21
160.5152555240269976
 31
0.0
  0
LINE
  5
66AA
  8
0
 10
4027.4029011944599006
 20
235.3184051303269939
 30
0.0
 11
4027.4029011944599006
 21
160.5152555240269976
 31
0.0
  0
LINE
  5
66AB
  8
0
 10
4027.8648911101599879
 20
233.545735629027007
 30
0.0
 11
4027.8647660526530672
 21
162.2841997680484951
 31
0.0
  0
LINE
  5
66AC
  8
0
 10
4028.4861559272599152
 20
235.3184051303269939
 30
0.0
 11
4028.4861559272599152
 21
235.3938797091269919
 31
0.0
  0
LINE
  5
66AD
  8
0
 10
4031.3537722297601249
 20
222.7593500122270029
 30
0.0
 11
4031.3537722297601249
 21
222.2869090674269898
 31
0.0
  0
LINE
  5
66AE
  8
0
 10
4031.576483026959977
 20
222.8774602485270009
 30
0.0
 11
4031.576483026959977
 21
222.8380901697269962
 31
0.0
  0
LINE
  5
66AF
  8
0
 10
4031.576483026959977
 20
222.2081689099269965
 30
0.0
 11
4031.576483026959977
 21
222.1687988311269919
 31
0.0
  0
LINE
  5
66B0
  8
0
 10
4031.8942416021600366
 20
222.7593500122270029
 30
0.0
 11
4031.8942416021600366
 21
222.2869090674269898
 31
0.0
  0
LINE
  5
66B1
  8
0
 10
4031.9614505305598868
 20
222.7593500122270029
 30
0.0
 11
4031.9614505305598868
 21
222.2869090674269898
 31
0.0
  0
LINE
  5
66B2
  8
0
 10
4032.2143883732601353
 20
222.6609248154269949
 30
0.0
 11
4032.2143883732601353
 21
222.3853342642269979
 31
0.0
  0
LINE
  5
66B3
  8
0
 10
4032.5623739938610015
 20
222.8774602485270009
 30
0.0
 11
4032.5623739938610015
 21
222.1687988311269919
 31
0.0
  0
LINE
  5
66B4
  8
0
 10
4032.6737293924597907
 20
222.1687988311269919
 30
0.0
 11
4032.6737293924597907
 21
222.8774602485270009
 31
0.0
  0
LINE
  5
66B5
  8
0
 10
4032.7015682421601923
 20
222.8577752091269986
 30
0.0
 11
4032.7015682421601923
 21
222.1884838705269942
 31
0.0
  0
LINE
  5
66B6
  8
0
 10
4035.004603220260833
 20
233.2117082802269863
 30
0.0
 11
4035.004603220260833
 21
233.545735629027007
 31
0.0
  0
LINE
  5
66B7
  8
0
 10
4036.0696059127599256
 20
160.5152555240269976
 30
0.0
 11
4036.0696059127599256
 21
162.3289169414269963
 31
0.0
  0
LINE
  5
66B8
  8
0
 10
4036.0696059127599256
 20
233.5047437130270112
 30
0.0
 11
4036.0696059127599256
 21
235.3184051303269939
 31
0.0
  0
LINE
  5
66B9
  8
0
 10
4036.1796005472601792
 20
233.4850586736270088
 30
0.0
 11
4036.1796005472601792
 21
233.2117082797269916
 31
0.0
  0
LINE
  5
66BA
  8
0
 10
4036.2604957744601961
 20
233.4850586736270088
 30
0.0
 11
4036.2604957744601961
 21
233.2117082800270111
 31
0.0
  0
LINE
  5
66BB
  8
0
 10
4036.2952943365598912
 20
233.4850586736270088
 30
0.0
 11
4036.2952943365598912
 21
233.2313933193269975
 31
0.0
  0
LINE
  5
66BC
  8
0
 10
4036.33335345425985
 20
162.3486019807270111
 30
0.0
 11
4036.33335345425985
 21
233.4850586736270088
 31
0.0
  0
LINE
  5
66BD
  8
0
 10
4036.4674425464600063
 20
158.1530507996270103
 30
0.0
 11
4036.4674425464600063
 21
160.5152555240269976
 31
0.0
  0
LINE
  5
66BE
  8
0
 10
4036.5699846447600976
 20
162.3486019807270111
 30
0.0
 11
4036.5699846447600976
 21
233.4850586736270088
 31
0.0
  0
LINE
  5
66BF
  8
0
 10
4036.6914862570602054
 20
160.5152555240269976
 30
0.0
 11
4036.6914862570602054
 21
162.3486019807270111
 31
0.0
  0
LINE
  5
66C0
  8
0
 10
4036.6914862570602054
 20
233.4850586736270088
 30
0.0
 11
4036.6914862570602054
 21
235.3184051303269939
 31
0.0
  0
LINE
  5
66C1
  8
0
 10
4036.8593207166600223
 20
162.3486019807270111
 30
0.0
 11
4036.8593207166600223
 21
233.4850586736270088
 31
0.0
  0
LINE
  5
66C2
  8
0
 10
4037.0048135563602045
 20
162.3486019807270111
 30
0.0
 11
4037.0048135563602045
 21
233.4850586736270088
 31
0.0
  0
LINE
  5
66C3
  8
0
 10
4037.0080505065589023
 20
233.1751019807271064
 30
0.0
 11
4037.0080505065589023
 21
162.3486019807270111
 31
0.0
  0
LINE
  5
66C4
  8
0
 10
4037.1535433463600384
 20
233.1751019807271064
 30
0.0
 11
4037.1535433463600384
 21
162.3486019807270111
 31
0.0
  0
LINE
  5
66C5
  8
0
 10
4037.1856088787599219
 20
233.1751019807271064
 30
0.0
 11
4037.1856088787599219
 21
233.4850586736270088
 31
0.0
  0
LINE
  5
66C6
  8
0
 10
4037.5627263431601932
 20
233.1751019807271064
 30
0.0
 11
4037.5627263431601932
 21
162.3486019807270111
 31
0.0
  0
LINE
  5
66C7
  8
0
 10
4037.5894897905600374
 20
162.3407279650270141
 30
0.0
 11
4037.5894897905600374
 21
160.5152555240269976
 31
0.0
  0
LINE
  5
66C8
  8
0
 10
4037.5894897905600374
 20
233.4929326894271071
 30
0.0
 11
4037.5894897905600374
 21
235.3184051303269939
 31
0.0
  0
LINE
  5
66C9
  8
0
 10
4037.9957972093611716
 20
233.1751019807271064
 30
0.0
 11
4037.9957972093611716
 21
162.2879250254270005
 31
0.0
  0
LINE
  5
66CA
  8
0
 10
4038.0351672880601654
 20
163.0176216658269936
 30
0.0
 11
4038.0351672880601654
 21
162.6239208784269863
 31
0.0
  0
LINE
  5
66CB
  8
0
 10
4057.5778496921939222
 20
197.4783730297270097
 30
0.0
 11
4041.4058707107260489
 21
197.4783730297270097
 31
0.0
  0
LINE
  5
66CC
  8
0
 10
4057.5698471967011756
 20
198.3206495572270001
 30
0.0
 11
4041.4138732062187955
 21
198.3206495572270001
 31
0.0
  0
LINE
  5
66CD
  8
0
 10
4058.3107578392609867
 20
162.3680153666269916
 30
0.0
 11
4058.3107578392609867
 21
164.9664405634269997
 31
0.0
  0
LINE
  5
66CE
  8
0
 10
4058.3107578392609867
 20
230.8325822957270077
 30
0.0
 11
4058.3107578392609867
 21
233.5097476500270091
 31
0.0
  0
LINE
  5
66CF
  8
0
 10
4058.8225688628599528
 20
162.2879250254270005
 30
0.0
 11
4058.8225688628599528
 21
162.4172279650269957
 31
0.0
  0
LINE
  5
66D0
  8
0
 10
4058.8670195352601695
 20
162.3699840405269867
 30
0.0
 11
4058.8670195352601695
 21
162.2879250254270005
 31
0.0
  0
LINE
  5
66D1
  8
0
 10
4058.8816239809598301
 20
162.377857886226991
 30
0.0
 11
4058.8816239809598301
 21
162.4172279650269957
 31
0.0
  0
LINE
  5
66D2
  8
0
 10
4059.0233562644598351
 20
233.545735629027007
 30
0.0
 11
4059.0233562644598351
 21
233.5294326894270114
 31
0.0
  0
LINE
  5
66D3
  8
0
 10
4059.2517027211601999
 20
233.545735629027007
 30
0.0
 11
4059.2517027211601999
 21
233.5294326894270114
 31
0.0
  0
LINE
  5
66D4
  8
0
 10
4059.3934350046602049
 20
162.377857886226991
 30
0.0
 11
4059.3934350046602049
 21
162.4172279650269957
 31
0.0
  0
LINE
  5
66D5
  8
0
 10
4059.4524901227609917
 20
162.4172279650269957
 30
0.0
 11
4059.4524901227609917
 21
162.2879250254270005
 31
0.0
  0
LINE
  5
66D6
  8
0
 10
4059.7154740425598902
 20
162.2879250254270005
 30
0.0
 11
4059.7154740425598902
 21
162.3806288078270086
 31
0.0
  0
LINE
  5
66D7
  8
0
 10
4059.9643011463608673
 20
233.5097476500270091
 30
0.0
 11
4059.9643011463608673
 21
230.8325822957270077
 31
0.0
  0
LINE
  5
66D8
  8
0
 10
4059.9643011463608673
 20
164.9664405634269997
 30
0.0
 11
4059.9643011463608673
 21
162.3885028235270056
 31
0.0
  0
LINE
  5
66D9
  8
0
 10
4060.0599622314598491
 20
162.3963768393269902
 30
0.0
 11
4060.0599622314598491
 21
163.1562193589269896
 31
0.0
  0
LINE
  5
66DA
  8
0
 10
4060.5127181369598475
 20
162.3963768393269902
 30
0.0
 11
4060.5127181369598475
 21
163.1562193589269896
 31
0.0
  0
LINE
  5
66DB
  8
0
 10
4060.8572063259598508
 20
162.3806288078270086
 30
0.0
 11
4060.8572063259598508
 21
162.2879250254270005
 31
0.0
  0
LINE
  5
66DC
  8
0
 10
4063.4879231935601638
 20
163.0176216658269936
 30
0.0
 11
4063.4879231935601638
 21
233.1751019807271064
 31
0.0
  0
LINE
  5
66DD
  8
0
 10
4063.8619389416599006
 20
162.3680153666269916
 30
0.0
 11
4063.8619389416599006
 21
163.0176216658269936
 31
0.0
  0
LINE
  5
66DE
  8
0
 10
4063.901309020359804
 20
233.1751019807271064
 30
0.0
 11
4063.901309020359804
 21
162.3877004059270064
 31
0.0
  0
LINE
  5
66DF
  8
0
 10
4063.9835901577598634
 20
162.3486019807270111
 30
0.0
 11
4063.9835901577598634
 21
162.4073854453270087
 31
0.0
  0
LINE
  5
66E0
  8
0
 10
4063.9835901577598634
 20
233.1751019807271064
 30
0.0
 11
4063.9835901577598634
 21
233.4850586736270088
 31
0.0
  0
LINE
  5
66E1
  8
0
 10
4064.2063009550602146
 20
233.4850586736270088
 30
0.0
 11
4064.2063009550602146
 21
162.3486019807270111
 31
0.0
  0
LINE
  5
66E2
  8
0
 10
4032.6041322683599901
 20
222.0703736343270975
 30
0.0
 11
4031.6576113801597785
 21
222.0703736343270975
 31
0.0
  0
LINE
  5
66E3
  8
0
 10
4031.8942416021600366
 20
222.2081689099269965
 30
0.0
 11
4031.4209811581599752
 21
222.2081689099269965
 31
0.0
  0
LINE
  5
66E4
  8
0
 10
4032.1587106739598312
 20
222.3065941067270046
 30
0.0
 11
4031.9614505305598868
 21
222.3065941067270046
 31
0.0
  0
LINE
  5
66E5
  8
0
 10
4031.9614505305598868
 20
222.7396649729269882
 30
0.0
 11
4032.1477867756511841
 21
222.7396649729269882
 31
0.0
  0
LINE
  5
66E6
  8
0
 10
4031.4209811581599752
 20
222.8380901697269962
 30
0.0
 11
4031.8942416021600366
 21
222.8380901697269962
 31
0.0
  0
LINE
  5
66E7
  8
0
 10
4031.6576113801597785
 20
222.9758854453270089
 30
0.0
 11
4032.6041322683599901
 21
222.9758854453270089
 31
0.0
  0
LINE
  5
66E8
  8
0
 10
4028.3714502084599189
 20
235.4400020754270031
 30
0.0
 11
4028.4809065825611469
 21
235.40130340322699
 31
0.0
  0
LINE
  5
66E9
  8
0
 10
4059.9446161069599839
 20
230.8128972563270054
 30
0.0
 11
4058.3304428786600511
 21
230.8128972563270054
 31
0.0
  0
LINE
  5
66EA
  8
0
 10
4035.0641734621599426
 20
233.1329681225269894
 30
0.0
 11
4036.2025118293609012
 21
233.1329681225269894
 31
0.0
  0
LINE
  5
66EB
  8
0
 10
4058.3107578392609867
 20
233.135731902027004
 30
0.0
 11
4037.9957972093611716
 21
233.135731902027004
 31
0.0
  0
LINE
  5
66EC
  8
0
 10
4058.3107578392609867
 20
233.1751019807271064
 30
0.0
 11
4037.0080505065589023
 21
233.1751019807271064
 31
0.0
  0
LINE
  5
66ED
  8
0
 10
4037.5816157747608486
 20
233.4850586736270088
 30
0.0
 11
4036.0858315833597771
 21
233.4850586736270088
 31
0.0
  0
LINE
  5
66EE
  8
0
 10
4058.3304428786600511
 20
233.5294326894270114
 30
0.0
 11
4059.9446161069599839
 21
233.5294326894270114
 31
0.0
  0
LINE
  5
66EF
  8
0
 10
4063.2981512078599735
 20
233.545735629027007
 30
0.0
 11
4037.5894897905600374
 21
233.545735629027007
 31
0.0
  0
LINE
  5
66F0
  8
0
 10
4036.0696059127599256
 20
233.545735629027007
 30
0.0
 11
4027.411252849360153
 21
233.545735629027007
 31
0.0
  0
LINE
  5
66F1
  8
0
 10
4025.9176985109597808
 20
235.3184051303269939
 30
0.0
 11
4074.9699424874597753
 21
235.3184051303271076
 31
0.0
  0
LINE
  5
66F2
  8
0
 10
4025.9204102424600933
 20
235.3262791461270069
 30
0.0
 11
4026.1451884659600182
 21
235.3262791461270069
 31
0.0
  0
LINE
  5
66F3
  8
0
 10
4025.9282842582588273
 20
235.3774602485270009
 30
0.0
 11
4026.1451884659600182
 21
235.3774602485270009
 31
0.0
  0
LINE
  5
66F4
  8
0
 10
4028.3688252722599827
 20
235.4404523744269966
 30
0.0
 11
4026.204486783259199
 21
235.4404523744269966
 31
0.0
  0
ARC
  5
66F5
  8
0
 10
4040.6338591205558259
 20
197.8995343739310897
 30
0.0
 40
0.5908178747823004
 50
91.7941399662785642
 51
268.3541225020526895
  0
ARC
  5
66F6
  8
0
 10
4037.5816157747608486
 20
162.3407279650270141
 30
0.0
 40
0.0078740157
 50
0.0
 51
89.9999999990880752
  0
ARC
  5
66F7
  8
0
 10
4025.9293299521468725
 20
235.3685405388395111
 30
0.0
 40
0.0089807958908206
 50
96.686496397807673
 51
173.3135036021431858
  0
ARC
  5
66F8
  8
0
 10
4026.2052053742568205
 20
235.4303174814760098
 30
0.0
 40
0.010160336025457
 50
94.0556368346078955
 51
121.2087528477046021
  0
ARC
  5
66F9
  8
0
 10
4026.1545792546858138
 20
235.3954307468343927
 30
0.0
 40
0.0094235533066994
 50
130.0436259702896962
 51
175.2207637124961082
  0
ARC
  5
66FA
  8
0
 10
4037.5811920332848786
 20
233.4933564309017129
 30
0.0
 40
0.0083085697304783
 50
272.9233834725126258
 51
357.0766165274665127
  0
ARC
  5
66FB
  8
0
 10
4060.0796472708811962
 20
163.1562193589180936
 30
0.0
 40
0.0196850394214256
 50
89.9979541836436709
 51
179.9999999741687873
  0
ARC
  5
66FC
  8
0
 10
4060.4930330976389996
 20
163.1562193589180936
 30
0.0
 40
0.0196850394214234
 50
0.0000000258515485
 51
90.0020458163823776
  0
ARC
  5
66FD
  8
0
 10
4059.9446161069599839
 20
164.9664405634269997
 30
0.0
 40
0.0196850394
 50
0.0
 51
90.0
  0
ARC
  5
66FE
  8
0
 10
4059.9446161069599839
 20
162.486125602827002
 30
0.0
 40
0.0196850394
 50
270.0
 51
0.0
  0
ARC
  5
66FF
  8
0
 10
4058.3304428786600511
 20
162.486125602827002
 30
0.0
 40
0.0196850394
 50
180.0
 51
270.0
  0
ARC
  5
6700
  8
0
 10
4058.3304428786600511
 20
164.9664405634269997
 30
0.0
 40
0.0196850394
 50
90.0
 51
180.0
  0
ARC
  5
6701
  8
0
 10
4060.8493323102597969
 20
162.3806288078270086
 30
0.0
 40
0.0078740157
 50
0.0
 51
89.9999999996091731
  0
ARC
  5
6702
  8
0
 10
4059.7233480582599441
 20
162.3806288078270086
 30
0.0
 40
0.0078740157
 50
90.0000000003908269
 51
180.0
  0
ARC
  5
6703
  8
0
 10
4060.5205921527599457
 20
162.3963768393269902
 30
0.0
 40
0.0078740157
 50
180.0
 51
270.0
  0
ARC
  5
6704
  8
0
 10
4060.0520882157597953
 20
162.3963768393269902
 30
0.0
 40
0.0078740157
 50
270.0
 51
0.0
  0
ARC
  5
6705
  8
0
 10
4059.9446161069599839
 20
230.8325822957270077
 30
0.0
 40
0.0196850394
 50
270.0
 51
0.0
  0
ARC
  5
6706
  8
0
 10
4059.9446161069599839
 20
233.5097476500270091
 30
0.0
 40
0.0196850394
 50
0.0
 51
90.0
  0
ARC
  5
6707
  8
0
 10
4058.3304428786600511
 20
233.5097476500270091
 30
0.0
 40
0.0196850394
 50
90.0
 51
180.0
  0
ARC
  5
6708
  8
0
 10
4058.3304428786600511
 20
230.8325822957270077
 30
0.0
 40
0.0196850394
 50
180.0
 51
270.0
  0
LINE
  5
6709
  8
0
 10
4060.2863401843601423
 20
162.3890774290269974
 30
0.0
 11
4060.234072795659813
 21
162.3885028235270056
 31
0.0
  0
LINE
  5
670A
  8
0
 10
4060.3386075649600571
 20
162.3885028235270056
 30
0.0
 11
4060.290872308859889
 21
162.3890685555269897
 31
0.0
  0
ARC
  5
670B
  8
0
 10
4026.1478239176058196
 20
235.3210405819581013
 30
0.0
 40
0.0026559333177782
 50
187.1201844520321913
 51
262.8798130632857237
  0
ARC
  5
670C
  8
0
 10
4028.3687387297459281
 20
235.4320719467565937
 30
0.0
 40
0.0083808745096042
 50
71.1233568255680524
 51
89.4083423012031631
  0
ARC
  5
670D
  8
0
 10
4028.4776856236708227
 20
235.393458070482211
 30
0.0
 40
0.0084807913572022
 50
2.84974327431325
 51
67.6790387712965469
  0
LINE
  5
670E
  8
0
 10
4026.1485164165601418
 20
235.4026449933269873
 30
0.0
 11
4027.3690562185038289
 21
235.4026449933269873
 31
0.0
  0
LINE
  5
670F
  8
0
 10
4027.4202941337312041
 20
235.4026449933269873
 30
0.0
 11
4028.4771119927318068
 21
235.4026449933269873
 31
0.0
  0
ARC
  5
6710
  8
0
 10
4027.3657824779238581
 20
235.1329044695561947
 30
0.0
 40
0.2697603891262475
 50
85.830574504981783
 51
89.3046565379053021
  0
ARC
  5
6711
  8
0
 10
4027.3946751562320969
 20
235.4681186483205124
 30
0.0
 40
0.0668152500946384
 50
262.0168030156349914
 51
277.9833322038812753
  0
ARC
  5
6712
  8
0
 10
4027.4159026315869596
 20
235.3133530207923059
 30
0.0
 40
0.0893998973724996
 50
87.1843833635326178
 51
97.680266890547216
  0
ARC
  5
6713
  8
0
 10
4027.4116914280871242
 20
233.5574980358408084
 30
0.0
 40
0.0117705805019796
 50
221.6863235663103922
 51
267.8646313796380127
  0
ARC
  5
6714
  8
0
 10
4027.411648261891969
 20
162.2762554317787931
 30
0.0
 40
0.0116762908059217
 50
91.9406678111002833
 51
138.5151289487646977
  0
ARC
  5
6715
  8
0
 10
4035.1286362840169204
 20
233.2197164174986881
 30
0.0
 40
0.1242913157365735
 50
183.6941480246842104
 51
211.2440708610363913
  0
ARC
  5
6716
  8
0
 10
4035.0664977983410608
 20
233.1876833084259886
 30
0.0
 40
0.0547645332915618
 50
216.3176310271475131
 51
267.5675010771182087
  0
ARC
  5
6717
  8
0
 10
4036.1998993673919358
 20
233.1863033855761955
 30
0.0
 40
0.0533992063804556
 50
272.8042143333992158
 51
330.7748669784476192
  0
ARC
  5
6718
  8
0
 10
4036.1622890513681341
 20
233.2107662458911079
 30
0.0
 40
0.0982112411524617
 50
329.0325986111653265
 51
0.549584825566414
  0
ARC
  5
6719
  8
0
 10
4036.2303080980209415
 20
233.2130582398949059
 30
0.0
 40
0.0612161742144124
 50
280.5791693522805872
 51
342.9559896262102257
  0
ARC
  5
671A
  8
0
 10
4036.1923225332170659
 20
233.2310118602904936
 30
0.0
 40
0.102972509897808
 50
339.5981473029473818
 51
0.2122512393025458
  0
ARC
  5
671B
  8
0
 10
4036.0918009403308133
 20
233.5044146218893104
 30
0.0
 40
0.0221974671944477
 50
179.1505236156737908
 51
215.7062846595287056
  0
ARC
  5
671C
  8
0
 10
4036.0862352650628964
 20
233.5003720623288075
 30
0.0
 40
0.0153187085737169
 50
215.5778421555343982
 51
268.4899556113812196
  0
ARC
  5
671D
  8
0
 10
4036.0648368316838059
 20
233.2178002310515978
 30
0.0
 40
0.1149252900089545
 50
323.3880000061865871
 51
356.9614454214049033
  0
ARC
  5
671E
  8
0
 10
4036.1205984963548872
 20
233.1819103298749098
 30
0.0
 40
0.0489637191712232
 50
271.6984585157151173
 51
318.1767187726634916
  0
ARC
  5
671F
  8
0
 10
4036.0918000298988773
 20
162.3292463183730945
 30
0.0
 40
0.0221965611022438
 50
144.2929428785259915
 51
180.8502488948371933
  0
ARC
  5
6720
  8
0
 10
4036.0861243140439001
 20
162.3334975585732991
 30
0.0
 40
0.0151072585133858
 50
91.1102793202189929
 51
144.8219222421560062
  0
ARC
  5
6721
  8
0
 10
4041.4203362294770159
 20
197.8994118721126085
 30
0.0
 40
0.4212872630760998
 50
90.8790165635787304
 51
268.0322782270092716
  0
ARC
  5
6722
  8
0
 10
4031.42689025953905
 20
222.2812659265468085
 30
0.0
 40
0.07333547107517
 50
175.5867455577167959
 51
265.3783074019154924
  0
ARC
  5
6723
  8
0
 10
4031.4268572743380901
 20
222.765021307738607
 30
0.0
 40
0.0733047565552042
 50
94.5977680007601549
 51
184.4371790396018014
  0
ARC
  5
6724
  8
0
 10
4031.8883325006818268
 20
222.7649931530231129
 30
0.0
 40
0.0733354711670959
 50
355.5867456292768907
 51
85.3783073303439011
  0
ARC
  5
6725
  8
0
 10
4031.8135075724758281
 20
222.7613175504963863
 30
0.0
 40
0.0807580011878406
 50
358.603942734793975
 51
71.9248366112124558
  0
ARC
  5
6726
  8
0
 10
4031.8880632937989503
 20
222.281495709079195
 30
0.0
 40
0.0735866222088583
 50
274.816204380577517
 51
4.2187426597854758
  0
ARC
  5
6727
  8
0
 10
4031.8085572041140949
 20
222.2884419681950021
 30
0.0
 40
0.0856981088084252
 50
290.4961374204199274
 51
358.9750832332430832
  0
ARC
  5
6728
  8
0
 10
4032.1396109448969582
 20
222.6652122898263997
 30
0.0
 40
0.0749002418516454
 50
356.7184546296351755
 51
83.7333196767626191
  0
ARC
  5
6729
  8
0
 10
4032.1314785728482093
 20
222.3849052281933893
 30
0.0
 40
0.0829109104780031
 50
289.1747329714123111
 51
0.2964876824317832
  0
ARC
  5
672A
  8
0
 10
4031.6869989562687806
 20
222.8792392856460083
 30
0.0
 40
0.1105302474622357
 50
144.209680518804106
 51
180.9222427570381058
  0
ARC
  5
672B
  8
0
 10
4031.6616986850649482
 20
222.8954377719329898
 30
0.0
 40
0.0805514383229337
 50
92.9085257214106548
 51
143.0313286973299114
  0
ARC
  5
672C
  8
0
 10
4032.5981747380351408
 20
222.9077503502668094
 30
0.0
 40
0.0683950535231206
 50
20.1953879717055109
 51
85.0029359461264846
  0
ARC
  5
672D
  8
0
 10
4032.5441979057591197
 20
222.8782990181564969
 30
0.0
 40
0.1295342023622422
 50
359.6289914576742035
 51
24.1824468319889512
  0
ARC
  5
672E
  8
0
 10
4032.597103806458108
 20
222.8625099965971117
 30
0.0
 40
0.1045716813438362
 50
357.4048794704987131
 51
59.9887743378823188
  0
ARC
  5
672F
  8
0
 10
4031.6896729525551564
 20
222.1678599570564074
 30
0.0
 40
0.1131938193569646
 50
179.5247608140620912
 51
215.343695517135302
  0
ARC
  5
6730
  8
0
 10
4031.6596550406538881
 20
222.1469722835645086
 30
0.0
 40
0.0766259069324105
 50
215.5880199086610105
 51
268.4717047803216019
  0
ARC
  5
6731
  8
0
 10
4032.597063691837775
 20
222.1405958592800971
 30
0.0
 40
0.0705770901313402
 50
275.7480374353340835
 51
342.9994743179241823
  0
ARC
  5
6732
  8
0
 10
4032.5411385789338965
 20
222.1684211144986989
 30
0.0
 40
0.1325913515340226
 50
338.562349027643279
 51
0.163220283030323
  0
ARC
  5
6733
  8
0
 10
4032.5845053279331296
 20
222.1906725846949939
 30
0.0
 40
0.1170833735300386
 50
303.6239947503846111
 51
358.928871063951874
  0
ARC
  5
6734
  8
0
 10
4032.4618981196149434
 20
222.1660271055521036
 30
0.0
 40
0.1005140973592652
 50
287.8910610828879726
 51
1.5801595494002489
  0
ARC
  5
6735
  8
0
 10
4032.4549735228570171
 20
222.8753355447769025
 30
0.0
 40
0.1074214854567497
 50
1.133334695427725
 51
69.395444672297586
  0
LINE
  5
6736
  8
0
 10
4027.411252849360153
 20
162.2879250254270005
 30
0.0
 11
4027.8647660591909698
 21
162.2879250254270005
 31
0.0
  0
LINE
  5
6737
  8
0
 10
4074.7391245818598691
 20
235.4026449933269873
 30
0.0
 11
4074.6877002802598327
 21
235.439007465626986
 31
0.0
  0
LINE
  5
6738
  8
0
 10
4073.4847398039601103
 20
162.2839900667624136
 30
0.0
 11
4064.8180350856600853
 21
162.2879250254270005
 31
0.0
  0
LINE
  5
6739
  8
0
 10
4063.3060252236600718
 20
162.3486019807270111
 30
0.0
 11
4064.8018094149601893
 21
162.3486019807270111
 31
0.0
  0
LINE
  5
673A
  8
0
 10
4063.8619389416599006
 20
162.3680153666269916
 30
0.0
 11
4060.8572063259598508
 21
162.3680153666269916
 31
0.0
  0
LINE
  5
673B
  8
0
 10
4063.8619389416599006
 20
163.0176216658269936
 30
0.0
 11
4060.5127181369598475
 21
163.0176216658269936
 31
0.0
  0
LINE
  5
673C
  8
0
 10
4060.0599622314598491
 20
163.0176216658269936
 30
0.0
 11
4059.9643011463608673
 21
163.0176216658269936
 31
0.0
  0
LINE
  5
673D
  8
0
 10
4075.5557383131599636
 20
158.1530507996270103
 30
0.0
 11
4075.5557383131599636
 21
160.5152555240269976
 31
0.0
  0
LINE
  5
673E
  8
0
 10
4074.9699424874597753
 20
235.3184051303269939
 30
0.0
 11
4074.9699424874597753
 21
160.5152555240269976
 31
0.0
  0
LINE
  5
673F
  8
0
 10
4074.9672307559608271
 20
235.3695862327271016
 30
0.0
 11
4074.9672307559608271
 21
235.3262791461270069
 31
0.0
  0
LINE
  5
6740
  8
0
 10
4074.7424525324599927
 20
235.3207113762269955
 30
0.0
 11
4074.7424525324599927
 21
235.3962158863270133
 31
0.0
  0
LINE
  5
6741
  8
0
 10
4074.7374885029598772
 20
235.3184051303269939
 30
0.0
 11
4074.7374885029598772
 21
160.5152555240269976
 31
0.0
  0
LINE
  5
6742
  8
0
 10
4073.4847398039601103
 20
235.3184051303269939
 30
0.0
 11
4073.4847398039601103
 21
160.5152555240269976
 31
0.0
  0
LINE
  5
6743
  8
0
 10
4073.022749888260023
 20
233.545735629027007
 30
0.0
 11
4073.0228749457669437
 21
162.2841997680484951
 31
0.0
  0
LINE
  5
6744
  8
0
 10
4072.4014850711600957
 20
235.3184051303269939
 30
0.0
 11
4072.4014850711600957
 21
235.3938797091269919
 31
0.0
  0
LINE
  5
6745
  8
0
 10
4069.5338687686607955
 20
222.7593500122270029
 30
0.0
 11
4069.5338687686607955
 21
222.2869090674269898
 31
0.0
  0
LINE
  5
6746
  8
0
 10
4069.3111579714600339
 20
222.8774602485270009
 30
0.0
 11
4069.3111579714600339
 21
222.8380901697269962
 31
0.0
  0
LINE
  5
6747
  8
0
 10
4069.3111579714600339
 20
222.2081689099269965
 30
0.0
 11
4069.3111579714600339
 21
222.1687988311269919
 31
0.0
  0
LINE
  5
6748
  8
0
 10
4068.9933993962599743
 20
222.7593500122270029
 30
0.0
 11
4068.9933993962599743
 21
222.2869090674269898
 31
0.0
  0
LINE
  5
6749
  8
0
 10
4068.9261904678610335
 20
222.7593500122270029
 30
0.0
 11
4068.9261904678610335
 21
222.2869090674269898
 31
0.0
  0
LINE
  5
674A
  8
0
 10
4068.6732526251598756
 20
222.6609248154269949
 30
0.0
 11
4068.6732526251598756
 21
222.3853342642269979
 31
0.0
  0
LINE
  5
674B
  8
0
 10
4068.3252670045599189
 20
222.8774602485270009
 30
0.0
 11
4068.3252670045599189
 21
222.1687988311269919
 31
0.0
  0
LINE
  5
674C
  8
0
 10
4068.2139116059602202
 20
222.1687988311269919
 30
0.0
 11
4068.2139116059602202
 21
222.8774602485270009
 31
0.0
  0
LINE
  5
674D
  8
0
 10
4068.1860727562598186
 20
222.8577752091269986
 30
0.0
 11
4068.1860727562598186
 21
222.1884838705269942
 31
0.0
  0
LINE
  5
674E
  8
0
 10
4065.8830377781600873
 20
233.2117082802269863
 30
0.0
 11
4065.8830377781600873
 21
233.545735629027007
 31
0.0
  0
LINE
  5
674F
  8
0
 10
4064.8180350856600853
 20
160.5152555240269976
 30
0.0
 11
4064.8180350856600853
 21
162.3289169414269963
 31
0.0
  0
LINE
  5
6750
  8
0
 10
4064.8180350856600853
 20
233.5047437130270112
 30
0.0
 11
4064.8180350856600853
 21
235.3184051303269939
 31
0.0
  0
LINE
  5
6751
  8
0
 10
4064.708040451161196
 20
233.4850586736270088
 30
0.0
 11
4064.708040451161196
 21
233.2117082797269916
 31
0.0
  0
LINE
  5
6752
  8
0
 10
4064.6271452239598148
 20
233.4850586736270088
 30
0.0
 11
4064.6271452239598148
 21
233.2117082800270111
 31
0.0
  0
LINE
  5
6753
  8
0
 10
4064.5923466618601196
 20
233.4850586736270088
 30
0.0
 11
4064.5923466618601196
 21
233.2313933193269975
 31
0.0
  0
LINE
  5
6754
  8
0
 10
4064.4201984519600046
 20
158.1530507996270103
 30
0.0
 11
4064.4201984519600046
 21
160.5152555240269976
 31
0.0
  0
LINE
  5
6755
  8
0
 10
4064.1961547413598055
 20
160.5152555240269976
 30
0.0
 11
4064.1961547413598055
 21
162.3486019807270111
 31
0.0
  0
LINE
  5
6756
  8
0
 10
4064.1961547413598055
 20
233.4850586736270088
 30
0.0
 11
4064.1961547413598055
 21
235.3184051303269939
 31
0.0
  0
LINE
  5
6757
  8
0
 10
4063.2981512078599735
 20
162.3407279650270141
 30
0.0
 11
4063.2981512078599735
 21
160.5152555240269976
 31
0.0
  0
LINE
  5
6758
  8
0
 10
4063.2981512078599735
 20
233.4929326894271071
 30
0.0
 11
4063.2981512078599735
 21
235.3184051303269939
 31
0.0
  0
LINE
  5
6759
  8
0
 10
4068.2835087300600208
 20
222.0703736343270975
 30
0.0
 11
4069.2300296182588681
 21
222.0703736343270975
 31
0.0
  0
LINE
  5
675A
  8
0
 10
4068.9933993962599743
 20
222.2081689099269965
 30
0.0
 11
4069.4666598402600357
 21
222.2081689099269965
 31
0.0
  0
LINE
  5
675B
  8
0
 10
4068.7289303244601797
 20
222.3065941067270046
 30
0.0
 11
4068.9261904678610335
 21
222.3065941067270046
 31
0.0
  0
LINE
  5
675C
  8
0
 10
4068.9261904678610335
 20
222.7396649729269882
 30
0.0
 11
4068.7398542227679172
 21
222.7396649729269882
 31
0.0
  0
LINE
  5
675D
  8
0
 10
4069.4666598402600357
 20
222.8380901697269962
 30
0.0
 11
4068.9933993962599743
 21
222.8380901697269962
 31
0.0
  0
LINE
  5
675E
  8
0
 10
4069.2300296182588681
 20
222.9758854453270089
 30
0.0
 11
4068.2835087300600208
 21
222.9758854453270089
 31
0.0
  0
LINE
  5
675F
  8
0
 10
4072.5161907899600919
 20
235.4400020754270031
 30
0.0
 11
4072.4067344158597734
 21
235.40130340322699
 31
0.0
  0
LINE
  5
6760
  8
0
 10
4065.8234675362609778
 20
233.1329681225269894
 30
0.0
 11
4064.6851291690600192
 21
233.1329681225269894
 31
0.0
  0
LINE
  5
6761
  8
0
 10
4059.9643011463608673
 20
233.135731902027004
 30
0.0
 11
4063.4879231935601638
 21
233.135731902027004
 31
0.0
  0
LINE
  5
6762
  8
0
 10
4059.9643011463608673
 20
233.1751019807271064
 30
0.0
 11
4063.9835901577598634
 21
233.1751019807271064
 31
0.0
  0
LINE
  5
6763
  8
0
 10
4063.3060252236600718
 20
233.4850586736270088
 30
0.0
 11
4064.801809415059779
 21
233.4850586736270088
 31
0.0
  0
LINE
  5
6764
  8
0
 10
4064.8180350856600853
 20
233.545735629027007
 30
0.0
 11
4073.4763881490589483
 21
233.545735629027007
 31
0.0
  0
LINE
  5
6765
  8
0
 10
4074.9672307559608271
 20
235.3262791461270069
 30
0.0
 11
4074.7424525324599927
 21
235.3262791461270069
 31
0.0
  0
LINE
  5
6766
  8
0
 10
4074.9593567401598193
 20
235.3774602485270009
 30
0.0
 11
4074.7424525324599927
 21
235.3774602485270009
 31
0.0
  0
LINE
  5
6767
  8
0
 10
4072.5188157261600281
 20
235.4404523744269966
 30
0.0
 11
4074.6831542151599024
 21
235.4404523744269966
 31
0.0
  0
ARC
  5
6768
  8
0
 10
4058.3498612822882023
 20
197.8995343739312034
 30
0.0
 40
0.5908178747845763
 50
271.6458775052718124
 51
88.2058600263963797
  0
ARC
  5
6769
  8
0
 10
4063.3060252236600718
 20
162.3407279650270141
 30
0.0
 40
0.0078740157
 50
90.0000000009119248
 51
180.0
  0
ARC
  5
676A
  8
0
 10
4074.9583110462717741
 20
235.3685405388395111
 30
0.0
 40
0.0089807958908206
 50
6.6864963978567609
 51
83.313503602192327
  0
ARC
  5
676B
  8
0
 10
4074.6824356241631904
 20
235.4303174814760098
 30
0.0
 40
0.010160336025457
 50
58.791247152295341
 51
85.9443631653921187
  0
ARC
  5
676C
  8
0
 10
4074.7330617437341971
 20
235.3954307468343927
 30
0.0
 40
0.0094235533066994
 50
4.7792362875038679
 51
49.9563740297102328
  0
ARC
  5
676D
  8
0
 10
4063.3064489651351323
 20
233.4933564309017129
 30
0.0
 40
0.0083085697304783
 50
182.923383472533402
 51
267.0766165274873742
  0
ARC
  5
676E
  8
0
 10
4074.7398170808151008
 20
235.3210405819581013
 30
0.0
 40
0.0026559333177782
 50
277.1201869367142763
 51
352.8798155479677234
  0
ARC
  5
676F
  8
0
 10
4072.5189022686749922
 20
235.4320719467565937
 30
0.0
 40
0.0083808745096042
 50
90.5916576987968369
 51
108.876643174431905
  0
ARC
  5
6770
  8
0
 10
4072.4099553747500977
 20
235.393458070482211
 30
0.0
 40
0.0084807913572022
 50
112.3209612287033963
 51
177.1502567256866882
  0
LINE
  5
6771
  8
0
 10
4074.7391245818598691
 20
235.4026449933269873
 30
0.0
 11
4073.518584779916182
 21
235.4026449933269873
 31
0.0
  0
LINE
  5
6772
  8
0
 10
4073.4673468646888068
 20
235.4026449933269873
 30
0.0
 11
4072.4105290056868398
 21
235.4026449933269873
 31
0.0
  0
ARC
  5
6773
  8
0
 10
4073.5218585204961528
 20
235.1329044695561947
 30
0.0
 40
0.2697603891262475
 50
90.6953434620946979
 51
94.1694254950182028
  0
ARC
  5
6774
  8
0
 10
4073.4929658421888234
 20
235.4681186483205124
 30
0.0
 40
0.0668152500946384
 50
262.0166677961187247
 51
277.9831969843648949
  0
ARC
  5
6775
  8
0
 10
4073.4717383668330513
 20
235.3133530207923059
 30
0.0
 40
0.0893998973724996
 50
82.3197331094527982
 51
92.8156166364673965
  0
ARC
  5
6776
  8
0
 10
4073.4759495703328867
 20
233.5574980358408084
 30
0.0
 40
0.0117705805019796
 50
272.1353686203619873
 51
318.3136764336895794
  0
ARC
  5
6777
  8
0
 10
4073.4759927365280419
 20
162.2762554317787931
 30
0.0
 40
0.0116762908059217
 50
41.484871051235281
 51
88.0593321888997167
  0
ARC
  5
6778
  8
0
 10
4065.7590047144030905
 20
233.2197164174986881
 30
0.0
 40
0.1242913157365735
 50
328.7559291389629266
 51
356.305851975315818
  0
ARC
  5
6779
  8
0
 10
4065.82114320007895
 20
233.1876833084259886
 30
0.0
 40
0.0547645332915618
 50
272.4324989228816776
 51
323.6823689728524869
  0
ARC
  5
677A
  8
0
 10
4064.6877416310280751
 20
233.1863033855761955
 30
0.0
 40
0.0533992063804556
 50
209.2251330215516987
 51
267.1957856666007842
  0
ARC
  5
677B
  8
0
 10
4064.7253519470518768
 20
233.2107662458911079
 30
0.0
 40
0.0982112411524617
 50
179.4504151744336014
 51
210.9674013888347019
  0
ARC
  5
677C
  8
0
 10
4064.6573329003990693
 20
233.2130582398949059
 30
0.0
 40
0.0612161742144124
 50
197.0440103737896891
 51
259.4208306477194128
  0
ARC
  5
677D
  8
0
 10
4064.6953184652029449
 20
233.2310118602904936
 30
0.0
 40
0.102972509897808
 50
179.7877487606974114
 51
200.4018526970525897
  0
ARC
  5
677E
  8
0
 10
4064.7958400580891976
 20
233.5044146218893104
 30
0.0
 40
0.0221974671944477
 50
324.2937153404712944
 51
0.8494763843261337
  0
ARC
  5
677F
  8
0
 10
4064.8014057333571145
 20
233.5003720623288075
 30
0.0
 40
0.0153187085737169
 50
271.5100443886187804
 51
324.4221578444655734
  0
ARC
  5
6780
  8
0
 10
4064.8228041667362049
 20
233.2178002310515978
 30
0.0
 40
0.1149252900089545
 50
183.0385545785941872
 51
216.6119999938134129
  0
ARC
  5
6781
  8
0
 10
4064.7670425020642142
 20
233.1819103298749098
 30
0.0
 40
0.0489637191712232
 50
221.8232812273363947
 51
268.3015414842848827
  0
ARC
  5
6782
  8
0
 10
4064.7958409685202241
 20
162.3292463183730945
 30
0.0
 40
0.0221965611022438
 50
359.149751105162693
 51
35.7070571214739232
  0
ARC
  5
6783
  8
0
 10
4064.8015166843770203
 20
162.3334975585732991
 30
0.0
 40
0.0151072585133858
 50
35.178077757844008
 51
88.8897206797809929
  0
ARC
  5
6784
  8
0
 10
4057.5633841734438647
 20
197.8994118721126085
 30
0.0
 40
0.4212872630760998
 50
271.9677217729907852
 51
89.1209834364212554
  0
ARC
  5
6785
  8
0
 10
4069.4607507388809609
 20
222.2812659265468085
 30
0.0
 40
0.07333547107517
 50
274.6216925980845076
 51
4.4132544422831828
  0
ARC
  5
6786
  8
0
 10
4069.4607837240828303
 20
222.765021307738607
 30
0.0
 40
0.0733047565552042
 50
355.5628209603981986
 51
85.4022319992398451
  0
ARC
  5
6787
  8
0
 10
4068.9993084977390936
 20
222.7649931530231129
 30
0.0
 40
0.0733354711670959
 50
94.6216926696561131
 51
184.4132543707229956
  0
ARC
  5
6788
  8
0
 10
4069.0741334259441828
 20
222.7613175504963863
 30
0.0
 40
0.0807580011878406
 50
108.0751633887875016
 51
181.3960572652059966
  0
ARC
  5
6789
  8
0
 10
4068.99957770462197
 20
222.281495709079195
 30
0.0
 40
0.0735866222088583
 50
175.7812573402144949
 51
265.183795619422483
  0
ARC
  5
678A
  8
0
 10
4069.0790837943059159
 20
222.2884419681950021
 30
0.0
 40
0.0856981088084252
 50
181.0249167667568884
 51
249.5038625795801011
  0
ARC
  5
678B
  8
0
 10
4068.7480300535239621
 20
222.6652122898263997
 30
0.0
 40
0.0749002418516454
 50
96.2666803232373809
 51
183.2815453703647108
  0
ARC
  5
678C
  8
0
 10
4068.7561624255718016
 20
222.3849052281933893
 30
0.0
 40
0.0829109104780031
 50
179.7035123175681974
 51
250.8252670285876889
  0
ARC
  5
678D
  8
0
 10
4069.2006420421521398
 20
222.8792392856460083
 30
0.0
 40
0.1105302474622357
 50
359.0777572429619227
 51
35.7903194811958727
  0
ARC
  5
678E
  8
0
 10
4069.2259423133550627
 20
222.8954377719329898
 30
0.0
 40
0.0805514383229337
 50
36.9686713026700815
 51
87.0914742785893452
  0
ARC
  5
678F
  8
0
 10
4068.2894662603848701
 20
222.9077503502668094
 30
0.0
 40
0.0683950535231206
 50
94.9970640538735296
 51
159.8046120282945139
  0
ARC
  5
6790
  8
0
 10
4068.3434430926608911
 20
222.8782990181564969
 30
0.0
 40
0.1295342023622422
 50
155.8175531680109884
 51
180.3710085423257965
  0
ARC
  5
6791
  8
0
 10
4068.2905371919628124
 20
222.8625099965971117
 30
0.0
 40
0.1045716813438362
 50
120.0112256621176954
 51
182.5951205295012869
  0
ARC
  5
6792
  8
0
 10
4069.1979680458648545
 20
222.1678599570564074
 30
0.0
 40
0.1131938193569646
 50
324.656304482864698
 51
0.4752391859378496
  0
ARC
  5
6793
  8
0
 10
4069.2279859577670322
 20
222.1469722835645086
 30
0.0
 40
0.0766259069324105
 50
271.5282952196783981
 51
324.4119800913391032
  0
ARC
  5
6794
  8
0
 10
4068.2905773065817812
 20
222.1405958592800971
 30
0.0
 40
0.0705770901313402
 50
197.000525682075704
 51
264.2519625646658028
  0
ARC
  5
6795
  8
0
 10
4068.3465024194870239
 20
222.1684211144986989
 30
0.0
 40
0.1325913515340226
 50
179.8367797169696871
 51
201.4376509723566926
  0
ARC
  5
6796
  8
0
 10
4068.3031356704877908
 20
222.1906725846949939
 30
0.0
 40
0.1170833735300386
 50
181.0711289360480976
 51
236.3760052496155026
  0
ARC
  5
6797
  8
0
 10
4068.4257428788050674
 20
222.1660271055521036
 30
0.0
 40
0.1005140973592652
 50
178.4198404505997075
 51
252.108938917111999
  0
ARC
  5
6798
  8
0
 10
4068.4326674755639033
 20
222.8753355447769025
 30
0.0
 40
0.1074214854567497
 50
110.6045553277023998
 51
178.8666653045723081
  0
LINE
  5
6799
  8
0
 10
4073.4763881490589483
 20
162.2879250254270005
 30
0.0
 11
4073.0228749392299505
 21
162.2879250254270005
 31
0.0
  0
ARC
  5
679A
  8
0
 10
4058.8753586829488995
 20
162.3687054554071949
 30
0.0
 40
0.0084365967125133
 50
119.0734661135377053
 51
171.2831082102019025
  0
ARC
  5
679B
  8
0
 10
4058.8798670344140191
 20
162.356484474965697
 30
0.0
 40
0.0214019389117615
 50
92.9586413703533481
 51
113.7160547469436978
  0
LINE
  5
679C
  8
0
 10
4059.4080388901597871
 20
162.3699840405269867
 30
0.0
 11
4059.4080388901597871
 21
162.2879250254270005
 31
0.0
  0
ARC
  5
679D
  8
0
 10
4059.3996997424710571
 20
162.3687054554071949
 30
0.0
 40
0.0084365967125133
 50
8.7168917897980762
 51
60.9265338864622308
  0
ARC
  5
679E
  8
0
 10
4059.395191391006847
 20
162.356484474965697
 30
0.0
 40
0.0214019389117615
 50
66.2839452530563165
 51
87.0413586296466377
  0
LINE
  5
679F
  8
0
 10
4040.6153614799231946
 20
198.4900626107269943
 30
0.0
 11
4058.3683589229981408
 21
198.4900626107269943
 31
0.0
  0
LINE
  5
67A0
  8
0
 10
4040.6168896313038204
 20
197.3089602485270007
 30
0.0
 11
4058.3668307716161507
 21
197.3089602485270007
 31
0.0
  0
ENDSEC
  0
EOF
