  0
SECTION
  2
HEADER
  9
$ACADVER
  1
AC1009
  9
$INSBASE
 10
3947.9269774562399107
 20
111.9227323314229068
 30
0.0
  9
$EXTMIN
 10
3919.7975179000932258
 20
99.9054666026033686
 30
0.0
  9
$EXTMAX
 10
3954.4544797659827964
 20
117.6117000909799941
 30
0.0
  9
$LIMMIN
 10
0.0
 20
0.0
  9
$LIMMAX
 10
11.6929133858000007
 20
8.2677165353999982
  9
$ORTHOMODE
 70
     0
  9
$REGENMODE
 70
     1
  9
$FILLMODE
 70
     1
  9
$QTEXTMODE
 70
     0
  9
$MIRRTEXT
 70
     0
  9
$DRAGMODE
 70
     2
  9
$LTSCALE
 40
0.6431102362
  9
$OSMODE
 70
  4095
  9
$ATTMODE
 70
     1
  9
$TEXTSIZE
 40
0.2
  9
$TRACEWID
 40
0.05
  9
$TEXTSTYLE
  7
STANDARD
  9
$CLAYER
  8
0
  9
$CELTYPE
  6
BYLAYER
  9
$CECOLOR
 62
   256
  9
$DIMSCALE
 40
1.0
  9
$DIMASZ
 40
0.1875
  9
$DIMEXO
 40
0.0625
  9
$DIMDLI
 40
0.4443307087
  9
$DIMRND
 40
0.0
  9
$DIMDLE
 40
0.0
  9
$DIMEXE
 40
0.125
  9
$DIMTP
 40
0.01
  9
$DIMTM
 40
0.01
  9
$DIMTXT
 40
2.0
  9
$DIMCEN
 40
0.1052362205
  9
$DIMTSZ
 40
0.0
  9
$DIMTOL
 70
     1
  9
$DIMLIM
 70
     0
  9
$DIMTIH
 70
     1
  9
$DIMTOH
 70
     1
  9
$DIMSE1
 70
     0
  9
$DIMSE2
 70
     0
  9
$DIMTAD
 70
     0
  9
$DIMZIN
 70
     0
  9
$DIMBLK
  1

  9
$DIMASO
 70
     1
  9
$DIMSHO
 70
     1
  9
$DIMPOST
  1
\X
  9
$DIMAPOST
  1

  9
$DIMALT
 70
     1
  9
$DIMALTD
 70
     2
  9
$DIMALTF
 40
25.3999999999999986
  9
$DIMLFAC
 40
1.0
  9
$DIMTOFL
 70
     0
  9
$DIMTVP
 40
0.0
  9
$DIMTIX
 70
     0
  9
$DIMSOXD
 70
     0
  9
$DIMSAH
 70
     0
  9
$DIMBLK1
  1

  9
$DIMBLK2
  1

  9
$DIMSTYLE
  2
STANDARD
  9
$DIMCLRD
 70
     0
  9
$DIMCLRE
 70
     0
  9
$DIMCLRT
 70
     0
  9
$DIMTFAC
 40
1.0
  9
$DIMGAP
 40
0.09
  9
$LUNITS
 70
     2
  9
$LUPREC
 70
     4
  9
$SKETCHINC
 40
0.1
  9
$FILLETRAD
 40
0.0
  9
$AUNITS
 70
     0
  9
$AUPREC
 70
     0
  9
$MENU
  1
.
  9
$ELEVATION
 40
0.0
  9
$PELEVATION
 40
0.0
  9
$THICKNESS
 40
0.0
  9
$LIMCHECK
 70
     0
  9
$BLIPMODE
 70
     0
  9
$CHAMFERA
 40
0.0
  9
$CHAMFERB
 40
0.0
  9
$SKPOLY
 70
     0
  9
$TDCREATE
 40
2458060.468368056230247
  9
$TDUPDATE
 40
2459096.4523379630409181
  9
$TDINDWG
 40
0.4127732639
  9
$TDUSRTIMER
 40
0.4127732639
  9
$USRTIMER
 70
     1
  9
$ANGBASE
 50
0.0
  9
$ANGDIR
 70
     0
  9
$PDMODE
 70
     0
  9
$PDSIZE
 40
0.3125
  9
$PLINEWID
 40
0.0
  9
$COORDS
 70
     1
  9
$SPLFRAME
 70
     0
  9
$SPLINETYPE
 70
     6
  9
$SPLINESEGS
 70
     8
  9
$ATTDIA
 70
     1
  9
$ATTREQ
 70
     1
  9
$HANDLING
 70
     1
  9
$HANDSEED
  5
7643
  9
$SURFTAB1
 70
     6
  9
$SURFTAB2
 70
     6
  9
$SURFTYPE
 70
     6
  9
$SURFU
 70
     6
  9
$SURFV
 70
     6
  9
$UCSNAME
  2

  9
$UCSORG
 10
0.0
 20
0.0
 30
0.0
  9
$UCSXDIR
 10
1.0
 20
0.0
 30
0.0
  9
$UCSYDIR
 10
0.0
 20
1.0
 30
0.0
  9
$PUCSNAME
  2

  9
$PUCSORG
 10
0.0
 20
0.0
 30
0.0
  9
$PUCSXDIR
 10
1.0
 20
0.0
 30
0.0
  9
$PUCSYDIR
 10
0.0
 20
1.0
 30
0.0
  9
$USERI1
 70
     0
  9
$USERI2
 70
     0
  9
$USERI3
 70
     0
  9
$USERI4
 70
     0
  9
$USERI5
 70
     0
  9
$USERR1
 40
0.0
  9
$USERR2
 40
0.0
  9
$USERR3
 40
0.0
  9
$USERR4
 40
0.0
  9
$USERR5
 40
0.0
  9
$WORLDVIEW
 70
     1
  9
$SHADEDGE
 70
     3
  9
$SHADEDIF
 70
    70
  9
$TILEMODE
 70
     1
  9
$MAXACTVP
 70
    64
  9
$PLIMCHECK
 70
     0
  9
$PEXTMIN
 10
1.0000000000000000E+20
 20
1.0000000000000000E+20
 30
1.0000000000000000E+20
  9
$PEXTMAX
 10
-1.0000000000000000E+20
 20
-1.0000000000000000E+20
 30
-1.0000000000000000E+20
  9
$PLIMMIN
 10
0.0
 20
0.0
  9
$PLIMMAX
 10
12.0
 20
9.0
  9
$UNITMODE
 70
     0
  9
$VISRETAIN
 70
     1
  9
$PLINEGEN
 70
     0
  9
$PSLTSCALE
 70
     1
  0
ENDSEC
  0
SECTION
  2
TABLES
  0
TABLE
  2
VPORT
 70
     1
  0
VPORT
  2
*ACTIVE
 70
     0
 10
0.0
 20
0.0
 11
1.0
 21
1.0
 12
182.8672008317751931
 22
-18.106013725709829
 13
0.0
 23
0.0
 14
1.0
 24
1.0
 15
0.0
 25
0.0
 16
0.0
 26
0.0
 36
5.1040778033513332
 17
3792.35791015625
 27
120.1806564331053977
 37
0.0
 40
114.8639516667641942
 41
2.005224660397074
 42
50.0
 43
0.0
 44
0.0
 50
0.0
 51
0.0
 71
     0
 72
   100
 73
     1
 74
     1
 75
     0
 76
     0
 77
     0
 78
     0
  0
ENDTAB
  0
TABLE
  2
LTYPE
 70
     2
  0
LTYPE
  2
CONTINUOUS
 70
     0
  3
Solid line
 72
    65
 73
     0
 40
0.0
  0
LTYPE
  2
PHANTOM2
 70
     0
  3
___ _ _ ___ _ _ ___ _ _ ___ _ _
 72
    65
 73
     6
 40
1.25
 49
0.625
 49
-0.125
 49
0.125
 49
-0.125
 49
0.125
 49
-0.125
  0
ENDTAB
  0
TABLE
  2
LAYER
 70
     2
  0
LAYER
  2
0
 70
     0
 62
   255
  6
CONTINUOUS
  0
LAYER
  2
DEFPOINTS
 70
     0
 62
     7
  6
CONTINUOUS
  0
ENDTAB
  0
TABLE
  2
STYLE
 70
     1
  0
STYLE
  2
STANDARD
 70
     0
 40
0.0
 41
0.8
 50
0.0
 71
     0
 42
0.2
  3
txt
  4

  0
ENDTAB
  0
TABLE
  2
VIEW
 70
     0
  0
ENDTAB
  0
TABLE
  2
UCS
 70
     0
  0
ENDTAB
  0
TABLE
  2
APPID
 70
     9
  0
APPID
  2
ACAD
 70
     0
  0
APPID
  2
ACAD_MLEADERVER
 70
     0
  0
APPID
  2
ACAD_EXEMPT_FROM_CAD_STANDARDS
 70
     0
  0
APPID
  2
ACAD_NAV_VCDISPLAY
 70
     0
  0
APPID
  2
ACAECLAYERSTANDARD
 70
     0
  0
APPID
  2
ACCMTRANSPARENCY
 70
     0
  0
APPID
  2
ACAD_DSTYLE_DIMJAG
 70
     0
  0
APPID
  2
ACAD_DSTYLE_DIMTALN
 70
     0
  0
APPID
  2
ACDBATTR
 70
     0
  0
ENDTAB
  0
TABLE
  2
DIMSTYLE
 70
     1
  0
DIMSTYLE
  2
STANDARD
 70
     0
  3

  4

  5

  6

  7

 40
1.0
 41
0.1875
 42
0.0625
 43
0.38
 44
0.125
 45
0.0
 46
0.0
 47
0.01
 48
0.01
140
0.15625
141
0.09
142
0.0
143
25.3999999999999986
144
1.0
145
0.0
146
1.0
147
0.09
 71
     1
 72
     0
 73
     1
 74
     1
 75
     0
 76
     0
 77
     0
 78
     4
170
     0
171
     2
172
     0
173
     0
174
     0
175
     0
176
     0
177
     0
178
     0
  0
ENDTAB
  0
ENDSEC
  0
SECTION
  2
BLOCKS
  0
BLOCK
  8
0
  2
$MODEL_SPACE
 70
     0
 10
0.0
 20
0.0
 30
0.0
  3
$MODEL_SPACE
  1

  0
ENDBLK
  5
21
  8
0
  0
BLOCK
 67
     1
  8
0
  2
$PAPER_SPACE
 70
     0
 10
0.0
 20
0.0
 30
0.0
  3
$PAPER_SPACE
  1

  0
ENDBLK
  5
1D
 67
     1
  8
0
  0
BLOCK
  8
0
  2
_FILLED
 70
     0
 10
0.0
 20
0.0
 30
0.0
  3
_FILLED
  1

  0
SOLID
  5
69B4
  8
0
  6
BYBLOCK
 62
     0
 10
0.0
 20
0.0
 30
0.0
 11
-1.0
 21
0.1666666667
 31
0.0
 12
-1.0
 22
-0.1666666667
 32
0.0
 13
-1.0
 23
-0.1666666667
 33
0.0
  0
ENDBLK
  5
69B5
  8
0
  6
BYBLOCK
 62
     0
  0
BLOCK
  8
0
  2
A$CDFAF6206
 70
     0
 10
0.0
 20
0.0
 30
0.0
  3
A$CDFAF6206
  1

  0
LINE
  5
6A0E
  8
0
 10
7.4646650085734834
 20
10.9287685970688493
 30
0.0
 11
7.4646650085734896
 21
10.8905784766688498
 31
0.0
  0
ARC
  5
6A0F
  8
0
 10
7.7269027075262349
 20
10.8926811525838598
 30
0.0
 40
0.2622461286616791
 50
180.4593995232625048
 51
217.0214027758331099
  0
LINE
  5
6A10
  8
0
 10
9.767814609867095
 20
10.9287685970688493
 30
0.0
 11
9.767814609867095
 21
10.8905433757650094
 31
0.0
  0
ARC
  5
6A11
  8
0
 10
9.5068669568548287
 20
10.8922438613003703
 30
0.0
 40
0.2609531936261092
 50
322.8847083717149076
 51
359.6266329125650145
  0
LINE
  5
6A12
  8
0
 10
7.517522606271406
 20
10.7347792678688396
 30
0.0
 11
9.7149570120691777
 21
10.7347792678688396
 31
0.0
  0
LINE
  5
6A13
  8
0
 10
7.4646650085734834
 20
10.9287685970688493
 30
0.0
 11
9.7678146123202936
 21
10.9287685970688493
 31
0.0
  0
ARC
  5
6A14
  8
0
 10
4.0826771419203629
 20
8.527951346868889
 30
0.0
 40
4.0826771653999172
 50
13.3117747050523896
 51
32.7200330051415591
  0
ARC
  5
6A15
  8
0
 10
4.0826771460567306
 20
8.5279513475907933
 30
0.0
 40
4.0826771612084691
 50
359.6656501984817851
 51
13.3117747085593798
  0
ARC
  5
6A16
  8
0
 10
13.1498041284835097
 20
8.5279508235212234
 30
0.0
 40
4.0826788382043553
 50
147.2799733478981068
 51
166.6882233021349862
  0
ARC
  5
6A17
  8
0
 10
13.1498064934207992
 20
8.5279506557033251
 30
0.0
 40
4.0826811782395342
 50
166.688228652086309
 51
180.3343397625230011
  0
LINE
  5
6A18
  8
0
 10
8.1652847935202928
 20
8.504127000268852
 30
0.0
 11
9.0671948248202892
 21
8.5041270002687881
 31
0.0
  0
LINE
  5
6A19
  8
0
 10
8.1652847935202786
 20
8.5041270002667204
 30
0.0
 11
8.1652847935202928
 21
8.3607006934688481
 31
0.0
  0
ARC
  5
6A1A
  8
0
 10
5.6196779630382627
 20
8.3631022096452732
 30
0.0
 40
2.545607963272567
 50
342.0511668832173768
 51
359.945947387132378
  0
LINE
  5
6A1B
  8
0
 10
9.0671948248202892
 20
8.5041270002687881
 30
0.0
 11
9.0671948248202892
 21
8.2885990108688503
 31
0.0
  0
ARC
  5
6A1C
  8
0
 10
9.4521885297801163
 20
7.9614488056228501
 30
0.0
 40
0.5052201595850959
 50
139.6436242991769916
 51
174.6757930071850069
  0
ARC
  5
6A1D
  8
0
 10
9.9238413395551746
 20
8.1492417579399508
 30
0.0
 40
0.9848265662939324
 50
188.2263441834095943
 51
209.5593615864376034
  0
ARC
  5
6A1E
  8
0
 10
8.0788764238271256
 20
7.5665710856463297
 30
0.0
 40
0.0393715937169877
 50
162.1669117288323037
 51
227.2023190037006088
  0
ARC
  5
6A1F
  8
0
 10
8.7223682141740682
 20
8.2079667397440517
 30
0.0
 40
0.947895137885075
 50
225.0018610752970858
 51
261.4598823366255829
  0
ARC
  5
6A20
  8
0
 10
8.6645157662702701
 20
8.1695128573935332
 30
0.0
 40
0.9027466462812931
 50
264.7303071214498118
 51
281.8608311947915013
  0
ARC
  5
6A21
  8
0
 10
8.6645157662698935
 20
8.1695128573999671
 30
0.0
 40
0.9027466462876658
 50
299.1741886792128753
 51
299.1743179154552195
  0
ARC
  5
6A22
  8
0
 10
9.0843330931590316
 20
7.4150554710086141
 30
0.0
 40
0.0393703053609601
 50
251.9700352025496954
 51
252.4698971938937859
  0
ARC
  5
6A23
  8
0
 10
9.0843330931590316
 20
7.4150554710086141
 30
0.0
 40
0.0393703053609601
 50
297.2453716727138726
 51
6.8376113572703074
  0
LINE
  5
6A24
  8
0
 10
9.0671948248202892
 20
7.663402160468852
 30
0.0
 11
9.1234233799329516
 21
7.419742732911689
 31
0.0
  0
ARC
  5
6A25
  8
0
 10
8.8843741880892395
 20
9.8961379890094676
 30
0.0
 40
2.5255097382132701
 50
263.792800240752797
 51
274.9514951129821156
  0
ARC
  5
6A26
  8
0
 10
8.8258167405968848
 20
9.2763025889666508
 30
0.0
 40
1.9029970832759311
 50
246.0108363320686067
 51
263.5276935074397215
  0
ARC
  5
6A27
  8
0
 10
8.607491361665744
 20
8.3225444804829642
 30
0.0
 40
1.064510137163637
 50
283.1717405874071005
 51
297.7022170607311864
  0
LINE
  5
6A28
  8
0
 10
9.0671948248202892
 20
8.2885990108688503
 30
0.0
 11
26.2014378595979593
 21
8.2885990108689942
 31
0.0
  0
LINE
  5
6A29
  8
0
 10
26.2014378595979913
 20
7.6634021604689053
 30
0.0
 11
9.0671948248202892
 21
7.6634021604688618
 31
0.0
  0
LINE
  5
6A2A
  8
0
 10
27.8039676758446994
 20
10.9287685970690802
 30
0.0
 11
27.8039676758446888
 21
10.8905784766690807
 31
0.0
  0
ARC
  5
6A2B
  8
0
 10
27.5417299768919399
 20
10.8926811525840801
 30
0.0
 40
0.2622461286616791
 50
322.9785972241680838
 51
359.5406004767386889
  0
LINE
  5
6A2C
  8
0
 10
25.5008180745510913
 20
10.9287685970690305
 30
0.0
 11
25.5008180745510913
 21
10.8905433757651799
 31
0.0
  0
ARC
  5
6A2D
  8
0
 10
25.7617657275633505
 20
10.8922438613005497
 30
0.0
 40
0.2609531936261092
 50
180.3733670874362929
 51
217.1152916282862861
  0
LINE
  5
6A2E
  8
0
 10
27.7511100781467803
 20
10.7347792678690706
 30
0.0
 11
25.5536756723490015
 21
10.7347792678690208
 31
0.0
  0
LINE
  5
6A2F
  8
0
 10
27.8039676758446888
 20
10.9287685970686006
 30
0.0
 11
25.5008180745510806
 21
10.9287685970686006
 31
0.0
  0
ARC
  5
6A30
  8
0
 10
31.1859555424978616
 20
8.5279513468691981
 30
0.0
 40
4.0826771653999172
 50
147.2799669948597057
 51
166.6882252949490066
  0
ARC
  5
6A31
  8
0
 10
31.185955538361501
 20
8.5279513475911024
 30
0.0
 40
4.0826771612084691
 50
166.6882252914419098
 51
180.3343498015194086
  0
ARC
  5
6A32
  8
0
 10
22.1188285559344706
 20
8.5279508235212251
 30
0.0
 40
4.0826788382046102
 50
13.3117766978667795
 51
32.7200266521023977
  0
ARC
  5
6A33
  8
0
 10
22.1188261909974315
 20
8.5279506557034264
 30
0.0
 40
4.0826811782395342
 50
359.665660237478221
 51
13.31177134791497
  0
LINE
  5
6A34
  8
0
 10
27.1033478908979397
 20
8.5041270002690652
 30
0.0
 11
26.2014378595979416
 21
8.5041270002689835
 31
0.0
  0
LINE
  5
6A35
  8
0
 10
27.1033478908979504
 20
8.5041270002669354
 30
0.0
 11
27.1033478908979397
 21
8.3607006934690649
 31
0.0
  0
ARC
  5
6A36
  8
0
 10
29.6489547213799689
 20
8.3631022096455467
 30
0.0
 40
2.545607963272567
 50
180.0540526128687873
 51
197.9488331167837032
  0
LINE
  5
6A37
  8
0
 10
26.2014378595979416
 20
8.5041270002689835
 30
0.0
 11
26.2014378595979487
 21
8.2885990108690457
 31
0.0
  0
ARC
  5
6A38
  8
0
 10
25.8164441546381305
 20
7.9614488056230366
 30
0.0
 40
0.5052201595850959
 50
5.324206992816312
 51
40.3563757008241879
  0
ARC
  5
6A39
  8
0
 10
25.3447913448601803
 20
8.149241757940846
 30
0.0
 40
0.9848265662968968
 50
330.4406384136033807
 51
351.7736558165743759
  0
ARC
  5
6A3A
  8
0
 10
27.1897562605911212
 20
7.5665710856465473
 30
0.0
 40
0.0393715937169877
 50
312.7976809963004143
 51
17.8330882711689185
  0
ARC
  5
6A3B
  8
0
 10
26.5462644702441715
 20
8.2079667397442542
 30
0.0
 40
0.947895137885075
 50
278.5401176633754972
 51
314.9981389247041079
  0
ARC
  5
6A3C
  8
0
 10
26.6041169181479695
 20
8.1695128573937392
 30
0.0
 40
0.9027466462812931
 50
258.139168805210204
 51
275.2696928785518935
  0
ARC
  5
6A3D
  8
0
 10
26.6041169181483497
 20
8.1695128574001732
 30
0.0
 40
0.9027466462876658
 50
240.8256820845460027
 51
240.8258113207880058
  0
ARC
  5
6A3E
  8
0
 10
26.1842995912592293
 20
7.4150554710088086
 30
0.0
 40
0.0393703053609601
 50
287.5301028061073794
 51
288.0299647974517825
  0
ARC
  5
6A3F
  8
0
 10
26.1842995912592293
 20
7.4150554710088086
 30
0.0
 40
0.0393703053609601
 50
173.1623886427310026
 51
242.7546283272870085
  0
LINE
  5
6A40
  8
0
 10
26.2014378595981192
 20
7.6634021604690448
 30
0.0
 11
26.1452093044853093
 21
7.4197427329118826
 31
0.0
  0
ARC
  5
6A41
  8
0
 10
26.384258496328961
 20
9.8961379890096666
 30
0.0
 40
2.5255097382132701
 50
265.0485048870193054
 51
276.2071997592482262
  0
ARC
  5
6A42
  8
0
 10
26.4428159438213299
 20
9.2763025889668516
 30
0.0
 40
1.9029970832759311
 50
276.4723064925619838
 51
293.9891636679327007
  0
ARC
  5
6A43
  8
0
 10
26.6611413227524885
 20
8.3225444804831703
 30
0.0
 40
1.064510137163637
 50
242.2977829392704052
 51
256.8282594125943774
  0
LINE
  5
6A44
  8
0
 62
     4
 10
17.9031473532159602
 20
10.9287685970686006
 30
0.0
 11
24.6329820359843588
 21
20.0952817181593808
 31
0.0
  0
LINE
  5
6A45
  8
0
 62
     4
 10
17.9031473532159602
 20
-0.0000000300842942
 30
0.0
 11
22.3963351323106608
 21
4.993614497796286
 31
0.0
  0
ENDBLK
  5
6A49
  8
0
  0
BLOCK
  8
0
  2
A$C4C1C77A0
 70
     0
 10
0.0
 20
0.0
 30
0.0
  3
A$C4C1C77A0
  1

  0
LINE
  5
735C
  8
0
 10
17.9958030588605205
 20
49.356461955492918
 30
0.0
 11
27.0509211690605191
 21
49.356461955492918
 31
0.0
  0
LINE
  5
735D
  8
0
 10
27.0509211690605191
 20
49.356461955492918
 30
0.0
 11
27.0252270013629889
 21
49.0627762746018092
 31
0.0
  0
LINE
  5
735E
  8
0
 10
17.9958030588605205
 20
49.356461955492918
 30
0.0
 11
18.0215208562763003
 21
49.0625061683037913
 31
0.0
  0
LINE
  5
735F
  8
0
 10
18.0607411108605191
 20
49.0265673876929071
 30
0.0
 11
19.9053656992515791
 21
49.0265673876929071
 31
0.0
  0
LINE
  5
7360
  8
0
 10
21.1414723501605195
 20
49.0265673876929071
 30
0.0
 11
23.5784802241605185
 21
49.0265673876929071
 31
0.0
  0
LINE
  5
7361
  8
0
 10
25.4682440037605211
 20
49.0265673876929071
 30
0.0
 11
26.9859831170605204
 21
49.0265673876929071
 31
0.0
  0
ARC
  5
7362
  8
0
 10
18.0607413546218183
 20
49.0659377196032835
 30
0.0
 40
0.0393703319111217
 50
185.0002933113781012
 51
269.9996452533380875
  0
ARC
  5
7363
  8
0
 10
26.985982045410271
 20
49.0659396288907317
 30
0.0
 40
0.0393722412124071
 50
270.0015595006639728
 51
355.3916156939504276
  0
LINE
  5
7364
  8
0
 10
18.0171086329258614
 20
49.1129381293929086
 30
0.0
 11
27.0296155949951711
 21
49.1129381293929086
 31
0.0
  0
LINE
  5
7365
  8
0
 10
19.9053656992515791
 20
49.0265673876929071
 30
0.0
 11
19.9053656992515791
 21
43.0816854978929129
 31
0.0
  0
LINE
  5
7366
  8
0
 10
21.1414723502694493
 20
49.0265673876929071
 30
0.0
 11
21.1414723502694493
 21
43.0816854978929129
 31
0.0
  0
ARC
  5
7367
  8
0
 10
20.5234190247605213
 20
43.0816285872170326
 30
0.0
 40
0.618053328129119
 50
179.9947241744471
 51
0.0052758255528576
  0
LINE
  5
7368
  8
0
 10
23.5784802241605185
 20
49.0265673876929071
 30
0.0
 11
23.5784802241605185
 21
48.6777217979929233
 31
0.0
  0
ARC
  5
7369
  8
0
 10
23.5981652635605208
 20
48.6777217979929233
 30
0.0
 40
0.0196850394000002
 50
179.9999864736890061
 51
270.0
  0
ARC
  5
736A
  8
0
 10
23.7320235312605305
 20
48.6580367586929086
 30
0.0
 40
0.0787401575000111
 50
180.0000000000036096
 51
227.8816838914970901
  0
ARC
  5
736B
  8
0
 10
23.6000031027746111
 20
48.512020718602777
 30
0.0
 40
0.1181102361832281
 50
356.3880125919343982
 51
47.8806235546559265
  0
ARC
  5
736C
  8
0
 10
24.5233621139614684
 20
48.453733941192958
 30
0.0
 40
0.8070866142009494
 50
176.3880143241592009
 51
185.5437054533969956
  0
ARC
  5
736D
  8
0
 10
23.6336167941369197
 20
48.4735833054035083
 30
0.0
 40
0.0466720062478849
 50
92.1911972405511051
 51
180.021452697677006
  0
ARC
  5
736E
  8
0
 10
23.6227313283433311
 20
48.4735652711492406
 30
0.0
 40
0.0357865371871827
 50
179.9991045168848984
 51
194.4759882749482074
  0
ARC
  5
736F
  8
0
 10
23.8582639617991497
 20
48.5510699878059526
 30
0.0
 40
0.283676841206218
 50
197.7431052817671002
 51
209.8040544603285866
  0
ARC
  5
7370
  8
0
 10
23.8953218565300816
 20
48.5646190499474386
 30
0.0
 40
0.3226362528815314
 50
208.6208632489154979
 51
225.8161669895997079
  0
ARC
  5
7371
  8
0
 10
24.1080906494601415
 20
48.8003869240280181
 30
0.0
 40
0.6401067773198004
 50
226.8673726977964975
 51
245.9101581435652975
  0
ARC
  5
7372
  8
0
 10
24.4185615864976704
 20
49.4999490534060413
 30
0.0
 40
1.4054677059706839
 50
245.9961079424890897
 51
262.8055919509869796
  0
ARC
  5
7373
  8
0
 10
24.5215102597552992
 20
50.1061645612038191
 30
0.0
 40
2.019973510186416
 50
262.0619103065664035
 51
270.0467070948998867
  0
ARC
  5
7374
  8
0
 10
23.6390247866086582
 20
48.5145227043739382
 30
0.0
 40
0.0057513250499907
 50
97.7729443382999506
 51
152.3098183672049117
  0
ARC
  5
7375
  8
0
 10
23.64572154238164
 20
48.5125979785937815
 30
0.0
 40
0.0126540595331092
 50
158.6965505068845914
 51
191.7198349340563936
  0
ARC
  5
7376
  8
0
 10
23.8875927362232083
 20
48.5917272543100083
 30
0.0
 40
0.2670650044991137
 50
197.8133239067391003
 51
213.1430765692988132
  0
ARC
  5
7377
  8
0
 10
23.951847846505121
 20
48.6190308682397969
 30
0.0
 40
0.3360181202552093
 50
211.0506150963298069
 51
226.3828616211320934
  0
ARC
  5
7378
  8
0
 10
24.1375132717661209
 20
48.8222338288363176
 30
0.0
 40
0.6112359345979376
 50
226.9229267037985949
 51
243.8841249300492962
  0
ARC
  5
7379
  8
0
 10
24.3919273969277697
 20
49.347668785172857
 30
0.0
 40
1.1950203854797601
 50
244.0207824198434992
 51
258.4259580977425799
  0
ARC
  5
737A
  8
0
 10
24.5186093407930485
 20
49.9259968677865231
 30
0.0
 40
1.7870238445822619
 50
258.1670975558877217
 51
270.152379917152075
  0
LINE
  5
737B
  8
0
 10
23.6318323233605199
 20
48.5202211851929093
 30
0.0
 11
23.7178283133173515
 21
48.5202211851929093
 31
0.0
  0
LINE
  5
737C
  8
0
 10
23.5981652792365004
 20
48.658036758592921
 30
0.0
 11
25.4485589486845392
 21
48.658036758592921
 31
0.0
  0
LINE
  5
737D
  8
0
 10
23.5869447911605192
 20
48.4735658304616308
 30
0.0
 11
23.5869447911605192
 21
46.9441455885929173
 31
0.0
  0
ARC
  5
737E
  8
0
 10
23.6263148698605185
 20
46.9441404284929078
 30
0.0
 40
0.0393700787999998
 50
180.0153550932973019
 51
263.0741707702998724
  0
ARC
  5
737F
  8
0
 10
24.5256351833856492
 20
54.3374719111877269
 30
0.0
 40
7.4871971062804432
 50
263.0646980989794201
 51
269.9826053347971992
  0
LINE
  5
7380
  8
0
 10
25.4682434957605217
 20
49.0265673876929071
 30
0.0
 11
25.4682434957605217
 21
48.6777217979929233
 31
0.0
  0
ARC
  5
7381
  8
0
 10
25.4485593235596816
 20
48.6777209308095777
 30
0.0
 40
0.0196841722199465
 50
269.9989544596845121
 51
0.0025241571915697
  0
ARC
  5
7382
  8
0
 10
25.314700696660509
 20
48.6580367586929086
 30
0.0
 40
0.0787401575000111
 50
312.1183161085028814
 51
359.9999999999964189
  0
ARC
  5
7383
  8
0
 10
25.4467211251464285
 20
48.512020718602777
 30
0.0
 40
0.1181102361832281
 50
132.119376445344102
 51
183.6119874080654881
  0
ARC
  5
7384
  8
0
 10
24.5233621139595712
 20
48.453733941192958
 30
0.0
 40
0.8070866142009494
 50
354.456294546602976
 51
3.611985675840752
  0
ARC
  5
7385
  8
0
 10
25.4131080377223313
 20
48.4735843953570509
 30
0.0
 40
0.04667089400355
 50
359.9752186714380855
 51
87.8094924845640747
  0
ARC
  5
7386
  8
0
 10
25.4239616305765885
 20
48.4735672031093685
 30
0.0
 40
0.0358172969090301
 50
345.533523062087113
 51
359.9952111547971754
  0
ARC
  5
7387
  8
0
 10
25.1884602661219006
 20
48.5510699878059526
 30
0.0
 40
0.283676841206218
 50
330.1959455396714134
 51
342.2568947182328998
  0
ARC
  5
7388
  8
0
 10
25.1514023713909616
 20
48.5646190499474386
 30
0.0
 40
0.3226362528815314
 50
314.1838330104004058
 51
331.3791367510841042
  0
ARC
  5
7389
  8
0
 10
24.9386335784609017
 20
48.8003869240280181
 30
0.0
 40
0.6401067773198004
 50
294.0898418564345889
 51
313.1326273022035025
  0
ARC
  5
738A
  8
0
 10
24.6281626414233692
 20
49.4999490534060413
 30
0.0
 40
1.4054677059706839
 50
277.1944080490130204
 51
294.003892057510825
  0
ARC
  5
738B
  8
0
 10
24.5252061039694311
 20
50.1062394802002729
 30
0.0
 40
2.020048797370193
 50
269.9418780320999076
 51
277.9380171480258923
  0
ARC
  5
738C
  8
0
 10
25.4076994413123813
 20
48.5145227043739382
 30
0.0
 40
0.0057513250499907
 50
27.6901816327950314
 51
82.2270556617000352
  0
ARC
  5
738D
  8
0
 10
25.4010026855393889
 20
48.5125979785937815
 30
0.0
 40
0.0126540595331092
 50
348.2801650659434927
 51
21.3034494931153304
  0
ARC
  5
738E
  8
0
 10
25.1591314916978313
 20
48.5917272543100083
 30
0.0
 40
0.2670650044991137
 50
326.8569234307012152
 51
342.1866760932609282
  0
ARC
  5
738F
  8
0
 10
25.0948763814159186
 20
48.6190308682397969
 30
0.0
 40
0.3360181202552093
 50
313.6171383788675939
 51
328.9493849036701931
  0
ARC
  5
7390
  8
0
 10
24.9092109561549293
 20
48.8222338288363176
 30
0.0
 40
0.6112359345979376
 50
296.1158750699506754
 51
313.0770732962013767
  0
ARC
  5
7391
  8
0
 10
24.6547968309932699
 20
49.347668785172857
 30
0.0
 40
1.1950203854797601
 50
281.5740419022571928
 51
295.9792175801565008
  0
ARC
  5
7392
  8
0
 10
24.5281148771724595
 20
49.9259969318248409
 30
0.0
 40
1.787023909301209
 50
269.8476118803931172
 51
281.8329023354983747
  0
LINE
  5
7393
  8
0
 10
25.4148919045605197
 20
48.5202211851929093
 30
0.0
 11
25.3288959146036916
 21
48.5202211851929093
 31
0.0
  0
LINE
  5
7394
  8
0
 10
25.4597789273605208
 20
48.4735642094597168
 30
0.0
 11
25.4597789273605208
 21
46.9441455885929173
 31
0.0
  0
ARC
  5
7395
  8
0
 10
25.4204098611973706
 20
46.9441394700060926
 30
0.0
 40
0.0393690666386077
 50
276.9252705397001932
 51
0.0089046866761711
  0
ARC
  5
7396
  8
0
 10
24.5210890445353904
 20
54.3374719111877269
 30
0.0
 40
7.4871971062804432
 50
270.0173946652026871
 51
276.9353019010205799
  0
ARC
  5
7397
  8
0
 10
24.5233616022605609
 20
24.5233621326283497
 30
0.0
 40
24.5233621391100698
 50
87.676786755210955
 51
92.3232132447892866
  0
ARC
  5
7398
  8
0
 10
19.8977519432667513
 20
48.7002695248269504
 30
0.0
 40
0.330698232643588
 50
88.7004725279185209
 51
98.0666509110873932
  0
LINE
  5
7399
  8
0
 10
19.8513467258605196
 20
49.0276956643929225
 30
0.0
 11
19.8592688558605097
 21
49.0265673876929071
 31
0.0
  0
ARC
  5
739A
  8
0
 10
21.1487123521522591
 20
48.6960992843965528
 30
0.0
 40
0.3348728492202911
 50
81.9898226012358293
 51
91.2388399837641941
  0
LINE
  5
739B
  8
0
 10
21.1953774943605211
 20
49.0276956643929225
 30
0.0
 11
21.1884845223644795
 21
49.0265673876929071
 31
0.0
  0
ARC
  5
739C
  8
0
 10
20.5237266067086601
 20
-192.7964638794800862
 30
0.0
 40
241.8281268312460952
 50
89.8536387686760065
 51
90.1465070595572087
  0
LINE
  5
739D
  8
0
 10
23.6215674538420188
 20
46.9050576298998507
 30
0.0
 11
25.4300723413605212
 21
46.9059761391929086
 31
0.0
  0
LINE
  5
739E
  8
0
 62
     4
 10
20.5234190247605213
 20
49.356461955492918
 30
0.0
 11
25.42087290931903
 21
53.5379633247535196
 31
0.0
  0
ENDBLK
  5
73A2
  8
0
  0
ENDSEC
  0
SECTION
  2
ENTITIES
  0
ATTDEF
  5
3930
  8
DEFPOINTS
 10
3947.9292044815128975
 20
111.9287065696660051
 30
0.0
 40
0.001
  1
K-8124A-4ND
  3

  2
MODELNUMBER
 70
     0
1001
ACDBATTR
1070
     0
1070
     1
  0
ATTDEF
  5
3931
  8
DEFPOINTS
 10
3947.9292044815128975
 20
111.9270399029993968
 30
0.0
 40
0.001
  1
VITEO
  3

  2
TRADENAME
 70
     0
1001
ACDBATTR
1070
     0
1070
     1
  0
ATTDEF
  5
3932
  8
DEFPOINTS
 10
3947.9292044815128975
 20
111.9253732363327032
 30
0.0
 40
0.001
  1
BATH SPOUT
  3

  2
PRODUCT
 70
     0
1001
ACDBATTR
1070
     0
1070
     1
  0
LINE
  5
7584
  8
0
 10
3945.3993616557831956
 20
111.9227323314229068
 30
0.0
 11
3954.4544797659827964
 21
111.9227323314229068
 31
0.0
  0
LINE
  5
7585
  8
0
 10
3954.4544797659827964
 20
111.9227323314229068
 30
0.0
 11
3954.4287855982352085
 21
111.6290466505318051
 31
0.0
  0
LINE
  5
7586
  8
0
 10
3945.3993616557831956
 20
111.9227323314229068
 30
0.0
 11
3945.4250794531490101
 21
111.6287765442337019
 31
0.0
  0
LINE
  5
7587
  8
0
 10
3945.464299707733062
 20
111.5928377636227964
 30
0.0
 11
3947.3089239652890683
 21
111.5928377636227964
 31
0.0
  0
LINE
  5
7588
  8
0
 10
3948.5450309471921173
 20
111.5928377636227964
 30
0.0
 11
3950.932826222633139
 21
111.5928377636227964
 31
0.0
  0
LINE
  5
7589
  8
0
 10
3952.9210141756329904
 20
111.5928377636227964
 30
0.0
 11
3954.3895417139328856
 21
111.5928377636227964
 31
0.0
  0
ARC
  5
758A
  8
0
 10
3945.4642999514940129
 20
111.6322080955332012
 30
0.0
 40
0.0393703319111217
 50
185.0002933113783001
 51
269.9996452533500815
  0
ARC
  5
758B
  8
0
 10
3954.3895406422830092
 20
111.6322100048207062
 30
0.0
 40
0.0393722412124071
 50
270.001559500654821
 51
355.3916156939508255
  0
LINE
  5
758C
  8
0
 10
3945.4206672297991645
 20
111.6792085053229044
 30
0.0
 11
3954.4331741918681473
 21
111.6792085053229044
 31
0.0
  0
LINE
  5
758D
  8
0
 10
3947.3089239652890683
 20
111.5928377636227964
 30
0.0
 11
3947.3089239652890683
 21
105.6479558738227951
 31
0.0
  0
LINE
  5
758E
  8
0
 10
3948.5450309471921173
 20
111.5928377636227964
 30
0.0
 11
3948.5450309471921173
 21
105.6479558738227951
 31
0.0
  0
ARC
  5
758F
  8
0
 10
3947.9269774562399107
 20
105.6478991285745934
 30
0.0
 40
0.6180534935567814
 50
179.9947395115960092
 51
0.0052604884039365
  0
LINE
  5
7590
  8
0
 10
3950.9822175670569777
 20
111.5947848195980043
 30
0.0
 11
3950.9822175670569777
 21
111.2440252540511949
 31
0.0
  0
ARC
  5
7591
  8
0
 10
3951.0015992192188605
 20
111.2436912634641999
 30
0.0
 40
0.019384529662792
 50
179.0127592311185083
 51
270.3684105232647994
  0
ARC
  5
7592
  8
0
 10
3951.1355821281331373
 20
111.2243071346229044
 30
0.0
 40
0.0787401575000111
 50
180.0000000000036096
 51
227.881683891488791
  0
ARC
  5
7593
  8
0
 10
3951.0035616996469798
 20
111.0782910945327018
 30
0.0
 40
0.1181102361832253
 50
356.3880006086491221
 51
47.8806235546529066
  0
ARC
  5
7594
  8
0
 10
3951.9498649758361353
 20
111.0202494703167986
 30
0.0
 40
0.8299715784177092
 50
176.5046887659077015
 51
184.719642696769796
  0
LINE
  5
7595
  8
0
 10
3951.0017238761088265
 20
111.2243071345229026
 30
0.0
 11
3952.852117545557121
 21
111.2243071345229026
 31
0.0
  0
LINE
  5
7596
  8
0
 10
3950.9905029417009246
 20
111.0396464225226936
 30
0.0
 11
3950.9905029417009246
 21
109.7466526544229026
 31
0.0
  0
ARC
  5
7597
  8
0
 10
3951.0299256770958891
 20
109.7467113798676053
 30
0.0
 40
0.0394227791353853
 50
180.0853496747591009
 51
263.0451324990000899
  0
ARC
  5
7598
  8
0
 10
3951.9292198021939839
 20
117.1399929610779935
 30
0.0
 40
7.4871971062804432
 50
263.0646980989774875
 51
269.9826053347964034
  0
LINE
  5
7599
  8
0
 10
3952.8721985605698137
 20
111.5947847997250051
 30
0.0
 11
3952.8721985605698137
 21
111.243992173922905
 31
0.0
  0
ARC
  5
759A
  8
0
 10
3952.8518306827018023
 20
111.2446847652059034
 30
0.0
 40
0.0203796499367806
 50
270.8065630186283101
 51
358.0524591905549983
  0
ARC
  5
759B
  8
0
 10
3952.7182592935328103
 20
111.2243071346229044
 30
0.0
 40
0.0787401575000111
 50
312.1183161085108964
 51
359.9999999999964189
  0
ARC
  5
759C
  8
0
 10
3952.8502797220189677
 20
111.0782910945327018
 30
0.0
 40
0.1181102361832238
 50
132.119376445346802
 51
183.6119993913509063
  0
ARC
  5
759D
  8
0
 10
3951.9038867134790962
 20
111.0202504207733938
 30
0.0
 40
0.8300610859692392
 50
355.2808398450519007
 51
3.4948681259602421
  0
ARC
  5
759E
  8
0
 10
3952.8240246954569557
 20
109.7466029541039063
 30
0.0
 40
0.0393082843732356
 50
276.8916669700493003
 51
0.0623535706273511
  0
ARC
  5
759F
  8
0
 10
3951.9246736633440378
 20
117.1399929610779935
 30
0.0
 40
7.4871971062804432
 50
270.0173946652035966
 51
276.9353019010225125
  0
ARC
  5
75A0
  8
0
 10
3951.9269201991328373
 20
87.0896325085583101
 30
0.0
 40
24.5233621391100698
 50
87.6767867552139677
 51
92.3232132447860181
  0
ARC
  5
75A1
  8
0
 10
3947.301310540139184
 20
111.2665399007568965
 30
0.0
 40
0.330698232643588
 50
88.7004725279207378
 51
98.0666509110958771
  0
LINE
  5
75A2
  8
0
 10
3947.254905322733066
 20
111.593966040322897
 30
0.0
 11
3947.2628274527328358
 21
111.5928377636227964
 31
0.0
  0
ARC
  5
75A3
  8
0
 10
3948.5522709490251145
 20
111.2623696603264989
 30
0.0
 40
0.3348728492202911
 50
81.9898226012324187
 51
91.2388399837562645
  0
LINE
  5
75A4
  8
0
 10
3948.5989360912330994
 20
111.593966040322897
 30
0.0
 11
3948.5920431192371325
 21
111.5928377636227964
 31
0.0
  0
ARC
  5
75A5
  8
0
 10
3947.9272852035810502
 20
-130.2301935035501117
 30
0.0
 40
241.8281268312460952
 50
89.8536387686721412
 51
90.1465070595633193
  0
LINE
  5
75A6
  8
0
 10
3951.0251520726510535
 20
109.7075786797901031
 30
0.0
 11
3952.8336569601688097
 21
109.7084971890832037
 31
0.0
  0
ARC
  5
75A7
  8
0
 10
3951.050906405384012
 20
111.0806805405829039
 30
0.0
 40
0.0058823463672827
 50
97.5924685849394251
 51
176.9712966601136088
  0
ARC
  5
75A8
  8
0
 10
3951.1005042442088779
 20
111.0839784041749994
 30
0.0
 40
0.0555523343511781
 50
183.0822945469269882
 51
203.536357108641397
  0
ARC
  5
75A9
  8
0
 10
3951.3646926499977781
 20
111.2002383828122021
 30
0.0
 40
0.3441900048906489
 50
203.7176966214099139
 51
210.5942048387767898
  0
ARC
  5
75AA
  8
0
 10
3951.35908986692084
 20
111.1842273639916954
 30
0.0
 40
0.3313986008778539
 50
208.7040580013295994
 51
224.4970320545199911
  0
ARC
  5
75AB
  8
0
 10
3951.6343425058530556
 20
111.512197279358702
 30
0.0
 40
0.7587073754918368
 50
227.5962491410863038
 51
252.7832368018341072
  0
ARC
  5
75AC
  8
0
 10
3951.9120158620530674
 20
112.3549805325334034
 30
0.0
 40
1.6459905054153581
 50
252.2340077830178018
 51
270.5188259530572736
  0
ARC
  5
75AD
  8
0
 10
3951.0395052042667885
 20
111.0375392962493066
 30
0.0
 40
0.0490475454817782
 50
93.1821797419494544
 51
177.537764444494087
  0
ARC
  5
75AE
  8
0
 10
3951.196967554917137
 20
111.0850560361042056
 30
0.0
 40
0.2113993129508341
 50
192.4040829439483957
 51
210.9496602909042906
  0
ARC
  5
75AF
  8
0
 10
3951.3503922623917788
 20
111.1692584853044963
 30
0.0
 40
0.3863413013107447
 50
209.9574110555475102
 51
236.696548780505907
  0
ARC
  5
75B0
  8
0
 10
3951.6465045656109396
 20
111.6062571216557018
 30
0.0
 40
0.9141919294590923
 50
236.2240573510561887
 51
252.700407287587808
  0
ARC
  5
75B1
  8
0
 10
3951.9098926713040782
 20
112.4604421172045932
 30
0.0
 40
1.808061077464719
 50
252.7807125919948987
 51
270.5356699476747053
  0
LINE
  5
75B2
  8
0
 10
3951.036782527682135
 20
111.0865112142228952
 30
0.0
 11
3951.1213854225829891
 21
111.0865118589229041
 31
0.0
  0
LINE
  5
75B3
  8
0
 10
3952.8633329565532222
 20
111.0396464225226936
 30
0.0
 11
3952.8633329565532222
 21
109.7466457323229037
 31
0.0
  0
ARC
  5
75B4
  8
0
 10
3952.802935016282845
 20
111.0806805405829039
 30
0.0
 40
0.0058823463672827
 50
3.028703339886389
 51
82.4075314150605891
  0
ARC
  5
75B5
  8
0
 10
3952.7533371774561601
 20
111.0839784041749994
 30
0.0
 40
0.0555523343511781
 50
336.4636428913585746
 51
356.9177054530729833
  0
ARC
  5
75B6
  8
0
 10
3952.4891487716681695
 20
111.2002383828122021
 30
0.0
 40
0.3441900048906489
 50
329.4057951612232955
 51
336.2823033785900861
  0
ARC
  5
75B7
  8
0
 10
3952.2195020570648012
 20
111.512190059629603
 30
0.0
 40
0.7586995494947943
 50
287.2166979843809145
 51
312.4039741266773831
  0
ARC
  5
75B8
  8
0
 10
3951.9418255596128802
 20
112.3549805325334034
 30
0.0
 40
1.6459905054153581
 50
269.4811740469427264
 51
287.7659922169822835
  0
ARC
  5
75B9
  8
0
 10
3952.8139197098980731
 20
111.0371338138179027
 30
0.0
 40
0.0494770870956057
 50
2.9109196386181342
 51
86.3622981304643247
  0
ARC
  5
75BA
  8
0
 10
3952.6570593177639239
 20
111.0849643264760971
 30
0.0
 40
0.2111931023445029
 50
329.0458029206824904
 51
347.6090875398280104
  0
ARC
  5
75BB
  8
0
 10
3952.5034491592741688
 20
111.1692584853044963
 30
0.0
 40
0.3863413013107447
 50
303.303451219494093
 51
330.0425889444525183
  0
ARC
  5
75BC
  8
0
 10
3952.207336856055008
 20
111.6062571216557018
 30
0.0
 40
0.9141919294590923
 50
287.2995927124122204
 51
303.7759426489437828
  0
ARC
  5
75BD
  8
0
 10
3951.9439487503627788
 20
112.4604421172045932
 30
0.0
 40
1.808061077464719
 50
269.4643300523252947
 51
287.2192874080050728
  0
LINE
  5
75BE
  8
0
 10
3952.8170588939829031
 20
111.0865112142228952
 30
0.0
 11
3952.7324559576391039
 21
111.0865118589232026
 31
0.0
  0
ARC
  5
75BF
  8
0
 10
3952.4954917446698346
 20
111.1836792406214016
 30
0.0
 40
0.3304861392669134
 50
315.4808838991252173
 51
331.317658632695327
  0
ENDSEC
  0
EOF
