  0
SECTION
  2
HEADER
  9
$ACADVER
  1
AC1009
  9
$INSBASE
 10
3884.2071483053418888
 20
74.110698212561914
 30
0.0
  9
$EXTMIN
 10
3867.4341886457477813
 20
68.2018684637352095
 30
0.0
  9
$EXTMAX
 10
3890.7347346670931074
 20
77.3497438276612712
 30
0.0
  9
$LIMMIN
 10
0.0
 20
0.0
  9
$LIMMAX
 10
11.6929133858000007
 20
8.2677165353999982
  9
$ORTHOMODE
 70
     0
  9
$REGENMODE
 70
     1
  9
$FILLMODE
 70
     1
  9
$QTEXTMODE
 70
     0
  9
$MIRRTEXT
 70
     0
  9
$DRAGMODE
 70
     2
  9
$LTSCALE
 40
0.6431102362
  9
$OSMODE
 70
  4095
  9
$ATTMODE
 70
     1
  9
$TEXTSIZE
 40
0.2
  9
$TRACEWID
 40
0.05
  9
$TEXTSTYLE
  7
STANDARD
  9
$CLAYER
  8
0
  9
$CELTYPE
  6
BYLAYER
  9
$CECOLOR
 62
   256
  9
$DIMSCALE
 40
1.0
  9
$DIMASZ
 40
0.1875
  9
$DIMEXO
 40
0.0625
  9
$DIMDLI
 40
0.4443307087
  9
$DIMRND
 40
0.0
  9
$DIMDLE
 40
0.0
  9
$DIMEXE
 40
0.125
  9
$DIMTP
 40
0.01
  9
$DIMTM
 40
0.01
  9
$DIMTXT
 40
2.0
  9
$DIMCEN
 40
0.1052362205
  9
$DIMTSZ
 40
0.0
  9
$DIMTOL
 70
     1
  9
$DIMLIM
 70
     0
  9
$DIMTIH
 70
     1
  9
$DIMTOH
 70
     1
  9
$DIMSE1
 70
     0
  9
$DIMSE2
 70
     0
  9
$DIMTAD
 70
     0
  9
$DIMZIN
 70
     0
  9
$DIMBLK
  1

  9
$DIMASO
 70
     1
  9
$DIMSHO
 70
     1
  9
$DIMPOST
  1
\X
  9
$DIMAPOST
  1

  9
$DIMALT
 70
     1
  9
$DIMALTD
 70
     2
  9
$DIMALTF
 40
25.3999999999999986
  9
$DIMLFAC
 40
1.0
  9
$DIMTOFL
 70
     0
  9
$DIMTVP
 40
0.0
  9
$DIMTIX
 70
     0
  9
$DIMSOXD
 70
     0
  9
$DIMSAH
 70
     0
  9
$DIMBLK1
  1

  9
$DIMBLK2
  1

  9
$DIMSTYLE
  2
STANDARD
  9
$DIMCLRD
 70
     0
  9
$DIMCLRE
 70
     0
  9
$DIMCLRT
 70
     0
  9
$DIMTFAC
 40
1.0
  9
$DIMGAP
 40
0.09
  9
$LUNITS
 70
     2
  9
$LUPREC
 70
     4
  9
$SKETCHINC
 40
0.1
  9
$FILLETRAD
 40
0.0
  9
$AUNITS
 70
     0
  9
$AUPREC
 70
     0
  9
$MENU
  1
.
  9
$ELEVATION
 40
0.0
  9
$PELEVATION
 40
0.0
  9
$THICKNESS
 40
0.0
  9
$LIMCHECK
 70
     0
  9
$BLIPMODE
 70
     0
  9
$CHAMFERA
 40
0.0
  9
$CHAMFERB
 40
0.0
  9
$SKPOLY
 70
     0
  9
$TDCREATE
 40
2458060.468368056230247
  9
$TDUPDATE
 40
2459095.9825115739367902
  9
$TDINDWG
 40
0.415296412
  9
$TDUSRTIMER
 40
0.415296412
  9
$USRTIMER
 70
     1
  9
$ANGBASE
 50
0.0
  9
$ANGDIR
 70
     0
  9
$PDMODE
 70
     0
  9
$PDSIZE
 40
0.3125
  9
$PLINEWID
 40
0.0
  9
$COORDS
 70
     1
  9
$SPLFRAME
 70
     0
  9
$SPLINETYPE
 70
     6
  9
$SPLINESEGS
 70
     8
  9
$ATTDIA
 70
     1
  9
$ATTREQ
 70
     1
  9
$HANDLING
 70
     1
  9
$HANDSEED
  5
83E0
  9
$SURFTAB1
 70
     6
  9
$SURFTAB2
 70
     6
  9
$SURFTYPE
 70
     6
  9
$SURFU
 70
     6
  9
$SURFV
 70
     6
  9
$UCSNAME
  2

  9
$UCSORG
 10
0.0
 20
0.0
 30
0.0
  9
$UCSXDIR
 10
1.0
 20
0.0
 30
0.0
  9
$UCSYDIR
 10
0.0
 20
1.0
 30
0.0
  9
$PUCSNAME
  2

  9
$PUCSORG
 10
0.0
 20
0.0
 30
0.0
  9
$PUCSXDIR
 10
1.0
 20
0.0
 30
0.0
  9
$PUCSYDIR
 10
0.0
 20
1.0
 30
0.0
  9
$USERI1
 70
     0
  9
$USERI2
 70
     0
  9
$USERI3
 70
     0
  9
$USERI4
 70
     0
  9
$USERI5
 70
     0
  9
$USERR1
 40
0.0
  9
$USERR2
 40
0.0
  9
$USERR3
 40
0.0
  9
$USERR4
 40
0.0
  9
$USERR5
 40
0.0
  9
$WORLDVIEW
 70
     1
  9
$SHADEDGE
 70
     3
  9
$SHADEDIF
 70
    70
  9
$TILEMODE
 70
     1
  9
$MAXACTVP
 70
    64
  9
$PLIMCHECK
 70
     0
  9
$PEXTMIN
 10
1.0000000000000000E+20
 20
1.0000000000000000E+20
 30
1.0000000000000000E+20
  9
$PEXTMAX
 10
-1.0000000000000000E+20
 20
-1.0000000000000000E+20
 30
-1.0000000000000000E+20
  9
$PLIMMIN
 10
0.0
 20
0.0
  9
$PLIMMAX
 10
12.0
 20
9.0
  9
$UNITMODE
 70
     0
  9
$VISRETAIN
 70
     1
  9
$PLINEGEN
 70
     0
  9
$PSLTSCALE
 70
     1
  0
ENDSEC
  0
SECTION
  2
TABLES
  0
TABLE
  2
VPORT
 70
     1
  0
VPORT
  2
*ACTIVE
 70
     0
 10
0.0
 20
0.0
 11
1.0
 21
1.0
 12
82.1857526389078146
 22
-50.1342832511307819
 13
0.0
 23
0.0
 14
1.0
 24
1.0
 15
0.0
 25
0.0
 16
0.0
 26
0.0
 36
5.1040778033513332
 17
3792.35791015625
 27
120.1806564331053977
 37
0.0
 40
33.4971208488513597
 41
2.005224660397074
 42
50.0
 43
0.0
 44
0.0
 50
0.0
 51
0.0
 71
     0
 72
   100
 73
     1
 74
     1
 75
     0
 76
     0
 77
     0
 78
     0
  0
ENDTAB
  0
TABLE
  2
LTYPE
 70
     2
  0
LTYPE
  2
CONTINUOUS
 70
     0
  3
Solid line
 72
    65
 73
     0
 40
0.0
  0
LTYPE
  2
PHANTOM2
 70
     0
  3
___ _ _ ___ _ _ ___ _ _ ___ _ _
 72
    65
 73
     6
 40
1.25
 49
0.625
 49
-0.125
 49
0.125
 49
-0.125
 49
0.125
 49
-0.125
  0
ENDTAB
  0
TABLE
  2
LAYER
 70
     2
  0
LAYER
  2
0
 70
     0
 62
   255
  6
CONTINUOUS
  0
LAYER
  2
DEFPOINTS
 70
     0
 62
     7
  6
CONTINUOUS
  0
ENDTAB
  0
TABLE
  2
STYLE
 70
     1
  0
STYLE
  2
STANDARD
 70
     0
 40
0.0
 41
0.8
 50
0.0
 71
     0
 42
0.2
  3
txt
  4

  0
ENDTAB
  0
TABLE
  2
VIEW
 70
     0
  0
ENDTAB
  0
TABLE
  2
UCS
 70
     0
  0
ENDTAB
  0
TABLE
  2
APPID
 70
     9
  0
APPID
  2
ACAD
 70
     0
  0
APPID
  2
ACAD_MLEADERVER
 70
     0
  0
APPID
  2
ACAD_EXEMPT_FROM_CAD_STANDARDS
 70
     0
  0
APPID
  2
ACAD_NAV_VCDISPLAY
 70
     0
  0
APPID
  2
ACAECLAYERSTANDARD
 70
     0
  0
APPID
  2
ACCMTRANSPARENCY
 70
     0
  0
APPID
  2
ACAD_DSTYLE_DIMJAG
 70
     0
  0
APPID
  2
ACAD_DSTYLE_DIMTALN
 70
     0
  0
APPID
  2
ACDBATTR
 70
     0
  0
ENDTAB
  0
TABLE
  2
DIMSTYLE
 70
     1
  0
DIMSTYLE
  2
STANDARD
 70
     0
  3

  4

  5

  6

  7

 40
1.0
 41
0.1875
 42
0.0625
 43
0.38
 44
0.125
 45
0.0
 46
0.0
 47
0.01
 48
0.01
140
0.15625
141
0.09
142
0.0
143
25.3999999999999986
144
1.0
145
0.0
146
1.0
147
0.09
 71
     1
 72
     0
 73
     1
 74
     1
 75
     0
 76
     0
 77
     0
 78
     4
170
     0
171
     2
172
     0
173
     0
174
     0
175
     0
176
     0
177
     0
178
     0
  0
ENDTAB
  0
ENDSEC
  0
SECTION
  2
BLOCKS
  0
BLOCK
  8
0
  2
$MODEL_SPACE
 70
     0
 10
0.0
 20
0.0
 30
0.0
  3
$MODEL_SPACE
  1

  0
ENDBLK
  5
21
  8
0
  0
BLOCK
 67
     1
  8
0
  2
$PAPER_SPACE
 70
     0
 10
0.0
 20
0.0
 30
0.0
  3
$PAPER_SPACE
  1

  0
ENDBLK
  5
1D
 67
     1
  8
0
  0
BLOCK
  8
0
  2
_FILLED
 70
     0
 10
0.0
 20
0.0
 30
0.0
  3
_FILLED
  1

  0
SOLID
  5
69B4
  8
0
  6
BYBLOCK
 62
     0
 10
0.0
 20
0.0
 30
0.0
 11
-1.0
 21
0.1666666667
 31
0.0
 12
-1.0
 22
-0.1666666667
 32
0.0
 13
-1.0
 23
-0.1666666667
 33
0.0
  0
ENDBLK
  5
69B5
  8
0
  6
BYBLOCK
 62
     0
  0
BLOCK
  8
0
  2
A$CDFAF6206
 70
     0
 10
0.0
 20
0.0
 30
0.0
  3
A$CDFAF6206
  1

  0
LINE
  5
6A0E
  8
0
 10
7.4646650085734834
 20
10.9287685970688493
 30
0.0
 11
7.4646650085734896
 21
10.8905784766688498
 31
0.0
  0
ARC
  5
6A0F
  8
0
 10
7.7269027075262349
 20
10.8926811525838598
 30
0.0
 40
0.2622461286616791
 50
180.4593995232625048
 51
217.0214027758331099
  0
LINE
  5
6A10
  8
0
 10
9.767814609867095
 20
10.9287685970688493
 30
0.0
 11
9.767814609867095
 21
10.8905433757650094
 31
0.0
  0
ARC
  5
6A11
  8
0
 10
9.5068669568548287
 20
10.8922438613003703
 30
0.0
 40
0.2609531936261092
 50
322.8847083717149076
 51
359.6266329125650145
  0
LINE
  5
6A12
  8
0
 10
7.517522606271406
 20
10.7347792678688396
 30
0.0
 11
9.7149570120691777
 21
10.7347792678688396
 31
0.0
  0
LINE
  5
6A13
  8
0
 10
7.4646650085734834
 20
10.9287685970688493
 30
0.0
 11
9.7678146123202936
 21
10.9287685970688493
 31
0.0
  0
ARC
  5
6A14
  8
0
 10
4.0826771419203629
 20
8.527951346868889
 30
0.0
 40
4.0826771653999172
 50
13.3117747050523896
 51
32.7200330051415591
  0
ARC
  5
6A15
  8
0
 10
4.0826771460567306
 20
8.5279513475907933
 30
0.0
 40
4.0826771612084691
 50
359.6656501984817851
 51
13.3117747085593798
  0
ARC
  5
6A16
  8
0
 10
13.1498041284835097
 20
8.5279508235212234
 30
0.0
 40
4.0826788382043553
 50
147.2799733478981068
 51
166.6882233021349862
  0
ARC
  5
6A17
  8
0
 10
13.1498064934207992
 20
8.5279506557033251
 30
0.0
 40
4.0826811782395342
 50
166.688228652086309
 51
180.3343397625230011
  0
LINE
  5
6A18
  8
0
 10
8.1652847935202928
 20
8.504127000268852
 30
0.0
 11
9.0671948248202892
 21
8.5041270002687881
 31
0.0
  0
LINE
  5
6A19
  8
0
 10
8.1652847935202786
 20
8.5041270002667204
 30
0.0
 11
8.1652847935202928
 21
8.3607006934688481
 31
0.0
  0
ARC
  5
6A1A
  8
0
 10
5.6196779630382627
 20
8.3631022096452732
 30
0.0
 40
2.545607963272567
 50
342.0511668832173768
 51
359.945947387132378
  0
LINE
  5
6A1B
  8
0
 10
9.0671948248202892
 20
8.5041270002687881
 30
0.0
 11
9.0671948248202892
 21
8.2885990108688503
 31
0.0
  0
ARC
  5
6A1C
  8
0
 10
9.4521885297801163
 20
7.9614488056228501
 30
0.0
 40
0.5052201595850959
 50
139.6436242991769916
 51
174.6757930071850069
  0
ARC
  5
6A1D
  8
0
 10
9.9238413395551746
 20
8.1492417579399508
 30
0.0
 40
0.9848265662939324
 50
188.2263441834095943
 51
209.5593615864376034
  0
ARC
  5
6A1E
  8
0
 10
8.0788764238271256
 20
7.5665710856463297
 30
0.0
 40
0.0393715937169877
 50
162.1669117288323037
 51
227.2023190037006088
  0
ARC
  5
6A1F
  8
0
 10
8.7223682141740682
 20
8.2079667397440517
 30
0.0
 40
0.947895137885075
 50
225.0018610752970858
 51
261.4598823366255829
  0
ARC
  5
6A20
  8
0
 10
8.6645157662702701
 20
8.1695128573935332
 30
0.0
 40
0.9027466462812931
 50
264.7303071214498118
 51
281.8608311947915013
  0
ARC
  5
6A21
  8
0
 10
8.6645157662698935
 20
8.1695128573999671
 30
0.0
 40
0.9027466462876658
 50
299.1741886792128753
 51
299.1743179154552195
  0
ARC
  5
6A22
  8
0
 10
9.0843330931590316
 20
7.4150554710086141
 30
0.0
 40
0.0393703053609601
 50
251.9700352025496954
 51
252.4698971938937859
  0
ARC
  5
6A23
  8
0
 10
9.0843330931590316
 20
7.4150554710086141
 30
0.0
 40
0.0393703053609601
 50
297.2453716727138726
 51
6.8376113572703074
  0
LINE
  5
6A24
  8
0
 10
9.0671948248202892
 20
7.663402160468852
 30
0.0
 11
9.1234233799329516
 21
7.419742732911689
 31
0.0
  0
ARC
  5
6A25
  8
0
 10
8.8843741880892395
 20
9.8961379890094676
 30
0.0
 40
2.5255097382132701
 50
263.792800240752797
 51
274.9514951129821156
  0
ARC
  5
6A26
  8
0
 10
8.8258167405968848
 20
9.2763025889666508
 30
0.0
 40
1.9029970832759311
 50
246.0108363320686067
 51
263.5276935074397215
  0
ARC
  5
6A27
  8
0
 10
8.607491361665744
 20
8.3225444804829642
 30
0.0
 40
1.064510137163637
 50
283.1717405874071005
 51
297.7022170607311864
  0
LINE
  5
6A28
  8
0
 10
9.0671948248202892
 20
8.2885990108688503
 30
0.0
 11
26.2014378595979593
 21
8.2885990108689942
 31
0.0
  0
LINE
  5
6A29
  8
0
 10
26.2014378595979913
 20
7.6634021604689053
 30
0.0
 11
9.0671948248202892
 21
7.6634021604688618
 31
0.0
  0
LINE
  5
6A2A
  8
0
 10
27.8039676758446994
 20
10.9287685970690802
 30
0.0
 11
27.8039676758446888
 21
10.8905784766690807
 31
0.0
  0
ARC
  5
6A2B
  8
0
 10
27.5417299768919399
 20
10.8926811525840801
 30
0.0
 40
0.2622461286616791
 50
322.9785972241680838
 51
359.5406004767386889
  0
LINE
  5
6A2C
  8
0
 10
25.5008180745510913
 20
10.9287685970690305
 30
0.0
 11
25.5008180745510913
 21
10.8905433757651799
 31
0.0
  0
ARC
  5
6A2D
  8
0
 10
25.7617657275633505
 20
10.8922438613005497
 30
0.0
 40
0.2609531936261092
 50
180.3733670874362929
 51
217.1152916282862861
  0
LINE
  5
6A2E
  8
0
 10
27.7511100781467803
 20
10.7347792678690706
 30
0.0
 11
25.5536756723490015
 21
10.7347792678690208
 31
0.0
  0
LINE
  5
6A2F
  8
0
 10
27.8039676758446888
 20
10.9287685970686006
 30
0.0
 11
25.5008180745510806
 21
10.9287685970686006
 31
0.0
  0
ARC
  5
6A30
  8
0
 10
31.1859555424978616
 20
8.5279513468691981
 30
0.0
 40
4.0826771653999172
 50
147.2799669948597057
 51
166.6882252949490066
  0
ARC
  5
6A31
  8
0
 10
31.185955538361501
 20
8.5279513475911024
 30
0.0
 40
4.0826771612084691
 50
166.6882252914419098
 51
180.3343498015194086
  0
ARC
  5
6A32
  8
0
 10
22.1188285559344706
 20
8.5279508235212251
 30
0.0
 40
4.0826788382046102
 50
13.3117766978667795
 51
32.7200266521023977
  0
ARC
  5
6A33
  8
0
 10
22.1188261909974315
 20
8.5279506557034264
 30
0.0
 40
4.0826811782395342
 50
359.665660237478221
 51
13.31177134791497
  0
LINE
  5
6A34
  8
0
 10
27.1033478908979397
 20
8.5041270002690652
 30
0.0
 11
26.2014378595979416
 21
8.5041270002689835
 31
0.0
  0
LINE
  5
6A35
  8
0
 10
27.1033478908979504
 20
8.5041270002669354
 30
0.0
 11
27.1033478908979397
 21
8.3607006934690649
 31
0.0
  0
ARC
  5
6A36
  8
0
 10
29.6489547213799689
 20
8.3631022096455467
 30
0.0
 40
2.545607963272567
 50
180.0540526128687873
 51
197.9488331167837032
  0
LINE
  5
6A37
  8
0
 10
26.2014378595979416
 20
8.5041270002689835
 30
0.0
 11
26.2014378595979487
 21
8.2885990108690457
 31
0.0
  0
ARC
  5
6A38
  8
0
 10
25.8164441546381305
 20
7.9614488056230366
 30
0.0
 40
0.5052201595850959
 50
5.324206992816312
 51
40.3563757008241879
  0
ARC
  5
6A39
  8
0
 10
25.3447913448601803
 20
8.149241757940846
 30
0.0
 40
0.9848265662968968
 50
330.4406384136033807
 51
351.7736558165743759
  0
ARC
  5
6A3A
  8
0
 10
27.1897562605911212
 20
7.5665710856465473
 30
0.0
 40
0.0393715937169877
 50
312.7976809963004143
 51
17.8330882711689185
  0
ARC
  5
6A3B
  8
0
 10
26.5462644702441715
 20
8.2079667397442542
 30
0.0
 40
0.947895137885075
 50
278.5401176633754972
 51
314.9981389247041079
  0
ARC
  5
6A3C
  8
0
 10
26.6041169181479695
 20
8.1695128573937392
 30
0.0
 40
0.9027466462812931
 50
258.139168805210204
 51
275.2696928785518935
  0
ARC
  5
6A3D
  8
0
 10
26.6041169181483497
 20
8.1695128574001732
 30
0.0
 40
0.9027466462876658
 50
240.8256820845460027
 51
240.8258113207880058
  0
ARC
  5
6A3E
  8
0
 10
26.1842995912592293
 20
7.4150554710088086
 30
0.0
 40
0.0393703053609601
 50
287.5301028061073794
 51
288.0299647974517825
  0
ARC
  5
6A3F
  8
0
 10
26.1842995912592293
 20
7.4150554710088086
 30
0.0
 40
0.0393703053609601
 50
173.1623886427310026
 51
242.7546283272870085
  0
LINE
  5
6A40
  8
0
 10
26.2014378595981192
 20
7.6634021604690448
 30
0.0
 11
26.1452093044853093
 21
7.4197427329118826
 31
0.0
  0
ARC
  5
6A41
  8
0
 10
26.384258496328961
 20
9.8961379890096666
 30
0.0
 40
2.5255097382132701
 50
265.0485048870193054
 51
276.2071997592482262
  0
ARC
  5
6A42
  8
0
 10
26.4428159438213299
 20
9.2763025889668516
 30
0.0
 40
1.9029970832759311
 50
276.4723064925619838
 51
293.9891636679327007
  0
ARC
  5
6A43
  8
0
 10
26.6611413227524885
 20
8.3225444804831703
 30
0.0
 40
1.064510137163637
 50
242.2977829392704052
 51
256.8282594125943774
  0
LINE
  5
6A44
  8
0
 62
     4
 10
17.9031473532159602
 20
10.9287685970686006
 30
0.0
 11
24.6329820359843588
 21
20.0952817181593808
 31
0.0
  0
LINE
  5
6A45
  8
0
 62
     4
 10
17.9031473532159602
 20
-0.0000000300842942
 30
0.0
 11
22.3963351323106608
 21
4.993614497796286
 31
0.0
  0
ENDBLK
  5
6A49
  8
0
  0
ENDSEC
  0
SECTION
  2
ENTITIES
  0
ATTDEF
  5
3930
  8
DEFPOINTS
 10
3884.2083580835219436
 20
74.1134539763560412
 30
0.0
 40
0.001
  1
K-8125A-4
  3

  2
MODELNUMBER
 70
     0
1001
ACDBATTR
1070
     0
1070
     1
  0
ATTDEF
  5
3931
  8
DEFPOINTS
 10
3884.2083580835219436
 20
74.111787309689376
 30
0.0
 40
0.001
  1
VITEO
  3

  2
TRADENAME
 70
     0
1001
ACDBATTR
1070
     0
1070
     1
  0
ATTDEF
  5
3932
  8
DEFPOINTS
 10
3884.2083580835219436
 20
74.1101206430227109
 30
0.0
 40
0.001
  1
BATH SPOUT
  3

  2
PRODUCT
 70
     0
1001
ACDBATTR
1070
     0
1070
     1
  0
ARC
  5
7F81
  8
0
 10
3881.994577186792867
 20
75.4295958503619204
 30
0.0
 40
0.314960629899999
 50
90.0
 51
180.0
  0
ARC
  5
7F82
  8
0
 10
3881.994577186792867
 20
72.7918005747619219
 30
0.0
 40
0.3149606299000003
 50
180.0
 51
270.0
  0
LINE
  5
7F83
  8
0
 10
3881.6796165568930519
 20
72.7918005747619219
 30
0.0
 11
3881.6796165568930519
 21
75.4295958503619204
 31
0.0
  0
ARC
  5
7F84
  8
0
 10
3890.4197740371928376
 20
75.4295958503619204
 30
0.0
 40
0.314960629899999
 50
0.0
 51
90.0
  0
ARC
  5
7F85
  8
0
 10
3890.4197740371928376
 20
72.7918005747619219
 30
0.0
 40
0.3149606299000003
 50
270.0
 51
0.0
  0
LINE
  5
7F86
  8
0
 10
3890.7347346670931074
 20
72.7918005747619219
 30
0.0
 11
3890.7347346670931074
 21
75.4295958503619204
 31
0.0
  0
LINE
  5
7F87
  8
0
 10
3881.994577186792867
 20
75.744556480361922
 30
0.0
 11
3890.4197740371928376
 21
75.7445564802619202
 31
0.0
  0
LINE
  5
7F88
  8
0
 10
3881.994577186792867
 20
72.476839944861922
 30
0.0
 11
3887.9942462589929164
 21
72.476839944861922
 31
0.0
  0
LINE
  5
7F89
  8
0
 10
3888.4201078260980466
 20
72.476839944861922
 30
0.0
 11
3890.4197740371928376
 21
72.476839944861922
 31
0.0
  0
ARC
  5
7F8A
  8
0
 10
3885.3159610103348314
 20
74.2836230241706801
 30
0.0
 40
1.781937831806115
 50
177.952210240600607
 51
191.5651625759280137
  0
ARC
  5
7F8B
  8
0
 10
3883.9573063992479547
 20
73.9879285396906852
 30
0.0
 40
0.3919682169860811
 50
189.034799792228398
 51
235.4008822460743886
  0
ARC
  5
7F8C
  8
0
 10
3883.6562707666480492
 20
74.4712320655739717
 30
0.0
 40
0.1211017523007467
 50
94.1751564658976434
 51
179.9524277728569075
  0
ARC
  5
7F8D
  8
0
 10
3884.2064633990771654
 20
66.7173405200245782
 30
0.0
 40
7.894488543503881
 50
89.9948309768256678
 51
94.0605180954299698
  0
LINE
  5
7F8E
  8
0
 10
3883.5351611772930482
 20
74.3472971245619192
 30
0.0
 11
3883.5351690560910356
 21
74.4713326153780741
 31
0.0
  0
ARC
  5
7F8F
  8
0
 10
3883.6587007543807886
 20
74.4681474120817057
 30
0.0
 40
0.0618709750388633
 50
95.6132258000170481
 51
177.5839655437031013
  0
ARC
  5
7F90
  8
0
 10
3886.9394499737159094
 20
74.3313113549483404
 30
0.0
 40
3.3425470199168039
 50
179.7324682694535909
 51
183.0214873541887073
  0
ARC
  5
7F91
  8
0
 10
3884.8287445621708684
 20
74.2106310663642716
 30
0.0
 40
1.228449591545141
 50
182.5897644793467123
 51
192.4911119475474948
  0
ARC
  5
7F92
  8
0
 10
3884.0202309389960647
 20
74.018354608135283
 30
0.0
 40
0.3976944705231226
 50
190.6390214346288872
 51
222.5943463589881048
  0
LINE
  5
7F93
  8
0
 10
3883.5969393915929686
 20
74.3469186849619064
 30
0.0
 11
3883.5968847781809927
 21
74.4707555991647325
 31
0.0
  0
ARC
  5
7F94
  8
0
 10
3884.2071756400550839
 20
66.6949900964969657
 30
0.0
 40
7.8543312384259618
 50
89.9992566551015329
 51
94.0485293922542667
  0
ARC
  5
7F95
  8
0
 10
3883.7620433214569857
 20
73.7397414948240311
 30
0.0
 40
0.0326979037526267
 50
139.1931559576219115
 51
152.6476148775385013
  0
ARC
  5
7F96
  8
0
 10
3883.8208767995938615
 20
73.699964069639762
 30
0.0
 40
0.1035613234078561
 50
123.6261339054804012
 51
143.8123665028763867
  0
ARC
  5
7F97
  8
0
 10
3884.0063018585478858
 20
73.3784916024024909
 30
0.0
 40
0.4745129580739948
 50
99.9837414695110311
 51
120.772365106927495
  0
ARC
  5
7F98
  8
0
 10
3884.1979588379049346
 20
72.4710299142876124
 30
0.0
 40
1.40181264105754
 50
89.6232834191889225
 51
101.2684453312823933
  0
ARC
  5
7F99
  8
0
 10
3883.7595355225162166
 20
73.7638059220575428
 30
0.0
 40
0.0280323699356345
 50
164.3454376759275988
 51
198.8153685858079029
  0
ARC
  5
7F9A
  8
0
 10
3883.7737704809978823
 20
73.7617057675809491
 30
0.0
 40
0.0423450779165361
 50
149.9654264199857892
 51
166.8072445878021028
  0
ARC
  5
7F9B
  8
0
 10
3883.7963520475182122
 20
73.7483005762861268
 30
0.0
 40
0.0686047385958634
 50
133.8102206194259054
 51
149.712700412307214
  0
ARC
  5
7F9C
  8
0
 10
3883.879129071717216
 20
73.6516132904552592
 30
0.0
 40
0.1958144225277899
 50
112.0520844364558002
 51
131.7033155332501906
  0
ARC
  5
7F9D
  8
0
 10
3884.06778283757194
 20
73.185698141816431
 30
0.0
 40
0.6984745139627254
 50
98.8548988487539475
 51
112.045923876934495
  0
ARC
  5
7F9E
  8
0
 10
3884.3470351051419129
 20
70.5895498147790192
 30
0.0
 40
3.3089795349761908
 50
92.4224225188410458
 51
96.7123649288421063
  0
ARC
  5
7F9F
  8
0
 10
3883.809239977128982
 20
73.8294918468954222
 30
0.0
 40
0.1146094732111392
 50
224.4771129448807869
 51
231.1154159084499042
  0
LINE
  5
7FA0
  8
0
 10
3883.7372937222930886
 20
73.7611099353619153
 30
0.0
 11
3883.7372937222930886
 21
73.6497124529619214
 31
0.0
  0
ARC
  5
7FA1
  8
0
 10
3883.8807356496258762
 20
73.6751760613991564
 30
0.0
 40
0.1456845285933106
 50
190.0662018481123141
 51
223.5166643688249906
  0
LINE
  5
7FA2
  8
0
 10
3883.7750889977987754
 20
73.6828269204358293
 30
0.0
 11
3883.7750889978929081
 21
73.4575519880619083
 31
0.0
  0
ARC
  5
7FA3
  8
0
 10
3884.1129259080039446
 20
74.0339408186434014
 30
0.0
 40
0.6681001884841887
 50
239.6242918781206015
 51
251.5035931241669971
  0
ARC
  5
7FA4
  8
0
 10
3888.2071756126938453
 20
74.1106983364119145
 30
0.0
 40
0.9940724566187576
 50
289.2157927431682083
 51
250.7843133597642122
  0
ARC
  5
7FA5
  8
0
 10
3888.2071179445879352
 20
74.1107091738472974
 30
0.0
 40
0.9743966858032194
 50
292.1844647166175264
 51
247.8302662777319085
  0
ARC
  5
7FA6
  8
0
 10
3888.2071753579939468
 20
74.1106956001420656
 30
0.0
 40
0.9448816391960676
 50
301.425747204575373
 51
238.5599343531997079
  0
ARC
  5
7FA7
  8
0
 10
3888.2071753579930373
 20
74.1106955961622589
 30
0.0
 40
0.9364170674002535
 50
311.5335579326339257
 51
228.4665715020759933
  0
ARC
  5
7FA8
  8
0
 10
3886.1299666738009364
 20
71.1143178170681125
 30
0.0
 40
2.7031881787045791
 50
50.7735777566923829
 51
54.1189007579019972
  0
ARC
  5
7FA9
  8
0
 10
3888.6052055446411941
 20
74.5195113146329646
 30
0.0
 40
1.506600400152901
 50
227.4440858950717939
 51
233.7490984031311996
  0
ARC
  5
7FAA
  8
0
 10
3887.3057204148240089
 20
72.5716497852670557
 30
0.0
 40
0.8308009141370117
 50
46.2718364676643787
 51
50.0290076257118201
  0
ARC
  5
7FAB
  8
0
 10
3887.673219140630863
 20
72.9464368613249832
 30
0.0
 40
0.3060095013742903
 50
10.1938703318629909
 51
47.4885292628008528
  0
ARC
  5
7FAC
  8
0
 10
3887.1134278893700866
 20
72.8454187044607977
 30
0.0
 40
0.8748424027319281
 50
358.7172342992537892
 51
10.2169233214555408
  0
LINE
  5
7FAD
  8
0
 10
3887.9880510463949577
 20
72.8258339446576457
 30
0.0
 11
3888.0233324177929717
 21
70.8383336375619166
 31
0.0
  0
ARC
  5
7FAE
  8
0
 10
3890.284405006527777
 20
71.1143028502958714
 30
0.0
 40
2.703212179022533
 50
125.8811604642738047
 51
129.2265209203821996
  0
ARC
  5
7FAF
  8
0
 10
3887.8092133777040544
 20
74.519422414091153
 30
0.0
 40
1.506488823635348
 50
306.2510114186309238
 51
312.556370395982583
  0
ARC
  5
7FB0
  8
0
 10
3889.1086336606399527
 20
72.5716514546250835
 30
0.0
 40
0.8308009141370117
 50
129.9710984771921005
 51
133.7282696352370124
  0
ARC
  5
7FB1
  8
0
 10
3888.7411342407849588
 20
72.9464378501316446
 30
0.0
 40
0.3060095013742903
 50
132.5115768401157936
 51
169.806235771045607
  0
ARC
  5
7FB2
  8
0
 10
3889.3009256791160624
 20
72.8454207299143235
 30
0.0
 40
0.8748424027319281
 50
169.7831827814505914
 51
181.2828718036548139
  0
LINE
  5
7FB3
  8
0
 10
3888.4263025583609306
 20
72.8258343504446088
 30
0.0
 11
3888.3910248675051662
 21
70.8383339780166494
 31
0.0
  0
ARC
  5
7FB4
  8
0
 10
3888.2071786410888308
 20
70.8400188517813376
 30
0.0
 40
0.1838539468358622
 50
180.5251832560838068
 51
359.4749228468239721
  0
ARC
  5
7FB5
  8
0
 10
3883.7283176274318066
 20
73.7504162544490498
 30
0.0
 40
0.0014571142212442
 50
145.6947791151671083
 51
221.2387160096884884
  0
ARC
  5
7FB6
  8
0
 10
3883.7365683447228548
 20
73.7421350085643894
 30
0.0
 40
0.0131240259104467
 50
105.7719048813168996
 51
136.0863428255464953
  0
ARC
  5
7FB7
  8
0
 10
3883.7735343127860688
 20
73.6464752665427937
 30
0.0
 40
0.0363848839652826
 50
87.5510703030346491
 51
174.8956083939876862
  0
ARC
  5
7FB8
  8
0
 10
3884.2258954745288975
 20
72.4496811635078473
 30
0.0
 40
1.2034592998135709
 50
90.8912743241458969
 51
111.9991110633764038
  0
ARC
  5
7FB9
  8
0
 10
3883.8997569033422224
 20
73.4804090331512043
 30
0.0
 40
0.0616828224624556
 50
120.5307598911296054
 51
169.7141474396333933
  0
ARC
  5
7FBA
  8
0
 10
3884.0375966967721979
 20
73.2537226897505747
 30
0.0
 40
0.3269828402979414
 50
102.4148577751680023
 51
121.1567397870043976
  0
ARC
  5
7FBB
  8
0
 10
3884.179056411368947
 20
72.6835747764161937
 30
0.0
 40
0.9143436484808821
 50
93.5056926545004217
 51
103.3909852415489041
  0
ARC
  5
7FBC
  8
0
 10
3884.2377681012631001
 20
71.4499210594703413
 30
0.0
 40
2.1493448677819229
 50
90.8155413938047928
 51
93.0569576689644435
  0
ARC
  5
7FBD
  8
0
 10
3883.8884219057181326
 20
73.4918626729310063
 30
0.0
 40
0.04935848756222
 50
180.5102984890775133
 51
208.6144536624314867
  0
ARC
  5
7FBE
  8
0
 10
3883.941170911044992
 20
73.5305065671007725
 30
0.0
 40
0.1145000196242131
 50
212.9529668775811047
 51
246.9094689486096001
  0
ARC
  5
7FBF
  8
0
 10
3884.0587423120559833
 20
73.7664487320771229
 30
0.0
 40
0.3779726058313378
 50
244.5411063521463859
 51
255.4190958878018023
  0
ARC
  5
7FC0
  8
0
 10
3884.1600775964420791
 20
74.1549108268776962
 30
0.0
 40
0.779434436665841
 50
255.398697410305914
 51
262.7342099531578015
  0
ARC
  5
7FC1
  8
0
 10
3884.2357383362359542
 20
75.0032934566229414
 30
0.0
 40
1.630892428859285
 50
263.8670566953143748
 51
268.9964959101677096
  0
ARC
  5
7FC2
  8
0
 10
3884.2270144701888057
 20
74.7568648367808208
 30
0.0
 40
1.3951445782288729
 50
256.4852132511475133
 51
269.1852308528892763
  0
ARC
  5
7FC3
  8
0
 10
3883.9292927093388244
 20
73.4563498113449356
 30
0.0
 40
0.0712472530373787
 50
120.9304797800212015
 51
156.8562199860529063
  0
ARC
  5
7FC4
  8
0
 10
3884.0294623500440139
 20
73.2945211391588316
 30
0.0
 40
0.2615638927675707
 50
103.6773199892507051
 51
121.5318110446820015
  0
ARC
  5
7FC5
  8
0
 10
3884.0135237304148177
 20
73.3587617305334589
 30
0.0
 40
0.1953764672270983
 50
103.590301667511099
 51
126.3163108343743062
  0
ARC
  5
7FC6
  8
0
 10
3883.9267689623038677
 20
73.4743491476381223
 30
0.0
 40
0.0508815142930923
 50
124.6858821598822971
 51
171.3397580806702933
  0
ARC
  5
7FC7
  8
0
 10
3883.9249595658939143
 20
73.5078731498861515
 30
0.0
 40
0.0655456089690381
 50
201.0289202494336109
 51
244.4154882610185098
  0
ARC
  5
7FC8
  8
0
 10
3883.9183171584181764
 20
73.484659713448039
 30
0.0
 40
0.0419342230892779
 50
183.6274794709069056
 51
238.8959912900182871
  0
ARC
  5
7FC9
  8
0
 10
3884.0036418839458747
 20
73.5930110179913157
 30
0.0
 40
0.1796005305750908
 50
233.4375991349189974
 51
248.5980482538610943
  0
ARC
  5
7FCA
  8
0
 10
3884.0972199132611422
 20
73.8299021943568476
 30
0.0
 40
0.4343044467004196
 50
248.5081276867861106
 51
257.6035739066861083
  0
ARC
  5
7FCB
  8
0
 10
3884.1828814187929311
 20
74.2226926975011878
 30
0.0
 40
0.8363268941524498
 50
257.6486323568644821
 51
265.7893967995203184
  0
ARC
  5
7FCC
  8
0
 10
3884.2066278805941693
 20
74.4847547485942414
 30
0.0
 40
1.099434115670568
 50
265.557955873235926
 51
270.0285444105704755
  0
ARC
  5
7FCD
  8
0
 10
3884.1332777579818867
 20
72.9774326669242157
 30
0.0
 40
0.5947721062861011
 50
95.7525085185170468
 51
106.1726148522181035
  0
ARC
  5
7FCE
  8
0
 10
3884.2046494037149387
 20
72.4837954481942859
 30
0.0
 40
1.0932892248608981
 50
89.8676094138415777
 51
96.8811181252716125
  0
ARC
  5
7FCF
  8
0
 10
3884.2073158981611414
 20
72.5311426930675935
 30
0.0
 40
1.0432415074942341
 50
90.0077046449120246
 51
96.4190220025284646
  0
ARC
  5
7FD0
  8
0
 10
3884.1836406253678433
 20
72.7654250245848573
 30
0.0
 40
0.8078178375363256
 50
96.6080955799398993
 51
100.2756023389048039
  0
ARC
  5
7FD1
  8
0
 10
3884.2301327015411516
 20
72.5562798206339892
 30
0.0
 40
1.0219600615866531
 50
100.7487050570343996
 51
102.0485016229233963
  0
ARC
  5
7FD2
  8
0
 10
3884.1056489153638722
 20
73.1409384541500032
 30
0.0
 40
0.4242018763854841
 50
102.0890087344905055
 51
112.3375125605359983
  0
ARC
  5
7FD3
  8
0
 10
3884.0130484991927915
 20
73.3739716379105005
 30
0.0
 40
0.1734858620741001
 50
113.3003496892195017
 51
124.6052028590901983
  0
ARC
  5
7FD4
  8
0
 10
3883.9491070683739053
 20
73.4645458709608477
 30
0.0
 40
0.0626333807255833
 50
123.5161478804567992
 51
149.3615044766899871
  0
ARC
  5
7FD5
  8
0
 10
3883.9246697842031608
 20
73.4802284697135235
 30
0.0
 40
0.0336314571441391
 50
151.132863205821792
 51
170.8266161174252034
  0
ARC
  5
7FD6
  8
0
 10
3883.8927083199619119
 20
73.4763305085330103
 30
0.0
 40
0.0300207229200332
 50
164.5007472947177121
 51
199.3211198502091861
  0
ARC
  5
7FD7
  8
0
 10
3883.9117202811889911
 20
73.4846965999393831
 30
0.0
 40
0.0507553060339737
 50
201.1327569106684052
 51
225.0188712603610099
  0
ARC
  5
7FD8
  8
0
 10
3883.9749216375398646
 20
73.556336504962573
 30
0.0
 40
0.1462249538832422
 50
227.3452563764024887
 51
246.8029635141809877
  0
ARC
  5
7FD9
  8
0
 10
3884.0737820523168011
 20
73.7796648563906814
 30
0.0
 40
0.3904498170987585
 50
246.3773557034093074
 51
256.169222420423182
  0
ARC
  5
7FDA
  8
0
 10
3884.1619714565549657
 20
74.1318392385064726
 30
0.0
 40
0.7534967657240421
 50
256.0594692092603282
 51
262.9262463133044889
  0
ARC
  5
7FDB
  8
0
 10
3884.2053077344921803
 20
74.4783235336002747
 30
0.0
 40
1.1026805592780631
 50
262.9086868814646891
 51
270.0970558043823075
  0
ARC
  5
7FDC
  8
0
 10
3883.918550013695949
 20
73.4817862393820036
 30
0.0
 40
0.0272759108108558
 50
171.9776686783087882
 51
201.3576742223627889
  0
ARC
  5
7FDD
  8
0
 10
3883.9402257003671366
 20
73.4923196395177314
 30
0.0
 40
0.051334936771685
 50
203.496623451325803
 51
229.817163465253401
  0
ARC
  5
7FDE
  8
0
 10
3884.0267323921420939
 20
73.6100468952969322
 30
0.0
 40
0.1973409399427316
 50
232.6842477503464011
 51
252.7483059403855918
  0
ARC
  5
7FDF
  8
0
 10
3884.14542672962898
 20
73.9765625006334204
 30
0.0
 40
0.5825872097897418
 50
252.2903029337145995
 51
261.519150042362412
  0
ARC
  5
7FE0
  8
0
 10
3884.2041043754129532
 20
74.370799644233216
 30
0.0
 40
0.9811671702552665
 50
261.5253177581706723
 51
270.179346788771511
  0
ARC
  5
7FE1
  8
0
 10
3883.9145858480619609
 20
73.4875607164791802
 30
0.0
 40
0.0231286855961967
 50
184.8808446365590044
 51
218.5049611137145007
  0
ARC
  5
7FE2
  8
0
 10
3883.9746761469618832
 20
73.5440034888438561
 30
0.0
 40
0.1055095559772804
 50
222.1775337398638897
 51
242.7338025537343924
  0
ARC
  5
7FE3
  8
0
 10
3884.0713949059909282
 20
73.7376717627359
 30
0.0
 40
0.3219799615253571
 50
243.22355933678881
 51
255.9044528828389957
  0
ARC
  5
7FE4
  8
0
 10
3884.1606201457798306
 20
74.0756783092108293
 30
0.0
 40
0.6715525967787662
 50
255.5443429195572946
 51
263.0972606729744143
  0
ARC
  5
7FE5
  8
0
 10
3884.20542957608086
 20
74.4230209741673292
 30
0.0
 40
1.021766644754678
 50
262.9436425899892811
 51
270.0979093786397129
  0
LINE
  5
7FE6
  8
0
 10
3884.1910058590119661
 20
73.559169155461916
 30
0.0
 11
3884.2233296338508808
 21
73.559169155461916
 31
0.0
  0
ARC
  5
7FE7
  8
0
 10
3884.1870306636978967
 20
73.5649891765388446
 30
0.0
 40
0.0058793720248445
 50
289.3291139983202243
 51
5.2723793240645387
  0
ARC
  5
7FE8
  8
0
 10
3884.226988365940997
 20
73.5649239202185043
 30
0.0
 40
0.0057224245873391
 50
173.9259081472478954
 51
252.7124885596300032
  0
ARC
  5
7FE9
  8
0
 10
3884.1715870993539284
 20
73.5786072665017628
 30
0.0
 40
0.0108205823307584
 50
273.0665199726789751
 51
293.8381265971926837
  0
ARC
  5
7FEA
  8
0
 10
3884.2445886243290261
 20
73.5842539517242642
 30
0.0
 40
0.0167983902037999
 50
247.7306405679364048
 51
262.8239710143773209
  0
LINE
  5
7FEB
  8
0
 10
3884.227526047693118
 20
73.5741676699619234
 30
0.0
 11
3884.2382230548569169
 21
73.5687100596619246
 31
0.0
  0
LINE
  5
7FEC
  8
0
 10
3884.242490200526845
 20
73.5675871424619174
 30
0.0
 11
3884.2271203720861195
 21
73.5600416715544156
 31
0.0
  0
ARC
  5
7FED
  8
0
 10
3884.2226490935549919
 20
73.5709509685428031
 30
0.0
 40
0.0117900420899146
 50
272.1408012329017083
 51
292.2867350880421213
  0
LINE
  5
7FEE
  8
0
 10
3884.1721648915568039
 20
73.5678027263619185
 30
0.0
 11
3884.187079822357191
 21
73.5600770369619141
 31
0.0
  0
ARC
  5
7FEF
  8
0
 10
3884.1914071553960639
 20
73.5698657870390633
 30
0.0
 40
0.0107041564770681
 50
246.1526533299654886
 51
267.8514908133169001
  0
LINE
  5
7FF0
  8
0
 10
3884.1759602815568542
 20
73.5687097779619137
 30
0.0
 11
3884.1868246412927874
 21
73.5741673989619187
 31
0.0
  0
LINE
  5
7FF1
  8
0
 10
3884.1928851607572142
 20
73.5742895722637513
 30
0.0
 11
3884.1928851607572142
 21
73.565529435361924
 31
0.0
  0
LINE
  5
7FF2
  8
0
 10
3884.2212980676567895
 20
73.5742966012251145
 30
0.0
 11
3884.2212980676567895
 21
73.5643184050750989
 31
0.0
  0
ARC
  5
7FF3
  8
0
 10
3882.9885044544112134
 20
74.2922653418777799
 30
0.0
 40
1.8914863266572419
 50
348.9227620324019767
 51
1.6672302667655261
  0
ARC
  5
7FF4
  8
0
 10
3884.4483032586931586
 20
73.9939962941934368
 30
0.0
 40
0.4017642952808838
 50
304.7103707807864907
 51
350.6682688673450912
  0
ARC
  5
7FF5
  8
0
 10
3884.7582232949048375
 20
74.4713598492692483
 30
0.0
 40
0.120957943898262
 50
359.9975559318884279
 51
85.8879144320645764
  0
ARC
  5
7FF6
  8
0
 10
3884.2513113519398757
 20
67.9458731230351844
 30
0.0
 40
6.666102019608469
 50
85.5640627846837845
 51
90.3793536452140671
  0
LINE
  5
7FF7
  8
0
 10
3884.8791900466940206
 20
74.3472972877619043
 30
0.0
 11
3884.879181238693036
 21
74.4713546895619061
 31
0.0
  0
ARC
  5
7FF8
  8
0
 10
3884.7583567142619358
 20
74.4707555991103192
 30
0.0
 40
0.059055118231079
 50
0.0000000500616254
 51
85.9453998944243551
  0
ARC
  5
7FF9
  8
0
 10
3882.9978852531698976
 20
74.2950688938891659
 30
0.0
 40
1.8202651932335709
 50
355.6555623813395073
 51
1.632276490844687
  0
ARC
  5
7FFA
  8
0
 10
3883.5723739736517928
 20
74.2122934976877389
 30
0.0
 40
1.2417699265865541
 50
347.6738559874333987
 51
357.4562036315966225
  0
ARC
  5
7FFB
  8
0
 10
3884.3923587503659292
 20
74.0195240030777768
 30
0.0
 40
0.3997561196003698
 50
317.5030204624702037
 51
349.5773856365070174
  0
LINE
  5
7FFC
  8
0
 10
3884.8174118324927804
 20
74.3469186849619064
 30
0.0
 11
3884.8174118324927804
 21
74.4707555991619188
 31
0.0
  0
ARC
  5
7FFD
  8
0
 10
3883.9108826970591508
 20
58.3261585558203279
 30
0.0
 40
16.22587009806103
 50
86.9913254757424568
 51
88.9533308183694089
  0
ARC
  5
7FFE
  8
0
 10
3884.6249896808931226
 20
73.7235162041817205
 30
0.0
 40
0.0644436176713043
 50
29.0059399742888715
 51
35.5138127739592804
  0
ARC
  5
7FFF
  8
0
 10
3884.589994798915086
 20
73.695263661539343
 30
0.0
 40
0.1093730288795483
 50
36.9117990448851216
 51
55.5169413360795403
  0
ARC
  5
8000
  8
0
 10
3884.4107598662271812
 20
73.3859389121064964
 30
0.0
 40
0.4666278688488545
 50
58.8815002596642785
 51
79.9100882747003141
  0
ARC
  5
8001
  8
0
 10
3884.2280454604238003
 20
72.5936030207365377
 30
0.0
 40
1.2793794653972379
 50
78.0701982319364163
 51
90.9346775523631123
  0
ARC
  5
8002
  8
0
 10
3884.649420996371191
 20
73.763947815411683
 30
0.0
 40
0.0332233797043881
 50
343.9546450841007186
 51
12.5364836943709399
  0
ARC
  5
8003
  8
0
 10
3884.6523991699477847
 20
73.7663412761132236
 30
0.0
 40
0.0298445693806913
 50
9.2903719548670338
 51
33.0893576120567019
  0
ARC
  5
8004
  8
0
 10
3884.6183379780231917
 20
73.748459511398849
 30
0.0
 40
0.0682446096366409
 50
30.3208287836201116
 51
45.6209550120965304
  0
ARC
  5
8005
  8
0
 10
3884.5376421421829036
 20
73.6554171151287136
 30
0.0
 40
0.1913265905126799
 50
47.8370820397337724
 51
67.6580501749822787
  0
ARC
  5
8006
  8
0
 10
3884.3491330799788557
 20
73.1951771982493256
 30
0.0
 40
0.6886759138272133
 50
67.707518748169079
 51
81.049546546863013
  0
ARC
  5
8007
  8
0
 10
3884.1735904322681563
 20
71.9262114721811798
 30
0.0
 40
1.9696472173711079
 50
81.7483183537879938
 51
89.0229812246346341
  0
ARC
  5
8008
  8
0
 10
3884.5783090975987761
 20
73.858399016344066
 30
0.0
 40
0.1539554282721289
 50
310.0479432009246921
 51
314.9642691403536787
  0
LINE
  5
8009
  8
0
 10
3884.6774452067879793
 20
73.7609514504297721
 30
0.0
 11
3884.6770318169351413
 21
73.6511346754677021
 31
0.0
  0
ARC
  5
800A
  8
0
 10
3884.568929844925151
 20
73.6571787122414747
 30
0.0
 40
0.1082708027723845
 50
310.5112191377727981
 51
356.7998952602404188
  0
LINE
  5
800B
  8
0
 10
3884.6392622261928409
 20
73.682826920435005
 30
0.0
 11
3884.6392622261928409
 21
73.4575519880619083
 31
0.0
  0
ARC
  5
800C
  8
0
 10
3884.3343646554508268
 20
73.9609689742907364
 30
0.0
 40
0.5885500749026225
 50
288.1050678674959045
 51
301.2014494723948133
  0
ARC
  5
800D
  8
0
 10
3884.68609937420797
 20
73.7504311768599337
 30
0.0
 40
0.0013916850229729
 50
316.2165049224005884
 51
33.5321491629170794
  0
ARC
  5
800E
  8
0
 10
3884.6778537557979689
 20
73.7422891710190243
 30
0.0
 40
0.0129564293305197
 50
43.4522345884574221
 51
74.3444230577670311
  0
ARC
  5
800F
  8
0
 10
3884.6415126131500983
 20
73.6471565538306692
 30
0.0
 40
0.0357412827854046
 50
6.3904488593313129
 51
93.6099157609523047
  0
ARC
  5
8010
  8
0
 10
3884.1956650347628965
 20
72.4852902511803734
 30
0.0
 40
1.167761340218672
 50
67.6743859903317855
 51
89.4352286273058326
  0
ARC
  5
8011
  8
0
 10
3884.5196080237988099
 20
73.4833879792879259
 30
0.0
 40
0.0564004953834596
 50
9.300145099779316
 51
60.0725992411393293
  0
ARC
  5
8012
  8
0
 10
3884.381561316717125
 20
73.265918738968864
 30
0.0
 40
0.3139416537418647
 50
58.0384466483006989
 51
77.4007498513140746
  0
ARC
  5
8013
  8
0
 10
3884.2372062383460616
 20
72.6968497746782418
 30
0.0
 40
0.900951133955186
 50
76.3356241294556526
 51
86.3552047221496792
  0
ARC
  5
8014
  8
0
 10
3884.1907395667039964
 20
71.8885011979837429
 30
0.0
 40
1.7106259629139471
 50
86.5231664222392141
 51
89.4494819221287543
  0
ARC
  5
8015
  8
0
 10
3884.5274050644848103
 20
73.4915400406856065
 30
0.0
 40
0.0478717667171162
 50
334.073148534053189
 51
1.1521927247827981
  0
ARC
  5
8016
  8
0
 10
3884.4781479343519095
 20
73.5247815060264713
 30
0.0
 40
0.107032201551413
 50
293.9307315567940009
 51
329.5936629962650954
  0
ARC
  5
8017
  8
0
 10
3884.3633202199671359
 20
73.7452568334560965
 30
0.0
 40
0.3554716664407229
 50
284.883628988391024
 51
296.4338681256447785
  0
ARC
  5
8018
  8
0
 10
3884.2657558631990469
 20
74.0939905246819706
 30
0.0
 40
0.7175807265364837
 50
277.2940830371570087
 51
285.260220478013423
  0
ARC
  5
8019
  8
0
 10
3884.1843546173658979
 20
74.9057111753500209
 30
0.0
 40
1.5332298572202641
 50
270.8528368752690767
 51
276.4601453889654863
  0
ARC
  5
801A
  8
0
 10
3884.1933314156472079
 20
74.7009276042052335
 30
0.0
 40
1.339137848647405
 50
270.5923427171140929
 51
283.9984385868879144
  0
ARC
  5
801B
  8
0
 10
3884.5011351802581885
 20
73.4679152719832302
 30
0.0
 40
0.0521092120832644
 50
18.5100134845902708
 51
52.6530147516959204
  0
ARC
  5
801C
  8
0
 10
3884.3859087225991971
 20
73.3021527792543424
 30
0.0
 40
0.2539454741085685
 50
54.6740954255493605
 51
75.90995139345479
  0
ARC
  5
801D
  8
0
 10
3884.386891694690803
 20
73.3300824036088841
 30
0.0
 40
0.226692221453475
 50
54.5983957107297613
 51
74.4322356323195464
  0
ARC
  5
801E
  8
0
 10
3884.4921996105681501
 20
73.4767812519894505
 30
0.0
 40
0.0461189119077859
 50
7.8688065766590194
 51
55.6600090190724117
  0
ARC
  5
801F
  8
0
 10
3884.4876278680421819
 20
73.5093963685042127
 30
0.0
 40
0.0676825804957638
 50
296.4233797152534748
 51
338.3796540005116071
  0
ARC
  5
8020
  8
0
 10
3884.4940382908239371
 20
73.4857644058169228
 30
0.0
 40
0.0439271555596798
 50
302.6645869768224202
 51
356.5162779536393032
  0
ARC
  5
8021
  8
0
 10
3884.417315257564951
 20
73.5817689900880936
 30
0.0
 40
0.166647299594288
 50
292.0396196019049739
 51
307.060532814379826
  0
ARC
  5
8022
  8
0
 10
3884.3496190389500953
 20
73.7260533718896198
 30
0.0
 40
0.3259045595645559
 50
281.4372581622491225
 51
293.5529377423521851
  0
ARC
  5
8023
  8
0
 10
3884.2344548230908003
 20
74.2019215474349778
 30
0.0
 40
0.8153698566797629
 50
274.3895693646647942
 51
282.7384254747331056
  0
ARC
  5
8024
  8
0
 10
3884.2084392583869885
 20
74.4660186872487913
 30
0.0
 40
1.0806986566694881
 50
269.93300480089448
 51
274.6931436091243199
  0
ARC
  5
8025
  8
0
 10
3884.2612268855700677
 20
72.8707466049993968
 30
0.0
 40
0.7029058597986101
 50
74.6132705406483865
 51
83.1960986410900603
  0
ARC
  5
8026
  8
0
 10
3884.2093403831067917
 20
72.4831086391639161
 30
0.0
 40
1.0939752571357111
 50
82.9029601654618631
 51
90.1133776368485968
  0
ARC
  5
8027
  8
0
 10
3884.208666329127027
 20
72.5566026093333392
 30
0.0
 40
1.0177826735021751
 50
83.3242929681526761
 51
90.0839195174009006
  0
ARC
  5
8028
  8
0
 10
3884.2394965938879068
 20
72.8245247112265588
 30
0.0
 40
0.7480932530974524
 50
79.1991004798294682
 51
83.2841136575038945
  0
ARC
  5
8029
  8
0
 10
3884.2882315171809751
 20
73.0632816003588204
 30
0.0
 40
0.5044430480187529
 50
77.1189873089405751
 51
79.5545344307918754
  0
ARC
  5
802A
  8
0
 10
3884.3198956438018286
 20
73.1771255760291552
 30
0.0
 40
0.3864441266486751
 50
66.7363243972601055
 51
77.9327469149190222
  0
ARC
  5
802B
  8
0
 10
3884.4111325009539541
 20
73.3912825913592144
 30
0.0
 40
0.1536654352742475
 50
53.5035131680723026
 51
66.4510458167467704
  0
ARC
  5
802C
  8
0
 10
3884.4678854757730733
 20
73.4667661917313524
 30
0.0
 40
0.0592339771014373
 50
30.0915063576368986
 51
54.2074131046889178
  0
ARC
  5
802D
  8
0
 10
3884.489420071476161
 20
73.4801455516777509
 30
0.0
 40
0.033902466820704
 50
9.2261146140552963
 51
28.77470107627747
  0
ARC
  5
802E
  8
0
 10
3884.5217211038511778
 20
73.476363724198734
 30
0.0
 40
0.0299425025846857
 50
344.5226295286158233
 51
15.6845464104472203
  0
ARC
  5
802F
  8
0
 10
3884.5103231683378908
 20
73.4800264485909338
 30
0.0
 40
0.041907373527015
 50
316.5968740467131965
 51
343.8550493516759161
  0
ARC
  5
8030
  8
0
 10
3884.4494159908458641
 20
73.5409998830436535
 30
0.0
 40
0.1280786111662844
 50
293.5425709217510075
 51
315.5014779843078827
  0
ARC
  5
8031
  8
0
 10
3884.3751494371908848
 20
73.6804352258205029
 30
0.0
 40
0.2858408260901162
 50
282.6585509157933984
 51
296.0269136082487762
  0
ARC
  5
8032
  8
0
 10
3884.2678206080449854
 20
74.0503024942612029
 30
0.0
 40
0.6706556700369957
 50
276.966641955569628
 51
284.6809144998233023
  0
ARC
  5
8033
  8
0
 10
3884.2097732063580224
 20
74.4647739434629159
 30
0.0
 40
1.0891324847526529
 50
269.8633487319482924
 51
277.3531465003338212
  0
ARC
  5
8034
  8
0
 10
3884.4952437439610549
 20
73.482012746814874
 30
0.0
 40
0.0278696026273311
 50
340.4070207495478826
 51
7.3563471666068381
  0
ARC
  5
8035
  8
0
 10
3884.4787423496841257
 20
73.4891748935827422
 30
0.0
 40
0.0458333476991776
 50
312.5504448480705264
 51
338.8893168662623907
  0
ARC
  5
8036
  8
0
 10
3884.3991825794878423
 20
73.5874450798414443
 30
0.0
 40
0.1722074063329113
 50
287.1118108558907238
 51
309.9397780636007838
  0
ARC
  5
8037
  8
0
 10
3884.2784210130798783
 20
73.9355537499796895
 30
0.0
 40
0.5405947687836602
 50
278.5479243296184109
 51
288.4886206578032102
  0
ARC
  5
8038
  8
0
 10
3884.2115292177850279
 20
74.3515302404172331
 30
0.0
 40
0.9619028119918763
 50
269.7406764113085273
 51
278.8052115280610792
  0
ARC
  5
8039
  8
0
 10
3884.4927589617818739
 20
73.4897800697139729
 30
0.0
 40
0.0304162091754708
 50
331.6617559199592051
 51
352.0650888334935189
  0
ARC
  5
803A
  8
0
 10
3884.4668571231718488
 20
73.5077060942553828
 30
0.0
 40
0.0618212229975412
 50
293.7936785131216197
 51
328.4321884719464038
  0
ARC
  5
803B
  8
0
 10
3884.3458064922979247
 20
73.7381192343238467
 30
0.0
 40
0.3219799615253572
 50
284.2824066522450153
 51
296.9633001982901988
  0
ARC
  5
803C
  8
0
 10
3884.255479383445163
 20
74.0758329922338135
 30
0.0
 40
0.6715525967787663
 50
277.0895988621073798
 51
284.6425166155066222
  0
ARC
  5
803D
  8
0
 10
3884.2093601320148082
 20
74.4248840701579581
 30
0.0
 40
1.023630579880108
 50
269.8777255438088787
 51
277.2399590777607727
  0
LINE
  5
803E
  8
0
 10
3884.1910137246240993
 20
73.5419031097619182
 30
0.0
 11
3884.223337499463014
 21
73.5419031097619182
 31
0.0
  0
ARC
  5
803F
  8
0
 10
3884.1870385293100298
 20
73.5477231308388468
 30
0.0
 40
0.0058793720248445
 50
289.3291139983202243
 51
5.2723793240645387
  0
ARC
  5
8040
  8
0
 10
3884.2269962315540397
 20
73.5476578745185066
 30
0.0
 40
0.0057224245873391
 50
173.9259081472478954
 51
252.7124885596300032
  0
ARC
  5
8041
  8
0
 10
3884.1715949649660615
 20
73.5613412208017508
 30
0.0
 40
0.0108205823307584
 50
273.0665199726789751
 51
293.8381265971926837
  0
ARC
  5
8042
  8
0
 10
3884.2457000267768308
 20
73.5702341067733983
 30
0.0
 40
0.0202217424126235
 50
248.3227067268844053
 51
259.9752484970279056
  0
LINE
  5
8043
  8
0
 10
3884.2230895145498835
 20
73.5591691553619142
 30
0.0
 11
3884.23823092046905
 21
73.5514440139619126
 31
0.0
  0
LINE
  5
8044
  8
0
 10
3884.2421799554058452
 20
73.5503210968619214
 30
0.0
 11
3884.2271282376977979
 21
73.5427756258544036
 31
0.0
  0
ARC
  5
8045
  8
0
 10
3884.2224738332911329
 20
73.5542616409784671
 30
0.0
 40
0.0123932249156367
 50
274.2881651990193177
 51
292.0589527090571096
  0
LINE
  5
8046
  8
0
 10
3884.1721727571689371
 20
73.5505366806619065
 30
0.0
 11
3884.1870876879688694
 21
73.5428109912619163
 31
0.0
  0
ARC
  5
8047
  8
0
 10
3884.1914150210081971
 20
73.5525997413390655
 30
0.0
 40
0.0107041564770673
 50
246.1526533299650907
 51
267.8514908133169001
  0
LINE
  5
8048
  8
0
 10
3884.1759681471680778
 20
73.5514437322619159
 30
0.0
 11
3884.1913469680271191
 21
73.5591691553619142
 31
0.0
  0
LINE
  5
8049
  8
0
 10
3884.1928930263688926
 20
73.5591691553619142
 30
0.0
 11
3884.1928930263688926
 21
73.548263389661912
 31
0.0
  0
LINE
  5
804A
  8
0
 10
3884.2213059332689227
 20
73.5591691553619142
 30
0.0
 11
3884.2213059332689227
 21
73.5470523593751011
 31
0.0
  0
LINE
  5
804B
  8
0
 10
3884.1913469680271191
 20
73.54190310986192
 30
0.0
 11
3884.2230895145498835
 21
73.54190310986192
 31
0.0
  0
LINE
  5
804C
  8
0
 10
3884.1910137246240993
 20
73.524637064261924
 30
0.0
 11
3884.223337499463014
 21
73.524637064261924
 31
0.0
  0
ARC
  5
804D
  8
0
 10
3884.1870385293100298
 20
73.5304570853388242
 30
0.0
 40
0.0058793720248445
 50
289.3291139983202243
 51
5.2723793240645387
  0
ARC
  5
804E
  8
0
 10
3884.2269962315540397
 20
73.5303918290184839
 30
0.0
 40
0.0057224245873391
 50
173.9259081472482933
 51
252.7124885596300032
  0
ARC
  5
804F
  8
0
 10
3884.1715949649660615
 20
73.5440751753017565
 30
0.0
 40
0.0108205823307584
 50
273.0665199726789751
 51
293.8381265971926837
  0
ARC
  5
8050
  8
0
 10
3884.2439680056450015
 20
73.5478730901661208
 30
0.0
 40
0.0148498206005363
 50
247.271472031950907
 51
263.0842993207733116
  0
LINE
  5
8051
  8
0
 10
3884.2230895145498835
 20
73.54190310986192
 30
0.0
 11
3884.23823092046905
 21
73.5341779684619183
 31
0.0
  0
LINE
  5
8052
  8
0
 10
3884.2421799554058452
 20
73.5331313111619238
 30
0.0
 11
3884.2271282376977979
 21
73.5255095803544236
 31
0.0
  0
ARC
  5
8053
  8
0
 10
3884.2224738332911329
 20
73.5369955954784729
 30
0.0
 40
0.0123932249156367
 50
274.2881651990193177
 51
292.0589527090571096
  0
LINE
  5
8054
  8
0
 10
3884.1721727571689371
 20
73.5332706351619123
 30
0.0
 11
3884.1870876879688694
 21
73.5255449457619079
 31
0.0
  0
ARC
  5
8055
  8
0
 10
3884.1914150210081971
 20
73.5353336958390571
 30
0.0
 40
0.0107041564770677
 50
246.1526533299652897
 51
267.8514908133169001
  0
LINE
  5
8056
  8
0
 10
3884.1759681471680778
 20
73.5341776867619217
 30
0.0
 11
3884.1913469680271191
 21
73.54190310986192
 31
0.0
  0
LINE
  5
8057
  8
0
 10
3884.1928930263688926
 20
73.54190310986192
 30
0.0
 11
3884.1928930263688926
 21
73.5309973441619178
 31
0.0
  0
LINE
  5
8058
  8
0
 10
3884.2213059332689227
 20
73.54190310986192
 30
0.0
 11
3884.2213059332689227
 21
73.5297863138750927
 31
0.0
  0
LINE
  5
8059
  8
0
 10
3884.1910137246240993
 20
73.4555728820619152
 30
0.0
 11
3884.223337499463014
 21
73.4555728820619152
 31
0.0
  0
ARC
  5
805A
  8
0
 10
3884.1870385293100298
 20
73.4613929031388437
 30
0.0
 40
0.0058793720248445
 50
289.3291139983202243
 51
5.2723793240645387
  0
ARC
  5
805B
  8
0
 10
3884.2269962315540397
 20
73.4613276468185035
 30
0.0
 40
0.0057224245873391
 50
173.9259081472482933
 51
252.7124885596300032
  0
ARC
  5
805C
  8
0
 10
3884.1715949649660615
 20
73.4750109931017619
 30
0.0
 40
0.0108205823307584
 50
273.0665199726789751
 51
293.8381265971926837
  0
ARC
  5
805D
  8
0
 10
3884.2423852276629077
 20
73.4741529554882504
 30
0.0
 40
0.0099496695222405
 50
245.3187693269906902
 51
268.6853748162915281
  0
LINE
  5
805E
  8
0
 10
3884.2230895145498835
 20
73.4728389276619112
 30
0.0
 11
3884.23823092046905
 21
73.4651137862619237
 31
0.0
  0
LINE
  5
805F
  8
0
 10
3884.2421569571238251
 20
73.4642059048619132
 30
0.0
 11
3884.2271282376977979
 21
73.4564453981544148
 31
0.0
  0
ARC
  5
8060
  8
0
 10
3884.2224738332911329
 20
73.467931413278464
 30
0.0
 40
0.0123932249156367
 50
274.2881651990193177
 51
292.0589527090571096
  0
LINE
  5
8061
  8
0
 10
3884.1721727571689371
 20
73.4642064529619034
 30
0.0
 11
3884.1870876879688694
 21
73.4564807635619132
 31
0.0
  0
ARC
  5
8062
  8
0
 10
3884.1914150210081971
 20
73.4662695136390624
 30
0.0
 40
0.0107041564770677
 50
246.1526533299652897
 51
267.8514908133169001
  0
LINE
  5
8063
  8
0
 10
3884.1759681471680778
 20
73.4651135045619128
 30
0.0
 11
3884.1913469680271191
 21
73.4728389276619112
 31
0.0
  0
LINE
  5
8064
  8
0
 10
3884.1928930263688926
 20
73.4728389276619112
 30
0.0
 11
3884.1928930263688926
 21
73.4619331619619231
 31
0.0
  0
LINE
  5
8065
  8
0
 10
3884.2213059332689227
 20
73.4728389276619112
 30
0.0
 11
3884.2213059332689227
 21
73.4607221316750838
 31
0.0
  0
LINE
  5
8066
  8
0
 10
3884.1910137246240993
 20
73.5075860543619228
 30
0.0
 11
3884.223337499463014
 21
73.5075860543619228
 31
0.0
  0
ARC
  5
8067
  8
0
 10
3884.1870385293100298
 20
73.5134060754388372
 30
0.0
 40
0.0058793720248445
 50
289.3291139983202243
 51
5.2723793240645387
  0
ARC
  5
8068
  8
0
 10
3884.2269962315540397
 20
73.5133408191185111
 30
0.0
 40
0.0057224245873391
 50
173.9259081472482933
 51
252.7124885596300032
  0
ARC
  5
8069
  8
0
 10
3884.1674982457411716
 20
73.5391656097164628
 30
0.0
 40
0.0236104593677757
 50
281.1904205406078745
 51
291.0225368963969004
  0
ARC
  5
806A
  8
0
 10
3884.2457000267768308
 20
73.5359170513733602
 30
0.0
 40
0.0202217424125838
 50
248.3227067268838937
 51
259.9752484970541104
  0
LINE
  5
806B
  8
0
 10
3884.2234961950048273
 20
73.524644611698406
 30
0.0
 11
3884.23823092046905
 21
73.5171269585619171
 31
0.0
  0
LINE
  5
806C
  8
0
 10
3884.2421799554058452
 20
73.5160040414619118
 30
0.0
 11
3884.2271282376977979
 21
73.5084585704544224
 31
0.0
  0
ARC
  5
806D
  8
0
 10
3884.2224738332911329
 20
73.5199445855784717
 30
0.0
 40
0.0123932249156367
 50
274.2881651990193177
 51
292.0589527090571096
  0
LINE
  5
806E
  8
0
 10
3884.1720803356079159
 20
73.5160040414619118
 30
0.0
 11
3884.1870876879688694
 21
73.5084939358619067
 31
0.0
  0
ARC
  5
806F
  8
0
 10
3884.1914150210081971
 20
73.5182826859390701
 30
0.0
 40
0.0107041564770677
 50
246.1526533299652897
 51
267.8514908133169001
  0
LINE
  5
8070
  8
0
 10
3884.1759681471680778
 20
73.5171266768619205
 30
0.0
 11
3884.1910137246240993
 21
73.524637064261924
 31
0.0
  0
LINE
  5
8071
  8
0
 10
3884.1928930263688926
 20
73.5246370642619098
 30
0.0
 11
3884.1928930263688926
 21
73.512865816615772
 31
0.0
  0
LINE
  5
8072
  8
0
 10
3884.2213059332689227
 20
73.524637064261924
 30
0.0
 11
3884.2213059332689227
 21
73.5139463342619166
 31
0.0
  0
LINE
  5
8073
  8
0
 10
3884.1910137246240993
 20
73.4383068364619191
 30
0.0
 11
3884.223337499463014
 21
73.4383068364619191
 31
0.0
  0
ARC
  5
8074
  8
0
 10
3884.1870385293100298
 20
73.4441268575388335
 30
0.0
 40
0.0058793720248445
 50
289.3291139983202243
 51
5.2723793240645387
  0
ARC
  5
8075
  8
0
 10
3884.2269962315540397
 20
73.4440616012185075
 30
0.0
 40
0.0057224245873391
 50
173.9259081472482933
 51
252.7124885596300032
  0
ARC
  5
8076
  8
0
 10
3884.1715949649660615
 20
73.4577449475017659
 30
0.0
 40
0.0108205823307584
 50
273.0665199726789751
 51
293.8381265971926837
  0
ARC
  5
8077
  8
0
 10
3884.2423813428781614
 20
73.4568754822736878
 30
0.0
 40
0.0099376637871419
 50
245.3116089480905089
 51
268.8388174141886111
  0
LINE
  5
8078
  8
0
 10
3884.2230895145498835
 20
73.4555728820619152
 30
0.0
 11
3884.23823092046905
 21
73.4478477406619135
 31
0.0
  0
LINE
  5
8079
  8
0
 10
3884.2421799554058452
 20
73.4469398592619029
 30
0.0
 11
3884.2271282376977979
 21
73.4391793525544188
 31
0.0
  0
ARC
  5
807A
  8
0
 10
3884.2224738332911329
 20
73.4506653676784822
 30
0.0
 40
0.0123932249156367
 50
274.2881651990193177
 51
292.0589527090571096
  0
LINE
  5
807B
  8
0
 10
3884.1721727571689371
 20
73.4469404073619216
 30
0.0
 11
3884.1870876879688694
 21
73.4392147179619172
 31
0.0
  0
ARC
  5
807C
  8
0
 10
3884.1914150210081971
 20
73.4490034680390664
 30
0.0
 40
0.0107041564770677
 50
246.1526533299652897
 51
267.8514908133169001
  0
LINE
  5
807D
  8
0
 10
3884.1759681471680778
 20
73.4478474589619168
 30
0.0
 11
3884.1913469680271191
 21
73.4555728820619152
 31
0.0
  0
LINE
  5
807E
  8
0
 10
3884.1928930263688926
 20
73.4555728820619152
 30
0.0
 11
3884.1928930263688926
 21
73.4435865987157825
 31
0.0
  0
LINE
  5
807F
  8
0
 10
3884.2213059332689227
 20
73.4555728820619152
 30
0.0
 11
3884.2213059332689227
 21
73.4446671163619271
 31
0.0
  0
LINE
  5
8080
  8
0
 10
3884.1910137246240993
 20
73.4210407908619231
 30
0.0
 11
3884.223337499463014
 21
73.4210407908619231
 31
0.0
  0
ARC
  5
8081
  8
0
 10
3884.1870385293100298
 20
73.4268608119388375
 30
0.0
 40
0.0058793720248445
 50
289.3291139983202243
 51
5.2723793240645387
  0
ARC
  5
8082
  8
0
 10
3884.2269962315540397
 20
73.4267955556185115
 30
0.0
 40
0.0057224245873391
 50
173.9259081472482933
 51
252.7124885596300032
  0
ARC
  5
8083
  8
0
 10
3884.1715949649660615
 20
73.4404789019017556
 30
0.0
 40
0.0108205823307584
 50
273.0665199726789751
 51
293.8381265971926837
  0
LINE
  5
8084
  8
0
 10
3884.2230895145498835
 20
73.4383068364619191
 30
0.0
 11
3884.23823092046905
 21
73.4305816950619175
 31
0.0
  0
LINE
  5
8085
  8
0
 10
3884.2421018133932193
 20
73.4296738136619069
 30
0.0
 11
3884.2271282376977979
 21
73.4219133069544228
 31
0.0
  0
ARC
  5
8086
  8
0
 10
3884.2224738332911329
 20
73.433399322078472
 30
0.0
 40
0.0123932249156367
 50
274.2881651990193177
 51
292.0589527090571096
  0
LINE
  5
8087
  8
0
 10
3884.1721727571689371
 20
73.4296743617619114
 30
0.0
 11
3884.1870876879688694
 21
73.421948672361907
 31
0.0
  0
ARC
  5
8088
  8
0
 10
3884.1914150210081971
 20
73.4317374224390704
 30
0.0
 40
0.0107041564770677
 50
246.1526533299652897
 51
267.8514908133169001
  0
LINE
  5
8089
  8
0
 10
3884.1759681471680778
 20
73.4305814133619208
 30
0.0
 11
3884.1913469680271191
 21
73.4383068364619191
 31
0.0
  0
LINE
  5
808A
  8
0
 10
3884.1928930263688926
 20
73.4383068364619191
 30
0.0
 11
3884.1928930263688926
 21
73.4263205531157865
 31
0.0
  0
LINE
  5
808B
  8
0
 10
3884.2213059332689227
 20
73.4383068364619191
 30
0.0
 11
3884.2213059332689227
 21
73.4261900404750918
 31
0.0
  0
LINE
  5
808C
  8
0
 10
3884.1913469680271191
 20
73.4901049731619196
 30
0.0
 11
3884.2230895145498835
 21
73.4901049731619196
 31
0.0
  0
LINE
  5
808D
  8
0
 10
3884.1910137246240993
 20
73.4728389275619236
 30
0.0
 11
3884.223337499463014
 21
73.4728389275619236
 31
0.0
  0
ARC
  5
808E
  8
0
 10
3884.1870385293100298
 20
73.4786589486388237
 30
0.0
 40
0.0058793720248445
 50
289.3291139983202243
 51
5.2723793240645387
  0
ARC
  5
808F
  8
0
 10
3884.2269962315540397
 20
73.4785936923184977
 30
0.0
 40
0.0057224245873391
 50
173.9259081472482933
 51
252.7124885596300032
  0
ARC
  5
8090
  8
0
 10
3884.1715949649660615
 20
73.4922770386017561
 30
0.0
 40
0.0108205823307584
 50
273.0665199726789751
 51
293.8381265971926837
  0
ARC
  5
8091
  8
0
 10
3884.2424803864969363
 20
73.4916989233866786
 30
0.0
 40
0.0102438002072253
 50
245.4889232272861079
 51
268.4155536530557811
  0
LINE
  5
8092
  8
0
 10
3884.2230895145498835
 20
73.4901049731619196
 30
0.0
 11
3884.23823092046905
 21
73.4823798317619179
 31
0.0
  0
LINE
  5
8093
  8
0
 10
3884.2421971425419542
 20
73.4814590398156895
 30
0.0
 11
3884.2271282376977979
 21
73.4737114436544232
 31
0.0
  0
ARC
  5
8094
  8
0
 10
3884.2224738332911329
 20
73.4851974587784724
 30
0.0
 40
0.0123932249156367
 50
274.2881651990193177
 51
292.0589527090571096
  0
LINE
  5
8095
  8
0
 10
3884.1721727571689371
 20
73.4814724984619119
 30
0.0
 11
3884.1870876879688694
 21
73.4737468090619075
 31
0.0
  0
ARC
  5
8096
  8
0
 10
3884.1914150210081971
 20
73.4835355591390709
 30
0.0
 40
0.0107041564770677
 50
246.1526533299652897
 51
267.8514908133169001
  0
LINE
  5
8097
  8
0
 10
3884.1759681471680778
 20
73.4823795500619212
 30
0.0
 11
3884.1913469680271191
 21
73.4901049731619196
 31
0.0
  0
LINE
  5
8098
  8
0
 10
3884.1928930263688926
 20
73.4901049731619196
 30
0.0
 11
3884.1928930263688926
 21
73.4791992074619174
 31
0.0
  0
LINE
  5
8099
  8
0
 10
3884.2213059332689227
 20
73.4901049731619196
 30
0.0
 11
3884.2213059332689227
 21
73.4779881771750922
 31
0.0
  0
LINE
  5
809A
  8
0
 10
3884.242490200526845
 20
73.5675871424619174
 30
0.0
 11
3884.2742327470509736
 21
73.5675871424619174
 31
0.0
  0
LINE
  5
809B
  8
0
 10
3884.2421569571238251
 20
73.5503210968619214
 30
0.0
 11
3884.2744807319631946
 21
73.5503210968619214
 31
0.0
  0
ARC
  5
809C
  8
0
 10
3884.2385659760898307
 20
73.5560473611273267
 30
0.0
 40
0.0055069019876734
 50
287.0074229527456851
 51
6.6111862394592453
  0
ARC
  5
809D
  8
0
 10
3884.2781394640528561
 20
73.5560758616185097
 30
0.0
 40
0.0057224245873391
 50
173.9259081472478954
 51
252.7124885596300032
  0
ARC
  5
809E
  8
0
 10
3884.2935155681598189
 20
73.5688632467440442
 30
0.0
 40
0.0099098280336731
 50
245.2949402329398083
 51
270.6814768756001968
  0
LINE
  5
809F
  8
0
 10
3884.2742327470509736
 20
73.5675871424619174
 30
0.0
 11
3884.2893741529687759
 21
73.5598620010619157
 31
0.0
  0
LINE
  5
80A0
  8
0
 10
3884.2936334330270256
 20
73.5589541196619194
 30
0.0
 11
3884.2782714701979785
 21
73.551193612954421
 31
0.0
  0
ARC
  5
80A1
  8
0
 10
3884.273617065792223
 20
73.5626796280784703
 30
0.0
 40
0.0123932249156367
 50
274.2881651990193177
 51
292.0589527090571096
  0
LINE
  5
80A2
  8
0
 10
3884.2440362588690732
 20
73.5675871424619174
 30
0.0
 11
3884.2440362588690732
 21
73.5554133454927239
 31
0.0
  0
LINE
  5
80A3
  8
0
 10
3884.2724491657691033
 20
73.5675871424619174
 30
0.0
 11
3884.2724491657691033
 21
73.5566813767619152
 31
0.0
  0
LINE
  5
80A4
  8
0
 10
3884.242490200526845
 20
73.550321096961909
 30
0.0
 11
3884.2742327470509736
 21
73.550321096961909
 31
0.0
  0
LINE
  5
80A5
  8
0
 10
3884.2421293096131194
 20
73.5331096472656469
 30
0.0
 11
3884.2744807319631946
 21
73.533055051361913
 31
0.0
  0
ARC
  5
80A6
  8
0
 10
3884.2378675631671285
 20
73.5389517438810003
 30
0.0
 40
0.0061860908432832
 50
296.3325685388772968
 51
4.2977909535435472
  0
ARC
  5
80A7
  8
0
 10
3884.2781394640528561
 20
73.5388098161185013
 30
0.0
 40
0.0057224245873391
 50
173.9259081472482933
 51
252.7124885596300032
  0
ARC
  5
80A8
  8
0
 10
3884.2935155681598189
 20
73.5515972012440358
 30
0.0
 40
0.0099098280336652
 50
245.2949402329388988
 51
270.6814768756001968
  0
LINE
  5
80A9
  8
0
 10
3884.2742327470509736
 20
73.550321096961909
 30
0.0
 11
3884.2893741529687759
 21
73.5425959555619215
 31
0.0
  0
LINE
  5
80AA
  8
0
 10
3884.2936334330270256
 20
73.541688074161911
 30
0.0
 11
3884.2782714701979785
 21
73.5339275674544126
 31
0.0
  0
ARC
  5
80AB
  8
0
 10
3884.273617065792223
 20
73.5454135825784761
 30
0.0
 40
0.0123932249156367
 50
274.2881651990193177
 51
292.0589527090571096
  0
LINE
  5
80AC
  8
0
 10
3884.2440362588690732
 20
73.550321096961909
 30
0.0
 11
3884.2440362588690732
 21
73.5384881565000939
 31
0.0
  0
LINE
  5
80AD
  8
0
 10
3884.2724491657691033
 20
73.550321096961909
 30
0.0
 11
3884.2724491657691033
 21
73.5382043009750959
 31
0.0
  0
LINE
  5
80AE
  8
0
 10
3884.2421569571238251
 20
73.4642059048619132
 30
0.0
 11
3884.2744807319631946
 21
73.4642059048619132
 31
0.0
  0
ARC
  5
80AF
  8
0
 10
3884.2381200351901498
 20
73.4700409886041399
 30
0.0
 40
0.00593948934038
 50
289.9582183926016228
 51
5.0729740969197827
  0
ARC
  5
80B0
  8
0
 10
3884.2781394640528561
 20
73.4699606696185015
 30
0.0
 40
0.0057224245873391
 50
173.9259081472482933
 51
252.7124885596300032
  0
ARC
  5
80B1
  8
0
 10
3884.293623619796108
 20
73.4830659030377262
 30
0.0
 40
0.0102438026779667
 50
245.4889246153470026
 51
268.4155494883527808
  0
LINE
  5
80B2
  8
0
 10
3884.2742327470509736
 20
73.4814719504619234
 30
0.0
 11
3884.2893741529687759
 21
73.4737468090619075
 31
0.0
  0
LINE
  5
80B3
  8
0
 10
3884.2933403750280377
 20
73.4728260170175247
 30
0.0
 11
3884.2782714701979785
 21
73.4650784209544128
 31
0.0
  0
ARC
  5
80B4
  8
0
 10
3884.273617065792223
 20
73.4765644360784762
 30
0.0
 40
0.0123932249156367
 50
274.2881651990193177
 51
292.0589527090571096
  0
LINE
  5
80B5
  8
0
 10
3884.2440362588690732
 20
73.4814719504619234
 30
0.0
 11
3884.2440362588690732
 21
73.4695157924463871
 31
0.0
  0
LINE
  5
80B6
  8
0
 10
3884.2724491657691033
 20
73.4814719504619234
 30
0.0
 11
3884.2724491657691033
 21
73.4705661847619211
 31
0.0
  0
LINE
  5
80B7
  8
0
 10
3884.2421569571238251
 20
73.5160040414619118
 30
0.0
 11
3884.2744807319631946
 21
73.5160040414619118
 31
0.0
  0
ARC
  5
80B8
  8
0
 10
3884.2385659760898307
 20
73.521730305727317
 30
0.0
 40
0.005506901987673
 50
287.0074229527457987
 51
6.6111862394681413
  0
ARC
  5
80B9
  8
0
 10
3884.2781394640528561
 20
73.5217588062185143
 30
0.0
 40
0.0057224245873391
 50
173.9259081472482933
 51
252.7124885596300032
  0
ARC
  5
80BA
  8
0
 10
3884.2951112381438179
 20
73.5392400673661228
 30
0.0
 40
0.0148498206005363
 50
247.271472031950907
 51
263.0842993207733116
  0
LINE
  5
80BB
  8
0
 10
3884.2746394275059174
 20
73.5330625987984092
 30
0.0
 11
3884.2893741529687759
 21
73.5255449456619203
 31
0.0
  0
LINE
  5
80BC
  8
0
 10
3884.2933231879042069
 20
73.5244982883619116
 30
0.0
 11
3884.2782714701979785
 21
73.5168765575544114
 31
0.0
  0
ARC
  5
80BD
  8
0
 10
3884.273617065792223
 20
73.5283625726784749
 30
0.0
 40
0.0123932249156367
 50
274.2881651990193177
 51
292.0589527090571096
  0
LINE
  5
80BE
  8
0
 10
3884.2440362588690732
 20
73.533055051361913
 30
0.0
 11
3884.2440362588690732
 21
73.5210962900927427
 31
0.0
  0
LINE
  5
80BF
  8
0
 10
3884.2724491657691033
 20
73.533055051361913
 30
0.0
 11
3884.2724491657691033
 21
73.5211532910750947
 31
0.0
  0
LINE
  5
80C0
  8
0
 10
3884.2421569571238251
 20
73.4469398592619029
 30
0.0
 11
3884.2744807319631946
 21
73.4469398592619029
 31
0.0
  0
ARC
  5
80C1
  8
0
 10
3884.238104488713816
 20
73.4527787366892255
 30
0.0
 40
0.0059546416941468
 50
290.1790048325603948
 51
5.0233867955728408
  0
ARC
  5
80C2
  8
0
 10
3884.2781394640528561
 20
73.4526946240185055
 30
0.0
 40
0.0057224245873391
 50
173.9259081472482933
 51
252.7124885596300032
  0
ARC
  5
80C3
  8
0
 10
3884.2936236187911163
 20
73.4657998544817445
 30
0.0
 40
0.0102437995714872
 50
245.4889228701152035
 51
268.4155545598856065
  0
LINE
  5
80C4
  8
0
 10
3884.2742327470509736
 20
73.4642059048619132
 30
0.0
 11
3884.2893741529687759
 21
73.4564807634619115
 31
0.0
  0
LINE
  5
80C5
  8
0
 10
3884.2933403750162142
 20
73.45555997154176
 30
0.0
 11
3884.2782714701979785
 21
73.4478123753544168
 31
0.0
  0
ARC
  5
80C6
  8
0
 10
3884.273617065792223
 20
73.459298390478466
 30
0.0
 40
0.0123932249156367
 50
274.2881651990193177
 51
292.0589527090571096
  0
LINE
  5
80C7
  8
0
 10
3884.2440362588690732
 20
73.4642059048619132
 30
0.0
 11
3884.2440362588690732
 21
73.4522573342165401
 31
0.0
  0
LINE
  5
80C8
  8
0
 10
3884.2724491657691033
 20
73.4642059048619132
 30
0.0
 11
3884.2724491657691033
 21
73.4520891088751
 31
0.0
  0
LINE
  5
80C9
  8
0
 10
3884.2421569571238251
 20
73.4296738136619069
 30
0.0
 11
3884.2744807319631946
 21
73.4296738136619069
 31
0.0
  0
ARC
  5
80CA
  8
0
 10
3884.2381817618102104
 20
73.4354938347388355
 30
0.0
 40
0.0058793720248445
 50
289.3291139983202243
 51
5.2723793240645387
  0
ARC
  5
80CB
  8
0
 10
3884.2781394640528561
 20
73.4354285784185095
 30
0.0
 40
0.0057224245873391
 50
173.9259081472482933
 51
252.7124885596300032
  0
ARC
  5
80CC
  8
0
 10
3884.2935284601630883
 20
73.448253887088228
 30
0.0
 40
0.009949669522227
 50
245.3187693269892975
 51
268.6853748163175055
  0
LINE
  5
80CD
  8
0
 10
3884.2742327470509736
 20
73.4469398592619029
 30
0.0
 11
3884.2893741529687759
 21
73.4392147178619155
 31
0.0
  0
LINE
  5
80CE
  8
0
 10
3884.2933001896240057
 20
73.4383068364619191
 30
0.0
 11
3884.2782714701979785
 21
73.4305463297544065
 31
0.0
  0
ARC
  5
80CF
  8
0
 10
3884.2736711496481803
 20
73.4418620186435049
 30
0.0
 40
0.0122150630042236
 50
273.8001995333676746
 51
292.1238843914334211
  0
ARC
  5
80D0
  8
0
 10
3884.2425582535079229
 20
73.4403704452390684
 30
0.0
 40
0.0107041564770677
 50
246.1526533299652897
 51
267.8514908133169001
  0
LINE
  5
80D1
  8
0
 10
3884.2440362588690732
 20
73.4469398592619029
 30
0.0
 11
3884.2440362588690732
 21
73.4360340935619149
 31
0.0
  0
LINE
  5
80D2
  8
0
 10
3884.2724491657691033
 20
73.4469398592619029
 30
0.0
 11
3884.2724491657691033
 21
73.4360340935619149
 31
0.0
  0
LINE
  5
80D3
  8
0
 10
3884.2421018133932193
 20
73.4987379958619158
 30
0.0
 11
3884.2742327470509736
 21
73.4987379959619176
 31
0.0
  0
LINE
  5
80D4
  8
0
 10
3884.2421569571238251
 20
73.4814719503618932
 30
0.0
 11
3884.2744807319631946
 21
73.4814719503618932
 31
0.0
  0
ARC
  5
80D5
  8
0
 10
3884.2380916535089455
 20
73.4873139598643945
 30
0.0
 40
0.0059671548581191
 50
290.3598105598081247
 51
4.982637213786786
  0
ARC
  5
80D6
  8
0
 10
3884.2781394640528561
 20
73.4872267151184957
 30
0.0
 40
0.0057224245873391
 50
173.9259081472482933
 51
252.7124885596300032
  0
ARC
  5
80D7
  8
0
 10
3884.2936185628341264
 20
73.5003170728111002
 30
0.0
 40
0.0102281696788731
 50
245.4801284692009062
 51
268.4093881735686864
  0
LINE
  5
80D8
  8
0
 10
3884.2742327470509736
 20
73.4987379959619176
 30
0.0
 11
3884.2894047746190154
 21
73.4909972314043358
 31
0.0
  0
LINE
  5
80D9
  8
0
 10
3884.2933346508580144
 20
73.4900928442842343
 30
0.0
 11
3884.2782714701979785
 21
73.482344466454407
 31
0.0
  0
ARC
  5
80DA
  8
0
 10
3884.273617065792223
 20
73.4938304815784704
 30
0.0
 40
0.0123932249156367
 50
274.2881651990193177
 51
292.0589527090571096
  0
LINE
  5
80DB
  8
0
 10
3884.2440362588690732
 20
73.4987379959619176
 30
0.0
 11
3884.2440362588690732
 21
73.4867956894668879
 31
0.0
  0
LINE
  5
80DC
  8
0
 10
3884.2724491657691033
 20
73.4987379959619176
 30
0.0
 11
3884.2724491657691033
 21
73.4866211999751044
 31
0.0
  0
ARC
  5
80DD
  8
0
 10
3884.2228983351092211
 20
73.5006903328674639
 30
0.0
 40
0.0105870859859766
 50
271.0346917469328787
 51
293.901010261156614
  0
LINE
  5
80DE
  8
0
 10
3884.223337499463014
 20
73.5075860543619228
 30
0.0
 11
3884.2412711003930781
 21
73.4989530315619106
 31
0.0
  0
LINE
  5
80DF
  8
0
 10
3884.2271877745929487
 20
73.491011123261913
 30
0.0
 11
3884.2421018133932193
 21
73.4987379958619158
 31
0.0
  0
ARC
  5
80E0
  8
0
 10
3884.2421380429241253
 20
73.5005900537392023
 30
0.0
 40
0.0018524122002609
 50
242.0949729459003095
 51
268.8793360692865235
  0
ARC
  5
80E1
  8
0
 10
3884.2741016975360253
 20
73.5090514049240227
 30
0.0
 40
0.0103142416351817
 50
269.2719537847731885
 51
294.2077003110139231
  0
LINE
  5
80E2
  8
0
 10
3884.2744807319631946
 20
73.5160040414619118
 30
0.0
 11
3884.2908917197842129
 21
73.5077598364981668
 31
0.0
  0
LINE
  5
80E3
  8
0
 10
3884.2783310070940388
 20
73.4996441459619234
 30
0.0
 11
3884.2933001896240057
 21
73.5073710186619138
 31
0.0
  0
ARC
  5
80E4
  8
0
 10
3884.2881072170061998
 20
73.4828578304837521
 30
0.0
 40
0.0250572017443424
 50
78.0390658559206116
 51
83.6197802041001239
  0
LINE
  5
80E5
  8
0
 10
3884.2936334330270256
 20
73.5589541196619194
 30
0.0
 11
3884.3253759795497899
 21
73.5589541196619194
 31
0.0
  0
ARC
  5
80E6
  8
0
 10
3884.2893249943099363
 20
73.5475080951388378
 30
0.0
 40
0.0058793720248445
 50
289.3291139983202243
 51
5.2723793240645387
  0
ARC
  5
80E7
  8
0
 10
3884.3292826965539462
 20
73.5474428388185117
 30
0.0
 40
0.0057224245873391
 50
173.9259081472478954
 51
252.7124885596300032
  0
ARC
  5
80E8
  8
0
 10
3884.3446716926628142
 20
73.5602681474882445
 30
0.0
 40
0.0099496695222413
 50
245.3187693269910881
 51
268.6853748162915281
  0
LINE
  5
80E9
  8
0
 10
3884.3253759795497899
 20
73.5589541196619194
 30
0.0
 11
3884.3405173854689565
 21
73.5512289782619035
 31
0.0
  0
LINE
  5
80EA
  8
0
 10
3884.3444434221241863
 20
73.5503210968619214
 30
0.0
 11
3884.3294147026981591
 21
73.5425605901543946
 31
0.0
  0
ARC
  5
80EB
  8
0
 10
3884.3247602982910394
 20
73.5540466052784723
 30
0.0
 40
0.0123932249156367
 50
274.2881651990193177
 51
292.0589527090571096
  0
LINE
  5
80EC
  8
0
 10
3884.2951794913687991
 20
73.5589541196619194
 30
0.0
 11
3884.2951794913687991
 21
73.5469678363157868
 31
0.0
  0
LINE
  5
80ED
  8
0
 10
3884.3235923982688291
 20
73.5589541196619194
 30
0.0
 11
3884.3235923982688291
 21
73.5468373236750921
 31
0.0
  0
LINE
  5
80EE
  8
0
 10
3884.2936334330270256
 20
73.541688074161911
 30
0.0
 11
3884.3253759795497899
 21
73.541688074161911
 31
0.0
  0
LINE
  5
80EF
  8
0
 10
3884.2933231879042069
 20
73.5244982883619116
 30
0.0
 11
3884.3256239644629204
 21
73.524422028561915
 31
0.0
  0
ARC
  5
80F0
  8
0
 10
3884.2893249943099363
 20
73.5302420496388436
 30
0.0
 40
0.0058793720248456
 50
292.615693501497276
 51
5.2723793240592691
  0
ARC
  5
80F1
  8
0
 10
3884.3292826965539462
 20
73.5301767933185033
 30
0.0
 40
0.0057224245873391
 50
173.9259081472482933
 51
252.7124885596300032
  0
ARC
  5
80F2
  8
0
 10
3884.3446678078771583
 20
73.5429906743736979
 30
0.0
 40
0.0099376637871551
 50
245.3116089480917026
 51
268.8388174141886111
  0
LINE
  5
80F3
  8
0
 10
3884.3253759795497899
 20
73.541688074161911
 30
0.0
 11
3884.3405173854689565
 21
73.5339629327618951
 31
0.0
  0
LINE
  5
80F4
  8
0
 10
3884.3444664204048422
 20
73.533055051361913
 30
0.0
 11
3884.3294147026981591
 21
73.5252945446544146
 31
0.0
  0
ARC
  5
80F5
  8
0
 10
3884.3247602982910394
 20
73.5367805597784781
 30
0.0
 40
0.0123932249156367
 50
274.2881651990193177
 51
292.0589527090571096
  0
LINE
  5
80F6
  8
0
 10
3884.2951794913687991
 20
73.541688074161911
 30
0.0
 11
3884.2951794913687991
 21
73.5307823084619088
 31
0.0
  0
LINE
  5
80F7
  8
0
 10
3884.3235923982688291
 20
73.541688074161911
 30
0.0
 11
3884.3235923982688291
 21
73.530782308461923
 31
0.0
  0
LINE
  5
80F8
  8
0
 10
3884.2933001896240057
 20
73.5073710186619138
 30
0.0
 11
3884.3256239644629204
 21
73.5073710186619138
 31
0.0
  0
ARC
  5
80F9
  8
0
 10
3884.2893249943099363
 20
73.5131910397388424
 30
0.0
 40
0.0058793720248451
 50
290.8526443817605127
 51
5.272379324060485
  0
ARC
  5
80FA
  8
0
 10
3884.3292826965539462
 20
73.5131257834185021
 30
0.0
 40
0.0057224245873391
 50
173.9259081472482933
 51
252.7124885596300032
  0
ARC
  5
80FB
  8
0
 10
3884.3446684581617774
 20
73.5259370796142093
 30
0.0
 40
0.0099355869556652
 50
245.3019756607868942
 51
268.7021684824850922
  0
LINE
  5
80FC
  8
0
 10
3884.3257826600051885
 20
73.524429575998397
 30
0.0
 11
3884.3405173854689565
 21
73.5169119228619081
 31
0.0
  0
LINE
  5
80FD
  8
0
 10
3884.3444434221241863
 20
73.5160040414619118
 30
0.0
 11
3884.3294147026981591
 21
73.5082435347544134
 31
0.0
  0
ARC
  5
80FE
  8
0
 10
3884.3247602982910394
 20
73.5197295498784769
 30
0.0
 40
0.0123932249156367
 50
274.2881651990193177
 51
292.0589527090571096
  0
LINE
  5
80FF
  8
0
 10
3884.295179661065049
 20
73.5244939053629025
 30
0.0
 11
3884.2951794913687991
 21
73.5137312985619076
 31
0.0
  0
LINE
  5
8100
  8
0
 10
3884.3235923982688291
 20
73.5244268249429354
 30
0.0
 11
3884.3235923982688291
 21
73.5137312985619218
 31
0.0
  0
LINE
  5
8101
  8
0
 10
3884.3444434221241863
 20
73.5503210968619214
 30
0.0
 11
3884.3767671969621915
 21
73.5503210968619214
 31
0.0
  0
ARC
  5
8102
  8
0
 10
3884.3404065001900562
 20
73.5561561806041482
 30
0.0
 40
0.0059394893403792
 50
289.9582183926020207
 51
5.0729740969246491
  0
ARC
  5
8103
  8
0
 10
3884.3804259290541268
 20
73.5560758616185097
 30
0.0
 40
0.0057224245873391
 50
173.9259081472478954
 51
252.7124885596300032
  0
LINE
  5
8104
  8
0
 10
3884.3919284040980529
 20
73.5569512716350999
 30
0.0
 11
3884.3805579351978849
 21
73.551193612954421
 31
0.0
  0
ARC
  5
8105
  8
0
 10
3884.37590353079122
 20
73.5626796280784703
 30
0.0
 40
0.0123932249156367
 50
274.2881651990193177
 51
292.0589527090571096
  0
LINE
  5
8106
  8
0
 10
3884.3463227238689797
 20
73.5649514079921687
 30
0.0
 11
3884.3463227238689797
 21
73.5566813767619152
 31
0.0
  0
LINE
  5
8107
  8
0
 10
3884.3747356307690097
 20
73.5603235379835354
 30
0.0
 11
3884.3747356307690097
 21
73.5554703464750901
 31
0.0
  0
LINE
  5
8108
  8
0
 10
3884.3447766655272062
 20
73.550321096961909
 30
0.0
 11
3884.3765192120499705
 21
73.550321096961909
 31
0.0
  0
LINE
  5
8109
  8
0
 10
3884.3444434221241863
 20
73.533055051361913
 30
0.0
 11
3884.3767671969621915
 21
73.533055051361913
 31
0.0
  0
ARC
  5
810A
  8
0
 10
3884.3403909537150867
 20
73.5388939287892214
 30
0.0
 40
0.0059546416941465
 50
290.1790048325611906
 51
5.0233867955813567
  0
ARC
  5
810B
  8
0
 10
3884.3804259290541268
 20
73.5388098161185013
 30
0.0
 40
0.0057224245873391
 50
173.9259081472482933
 51
252.7124885596300032
  0
ARC
  5
810C
  8
0
 10
3884.3946971216741986
 20
73.5483469567795112
 30
0.0
 40
0.00650495451598
 50
242.1696208391356038
 51
277.8596520050398908
  0
LINE
  5
810D
  8
0
 10
3884.3765192120499705
 20
73.550321096961909
 30
0.0
 11
3884.3916606179691371
 21
73.5425959555619215
 31
0.0
  0
LINE
  5
810E
  8
0
 10
3884.3955866546239122
 20
73.5419031097619182
 30
0.0
 11
3884.3805579351978849
 21
73.5339275674544126
 31
0.0
  0
ARC
  5
810F
  8
0
 10
3884.37590353079122
 20
73.5454135825784761
 30
0.0
 40
0.0123932249156367
 50
274.2881651990193177
 51
292.0589527090571096
  0
LINE
  5
8110
  8
0
 10
3884.3463227238689797
 20
73.550321096961909
 30
0.0
 11
3884.3463227238689797
 21
73.539415331261921
 31
0.0
  0
LINE
  5
8111
  8
0
 10
3884.3747356307690097
 20
73.550321096961909
 30
0.0
 11
3884.3747356307690097
 21
73.539415331261921
 31
0.0
  0
LINE
  5
8112
  8
0
 10
3884.2933001896240057
 20
73.4555728820619152
 30
0.0
 11
3884.3256239644629204
 21
73.4555728820619152
 31
0.0
  0
ARC
  5
8113
  8
0
 10
3884.2892348860282254
 20
73.4614148915594569
 30
0.0
 40
0.0059671548384224
 50
290.3598102771151162
 51
4.9826372777881884
  0
ARC
  5
8114
  8
0
 10
3884.3292826965539462
 20
73.4613276468185035
 30
0.0
 40
0.0057224245873391
 50
173.9259081472482933
 51
252.7124885596300032
  0
ARC
  5
8115
  8
0
 10
3884.3446804311129199
 20
73.4741786608032328
 30
0.0
 40
0.009976675829241
 50
245.3348129258189942
 51
268.3938348242501775
  0
LINE
  5
8116
  8
0
 10
3884.3253759795497899
 20
73.4728389276619112
 30
0.0
 11
3884.3405173854689565
 21
73.4651137862619237
 31
0.0
  0
LINE
  5
8117
  8
0
 10
3884.3444007928778774
 20
73.4642059047619114
 30
0.0
 11
3884.3294147026981591
 21
73.4564453981544148
 31
0.0
  0
ARC
  5
8118
  8
0
 10
3884.3247602982910394
 20
73.467931413278464
 30
0.0
 40
0.0123932249156367
 50
274.2881651990193177
 51
292.0589527090571096
  0
LINE
  5
8119
  8
0
 10
3884.2951794913687991
 20
73.4728389276619112
 30
0.0
 11
3884.2951794913687991
 21
73.4608966211570049
 31
0.0
  0
LINE
  5
811A
  8
0
 10
3884.3235923982688291
 20
73.4728389276619112
 30
0.0
 11
3884.3235923982688291
 21
73.4619331619619231
 31
0.0
  0
LINE
  5
811B
  8
0
 10
3884.3444434221241863
 20
73.5160040414619118
 30
0.0
 11
3884.3767671969621915
 21
73.5160040414619118
 31
0.0
  0
ARC
  5
811C
  8
0
 10
3884.3404058801638712
 20
73.5218392765042239
 30
0.0
 40
0.0059400935624953
 50
289.961775982448728
 51
5.070991608550548
  0
ARC
  5
811D
  8
0
 10
3884.3804259290541268
 20
73.5217588062185143
 30
0.0
 40
0.0057224245873391
 50
173.9259081472482933
 51
252.7124885596300032
  0
ARC
  5
811E
  8
0
 10
3884.3958110403768842
 20
73.5345726872737089
 30
0.0
 40
0.0099376637871543
 50
245.3116089480922142
 51
268.8388174141886111
  0
LINE
  5
811F
  8
0
 10
3884.3769258925058239
 20
73.5330625987984092
 30
0.0
 11
3884.3916606179691371
 21
73.5255449456619203
 31
0.0
  0
LINE
  5
8120
  8
0
 10
3884.3956096529050228
 20
73.5246370642619098
 30
0.0
 11
3884.3805579351978849
 21
73.5168765575544114
 31
0.0
  0
ARC
  5
8121
  8
0
 10
3884.37590353079122
 20
73.5283625726784749
 30
0.0
 40
0.0123932249156367
 50
274.2881651990193177
 51
292.0589527090571096
  0
LINE
  5
8122
  8
0
 10
3884.3463227238689797
 20
73.533055051361913
 30
0.0
 11
3884.3463227238689797
 21
73.5223643213619198
 31
0.0
  0
LINE
  5
8123
  8
0
 10
3884.3747356307690097
 20
73.533055051361913
 30
0.0
 11
3884.3747356307690097
 21
73.5211532910750947
 31
0.0
  0
LINE
  5
8124
  8
0
 10
3884.2933001896240057
 20
73.4383068364619191
 30
0.0
 11
3884.3256239644629204
 21
73.4383068364619191
 31
0.0
  0
ARC
  5
8125
  8
0
 10
3884.2892632676889662
 20
73.4441419202041459
 30
0.0
 40
0.0059394893403776
 50
289.9582183925739969
 51
5.0729740969355968
  0
ARC
  5
8126
  8
0
 10
3884.3292826965539462
 20
73.4440616012185075
 30
0.0
 40
0.0057224245873391
 50
173.9259081472482933
 51
252.7124885596300032
  0
ARC
  5
8127
  8
0
 10
3884.3446804302939199
 20
73.4569126127940422
 30
0.0
 40
0.0099766732980794
 50
245.3348114262130935
 51
268.3938391219825235
  0
LINE
  5
8128
  8
0
 10
3884.3253759795497899
 20
73.4555728820619152
 30
0.0
 11
3884.3405173854689565
 21
73.4478477406619135
 31
0.0
  0
LINE
  5
8129
  8
0
 10
3884.3444007928778774
 20
73.4469398592619029
 30
0.0
 11
3884.3294147026981591
 21
73.4391793525544188
 31
0.0
  0
ARC
  5
812A
  8
0
 10
3884.3247602982910394
 20
73.4506653676784822
 30
0.0
 40
0.0123932249156367
 50
274.2881651990193177
 51
292.0589527090571096
  0
LINE
  5
812B
  8
0
 10
3884.2951794913687991
 20
73.4555728820619152
 30
0.0
 11
3884.2951794913687991
 21
73.4436167240463647
 31
0.0
  0
LINE
  5
812C
  8
0
 10
3884.3235923982688291
 20
73.4555728820619152
 30
0.0
 11
3884.3235923982688291
 21
73.4446671163619271
 31
0.0
  0
LINE
  5
812D
  8
0
 10
3884.2933001896240057
 20
73.4210407908619231
 30
0.0
 11
3884.3256239644629204
 21
73.4210407908619231
 31
0.0
  0
ARC
  5
812E
  8
0
 10
3884.2882183487131442
 20
73.4271658370142433
 30
0.0
 40
0.0069651160780156
 50
302.2298694399271994
 51
1.9354256711586331
  0
ARC
  5
812F
  8
0
 10
3884.3292826965539462
 20
73.4267955556185115
 30
0.0
 40
0.0057224245873391
 50
173.9259081472482933
 51
252.7124885596300032
  0
ARC
  5
8130
  8
0
 10
3884.3435338851541019
 20
73.4362738517870923
 30
0.0
 40
0.0064435847920192
 50
242.082643212909403
 51
277.7319119275582011
  0
LINE
  5
8131
  8
0
 10
3884.3253759795497899
 20
73.4383068364619191
 30
0.0
 11
3884.3405173854689565
 21
73.4305816950619175
 31
0.0
  0
LINE
  5
8132
  8
0
 10
3884.3444007928778774
 20
73.429888849361916
 30
0.0
 11
3884.3294147026981591
 21
73.4219133069544228
 31
0.0
  0
ARC
  5
8133
  8
0
 10
3884.3247602982910394
 20
73.433399322078472
 30
0.0
 40
0.0123932249156367
 50
274.2881651990193177
 51
292.0589527090571096
  0
LINE
  5
8134
  8
0
 10
3884.2951794913687991
 20
73.4383068364619191
 30
0.0
 11
3884.2951794913687991
 21
73.4274010707619169
 31
0.0
  0
LINE
  5
8135
  8
0
 10
3884.3235923982688291
 20
73.4383068364619191
 30
0.0
 11
3884.3235923982688291
 21
73.4274010707619169
 31
0.0
  0
LINE
  5
8136
  8
0
 10
3884.2933346508580144
 20
73.4900928442842343
 30
0.0
 11
3884.3256869738052046
 21
73.490104972961916
 31
0.0
  0
LINE
  5
8137
  8
0
 10
3884.2933001896240057
 20
73.4728389275619236
 30
0.0
 11
3884.3256239644629204
 21
73.4728389275619236
 31
0.0
  0
ARC
  5
8138
  8
0
 10
3884.2892348862437757
 20
73.4786809370067999
 30
0.0
 40
0.0059671546280277
 50
290.3598089588886069
 51
4.9826379614209619
  0
ARC
  5
8139
  8
0
 10
3884.3292826965539462
 20
73.4785936923184977
 30
0.0
 40
0.0057224245873391
 50
173.9259081472482933
 51
252.7124885596300032
  0
ARC
  5
813A
  8
0
 10
3884.3446561468431355
 20
73.4913732708865552
 30
0.0
 40
0.0099016268812888
 50
245.2900112165399946
 51
270.4507120068377048
  0
LINE
  5
813B
  8
0
 10
3884.3447340362808973
 20
73.4814719503618932
 30
0.0
 11
3884.3294147026981591
 21
73.4737114436544232
 31
0.0
  0
ARC
  5
813C
  8
0
 10
3884.3247602982910394
 20
73.4851974587784724
 30
0.0
 40
0.0123932249156367
 50
274.2881651990193177
 51
292.0589527090571096
  0
LINE
  5
813D
  8
0
 10
3884.2951794913687991
 20
73.4901049731619196
 30
0.0
 11
3884.2951794913687991
 21
73.4781626665516967
 31
0.0
  0
LINE
  5
813E
  8
0
 10
3884.3235923982688291
 20
73.4901049731619196
 30
0.0
 11
3884.3235923982688291
 21
73.4779881771750922
 31
0.0
  0
LINE
  5
813F
  8
0
 10
3884.3447340362808973
 20
73.4814719503618932
 30
0.0
 11
3884.3764765828050258
 21
73.4814719503618932
 31
0.0
  0
LINE
  5
8140
  8
0
 10
3884.3444007928778774
 20
73.4642059047619114
 30
0.0
 11
3884.3767245677167921
 21
73.4642059047619114
 31
0.0
  0
ARC
  5
8141
  8
0
 10
3884.3403563696588208
 20
73.4700428189843819
 30
0.0
 40
0.0059467999035263
 50
290.2345546709155997
 51
5.0490163203964338
  0
ARC
  5
8142
  8
0
 10
3884.3803832998078178
 20
73.4699606695185139
 30
0.0
 40
0.0057224245873391
 50
173.9259081472478954
 51
252.7124885596300032
  0
ARC
  5
8143
  8
0
 10
3884.3946544924278896
 20
73.4794978101795238
 30
0.0
 40
0.0065049545159866
 50
242.169620839137508
 51
277.8596520050135155
  0
LINE
  5
8144
  8
0
 10
3884.3764765828050258
 20
73.4814719503618932
 30
0.0
 11
3884.3916179887228282
 21
73.4737468089619199
 31
0.0
  0
LINE
  5
8145
  8
0
 10
3884.395544025378058
 20
73.4730539631619166
 30
0.0
 11
3884.3805153059520308
 21
73.465078420854411
 31
0.0
  0
ARC
  5
8146
  8
0
 10
3884.3758609015458205
 20
73.4765644359784744
 30
0.0
 40
0.0123932249156367
 50
274.2881651990193177
 51
292.0589527090571096
  0
LINE
  5
8147
  8
0
 10
3884.346280094624035
 20
73.4814719503618932
 30
0.0
 11
3884.346280094624035
 21
73.4695194533068729
 31
0.0
  0
LINE
  5
8148
  8
0
 10
3884.374693001524065
 20
73.4814719503618932
 30
0.0
 11
3884.374693001524065
 21
73.4705661846619194
 31
0.0
  0
LINE
  5
8149
  8
0
 10
3884.3447340362808973
 20
73.4642059048619132
 30
0.0
 11
3884.3764765828050258
 21
73.4642059048619132
 31
0.0
  0
LINE
  5
814A
  8
0
 10
3884.3444007928778774
 20
73.4469398592619029
 30
0.0
 11
3884.3767245677167921
 21
73.4469398592619029
 31
0.0
  0
ARC
  5
814B
  8
0
 10
3884.3403563694300829
 20
73.4527767735400516
 30
0.0
 40
0.0059468001258813
 50
290.234556156773408
 51
5.049015592656847
  0
ARC
  5
814C
  8
0
 10
3884.3803832998078178
 20
73.4526946240185055
 30
0.0
 40
0.0057224245873391
 50
173.9259081472482933
 51
252.7124885596300032
  0
ARC
  5
814D
  8
0
 10
3884.3946544924278896
 20
73.4622317646795153
 30
0.0
 40
0.0065049545159792
 50
242.169620839134808
 51
277.8596520050398908
  0
LINE
  5
814E
  8
0
 10
3884.3764765828050258
 20
73.4642059048619132
 30
0.0
 11
3884.3916179887228282
 21
73.4564807634619115
 31
0.0
  0
LINE
  5
814F
  8
0
 10
3884.395544025378058
 20
73.4557879176619224
 30
0.0
 11
3884.3805153059520308
 21
73.4478123753544168
 31
0.0
  0
ARC
  5
8150
  8
0
 10
3884.3758609015458205
 20
73.459298390478466
 30
0.0
 40
0.0123932249156367
 50
274.2881651990193177
 51
292.0589527090571096
  0
LINE
  5
8151
  8
0
 10
3884.346280094624035
 20
73.4642059048619132
 30
0.0
 11
3884.346280094624035
 21
73.4533001391619109
 31
0.0
  0
LINE
  5
8152
  8
0
 10
3884.374693001524065
 20
73.4642059048619132
 30
0.0
 11
3884.374693001524065
 21
73.4520891088751
 31
0.0
  0
LINE
  5
8153
  8
0
 10
3884.4468814514448241
 20
73.4814719504119154
 30
0.0
 11
3884.4792052262841935
 21
73.4814719504119154
 31
0.0
  0
ARC
  5
8154
  8
0
 10
3884.4429062561321189
 20
73.487291971488844
 30
0.0
 40
0.0058793720248189
 50
291.7616203241275912
 51
5.2723793241480488
  0
ARC
  5
8155
  8
0
 10
3884.4828639583752192
 20
73.4872267151685037
 30
0.0
 40
0.0057224245873391
 50
173.9259081472482933
 51
252.7124885596300032
  0
ARC
  5
8156
  8
0
 10
3884.4998357324661811
 20
73.5047079763161264
 30
0.0
 40
0.0148498206005363
 50
247.271472031950907
 51
263.0842993207733116
  0
LINE
  5
8157
  8
0
 10
3884.4789572413719725
 20
73.4987379960119114
 30
0.0
 11
3884.4940986472911391
 21
73.4910128546119097
 31
0.0
  0
LINE
  5
8158
  8
0
 10
3884.4980476822270248
 20
73.4899661973119152
 30
0.0
 11
3884.4829959645198869
 21
73.482344466504415
 31
0.0
  0
ARC
  5
8159
  8
0
 10
3884.4783415601132219
 20
73.4938304816284784
 30
0.0
 40
0.0123932249156367
 50
274.2881651990193177
 51
292.0589527090571096
  0
LINE
  5
815A
  8
0
 10
3884.4487607531909816
 20
73.4987379960119114
 30
0.0
 11
3884.4487607531909816
 21
73.4878322303118949
 31
0.0
  0
LINE
  5
815B
  8
0
 10
3884.4771736600910117
 20
73.4987379960119114
 30
0.0
 11
3884.4771736600910117
 21
73.4866212000250982
 31
0.0
  0
LINE
  5
815C
  8
0
 10
3884.3444007928778774
 20
73.429888849361916
 30
0.0
 11
3884.3767245677167921
 21
73.429888849361916
 31
0.0
  0
ARC
  5
815D
  8
0
 10
3884.3398373044019536
 20
73.435852427026802
 30
0.0
 40
0.0064549917499615
 50
293.4368521518615012
 51
3.5234275866708331
  0
ARC
  5
815E
  8
0
 10
3884.3803832998078178
 20
73.4356436141185043
 30
0.0
 40
0.0057224245873391
 50
173.9259081472482933
 51
252.7124885596300032
  0
ARC
  5
815F
  8
0
 10
3884.3946544924278896
 20
73.4451807547795141
 30
0.0
 40
0.0065049545159796
 50
242.1696208391352059
 51
277.8596520050398908
  0
LINE
  5
8160
  8
0
 10
3884.3768832632599697
 20
73.4469474066983992
 30
0.0
 11
3884.3916179887228282
 21
73.4394297535619103
 31
0.0
  0
LINE
  5
8161
  8
0
 10
3884.395544025378058
 20
73.4387369077619212
 30
0.0
 11
3884.3805153059520308
 21
73.4307613654544156
 31
0.0
  0
ARC
  5
8162
  8
0
 10
3884.3758609015458205
 20
73.442247380578479
 30
0.0
 40
0.0123932249156367
 50
274.2881651990193177
 51
292.0589527090571096
  0
LINE
  5
8163
  8
0
 10
3884.346280094624035
 20
73.4469398592619029
 30
0.0
 11
3884.346280094624035
 21
73.4362491292619097
 31
0.0
  0
LINE
  5
8164
  8
0
 10
3884.374693001524065
 20
73.4469398592619029
 30
0.0
 11
3884.374693001524065
 21
73.4350380989750988
 31
0.0
  0
LINE
  5
8165
  8
0
 10
3884.4468814514448241
 20
73.4642059048119194
 30
0.0
 11
3884.4792052262841935
 21
73.4642059048119194
 31
0.0
  0
ARC
  5
8166
  8
0
 10
3884.443314008985908
 20
73.4699264251429156
 30
0.0
 40
0.0054841877008459
 50
285.5887916915489768
 51
6.6991095171321957
  0
ARC
  5
8167
  8
0
 10
3884.4828639583752192
 20
73.4699606695685077
 30
0.0
 40
0.0057224245873391
 50
173.9259081472482933
 51
252.7124885596300032
  0
ARC
  5
8168
  8
0
 10
3884.4998357324661811
 20
73.4874419307161162
 30
0.0
 40
0.0148498206005363
 50
247.271472031950907
 51
263.0842993207733116
  0
LINE
  5
8169
  8
0
 10
3884.4789572413719725
 20
73.4814719504119154
 30
0.0
 11
3884.4940986472911391
 21
73.4737468090119137
 31
0.0
  0
LINE
  5
816A
  8
0
 10
3884.4980476822270248
 20
73.4727001517119191
 30
0.0
 11
3884.4829959645198869
 21
73.465078420904419
 31
0.0
  0
ARC
  5
816B
  8
0
 10
3884.4783415601132219
 20
73.4765644360284682
 30
0.0
 40
0.0123932249156367
 50
274.2881651990193177
 51
292.0589527090571096
  0
LINE
  5
816C
  8
0
 10
3884.4487607531909816
 20
73.4814719504119154
 30
0.0
 11
3884.4487607531909816
 21
73.4692866655739181
 31
0.0
  0
LINE
  5
816D
  8
0
 10
3884.4771736600910117
 20
73.4814719504119154
 30
0.0
 11
3884.4771736600910117
 21
73.4693551544251022
 31
0.0
  0
LINE
  5
816E
  8
0
 10
3884.4468814514448241
 20
73.4469398592119092
 30
0.0
 11
3884.4792052262841935
 21
73.4469398592119092
 31
0.0
  0
ARC
  5
816F
  8
0
 10
3884.4437110585590744
 20
73.4525634906350433
 30
0.0
 40
0.0051031428404789
 50
282.4615325577325962
 51
8.2997522318674957
  0
ARC
  5
8170
  8
0
 10
3884.4998357324661811
 20
73.4701758851161202
 30
0.0
 40
0.0148498206005363
 50
247.271472031950907
 51
263.0842993207733116
  0
LINE
  5
8171
  8
0
 10
3884.4789572413719725
 20
73.4642059048119194
 30
0.0
 11
3884.4940986472911391
 21
73.4564807634119035
 31
0.0
  0
LINE
  5
8172
  8
0
 10
3884.4980476822270248
 20
73.4554341061119089
 30
0.0
 11
3884.4829959645198869
 21
73.4478123753043945
 31
0.0
  0
ARC
  5
8173
  8
0
 10
3884.4783415601132219
 20
73.4592983904284722
 30
0.0
 40
0.0123932249156367
 50
274.2881651990193177
 51
292.0589527090571096
  0
LINE
  5
8174
  8
0
 10
3884.4487607531909816
 20
73.4642059048119194
 30
0.0
 11
3884.4487607531909816
 21
73.4533001391119029
 31
0.0
  0
LINE
  5
8175
  8
0
 10
3884.4789572413719725
 20
73.4642059048119194
 30
0.0
 11
3884.4790516419111555
 21
73.4532312344577605
 31
0.0
  0
LINE
  5
8176
  8
0
 10
3884.4468263077142183
 20
73.5160040414119038
 30
0.0
 11
3884.4789572413719725
 21
73.5160040415119056
 31
0.0
  0
LINE
  5
8177
  8
0
 10
3884.4468814514448241
 20
73.4987379959119096
 30
0.0
 11
3884.4792052262841935
 21
73.4987379959119096
 31
0.0
  0
ARC
  5
8178
  8
0
 10
3884.4409730182392195
 20
73.5050297699403643
 30
0.0
 40
0.0077880362559448
 50
308.7150812991790758
 51
0.5039971311880314
  0
ARC
  5
8179
  8
0
 10
3884.4828639583752192
 20
73.5044927606685121
 30
0.0
 40
0.0057224245873391
 50
173.9259081472482933
 51
252.7124885596300032
  0
ARC
  5
817A
  8
0
 10
3884.4998357324661811
 20
73.5219740218161206
 30
0.0
 40
0.0148498206005363
 50
247.271472031950907
 51
263.0842993207733116
  0
LINE
  5
817B
  8
0
 10
3884.4789572413719725
 20
73.5160040415119056
 30
0.0
 11
3884.4940986472911391
 21
73.5082789001119181
 31
0.0
  0
LINE
  5
817C
  8
0
 10
3884.4980476822270248
 20
73.5072322428119094
 30
0.0
 11
3884.4829959645198869
 21
73.4996105120044092
 31
0.0
  0
ARC
  5
817D
  8
0
 10
3884.4783415601132219
 20
73.5110965271284726
 30
0.0
 40
0.0123932249156367
 50
274.2881651990193177
 51
292.0589527090571096
  0
LINE
  5
817E
  8
0
 10
3884.4487607531909816
 20
73.5160040415119056
 30
0.0
 11
3884.4487607531909816
 21
73.5050982758119034
 31
0.0
  0
LINE
  5
817F
  8
0
 10
3884.4771736600910117
 20
73.5160040415119056
 30
0.0
 11
3884.4771736600910117
 21
73.5038872455250925
 31
0.0
  0
LINE
  5
8180
  8
0
 10
3884.3955866546239122
 20
73.5419031097619182
 30
0.0
 11
3884.4279104294619174
 21
73.5419031097619182
 31
0.0
  0
ARC
  5
8181
  8
0
 10
3884.391037073222833
 20
73.5478632937917638
 30
0.0
 40
0.0064413209206754
 50
293.1478013602298915
 51
3.5611594646237701
  0
ARC
  5
8182
  8
0
 10
3884.4315691615538526
 20
73.5476578745185066
 30
0.0
 40
0.0057224245873391
 50
173.9259081472478954
 51
252.7124885596300032
  0
LINE
  5
8183
  8
0
 10
3884.4369279809761792
 20
73.5454223246937033
 30
0.0
 11
3884.4317011676980655
 21
73.5427756258544036
 31
0.0
  0
ARC
  5
8184
  8
0
 10
3884.4271008471478126
 20
73.554091314743502
 30
0.0
 40
0.0122150630042276
 50
273.8001995333938225
 51
292.1238843914333074
  0
LINE
  5
8185
  8
0
 10
3884.397465956367796
 20
73.5557555854480825
 30
0.0
 11
3884.397465956367796
 21
73.548263389661912
 31
0.0
  0
LINE
  5
8186
  8
0
 10
3884.4258788632678261
 20
73.5487525667236781
 30
0.0
 11
3884.4258788632678261
 21
73.548263389661912
 31
0.0
  0
LINE
  5
8187
  8
0
 10
3884.3959198980269321
 20
73.54190310986192
 30
0.0
 11
3884.4276624445510606
 21
73.54190310986192
 31
0.0
  0
LINE
  5
8188
  8
0
 10
3884.3955866546239122
 20
73.524637064261924
 30
0.0
 11
3884.4279734388051111
 21
73.524637064161908
 31
0.0
  0
ARC
  5
8189
  8
0
 10
3884.391534186213903
 20
73.5304759416892182
 30
0.0
 40
0.0059546416941455
 50
290.1790048325349858
 51
5.0233867955825744
  0
ARC
  5
818A
  8
0
 10
3884.4315691615538526
 20
73.5303918290184839
 30
0.0
 40
0.0057224245873391
 50
173.9259081472482933
 51
252.7124885596300032
  0
ARC
  5
818B
  8
0
 10
3884.4485409356448145
 20
73.5478730901661208
 30
0.0
 40
0.0148498206005363
 50
247.271472031950907
 51
263.0842993207733116
  0
LINE
  5
818C
  8
0
 10
3884.4276624445510606
 20
73.54190310986192
 30
0.0
 11
3884.4428038504688629
 21
73.5341779684619183
 31
0.0
  0
LINE
  5
818D
  8
0
 10
3884.4467528854052034
 20
73.5331313111619238
 30
0.0
 11
3884.4317011676980655
 21
73.5255095803544236
 31
0.0
  0
ARC
  5
818E
  8
0
 10
3884.4270467632918553
 20
73.5369955954784729
 30
0.0
 40
0.0123932249156367
 50
274.2881651990193177
 51
292.0589527090571096
  0
LINE
  5
818F
  8
0
 10
3884.397465956367796
 20
73.54190310986192
 30
0.0
 11
3884.397465956367796
 21
73.5299545392165328
 31
0.0
  0
LINE
  5
8190
  8
0
 10
3884.4258788632678261
 20
73.54190310986192
 30
0.0
 11
3884.4258788632678261
 21
73.5309973441619178
 31
0.0
  0
LINE
  5
8191
  8
0
 10
3884.3947007978931651
 20
73.5075860543619228
 30
0.0
 11
3884.4287962862931636
 21
73.5075860543113464
 31
0.0
  0
ARC
  5
8192
  8
0
 10
3884.3912392212669147
 20
73.5134969097827735
 30
0.0
 40
0.006242932996196
 50
291.5024578072010968
 51
4.1282550070748769
  0
ARC
  5
8193
  8
0
 10
3884.4315691615538526
 20
73.5133408191185111
 30
0.0
 40
0.0057224245873391
 50
173.9259081472482933
 51
252.7124885596300032
  0
ARC
  5
8194
  8
0
 10
3884.4499197875438767
 20
73.5348781569824439
 30
0.0
 40
0.0191259471928866
 50
248.1562873617976095
 51
260.6919443662421259
  0
LINE
  5
8195
  8
0
 10
3884.428069125005095
 20
73.524644611698406
 30
0.0
 11
3884.4428038504688629
 21
73.5171269585619171
 31
0.0
  0
LINE
  5
8196
  8
0
 10
3884.4468263077142183
 20
73.5160040414119038
 30
0.0
 11
3884.4317011676980655
 21
73.5084585704544224
 31
0.0
  0
ARC
  5
8197
  8
0
 10
3884.4194399306879859
 20
73.5440082040531848
 30
0.0
 40
0.0376047122317269
 50
284.4069907012694216
 51
289.0295565775844011
  0
LINE
  5
8198
  8
0
 10
3884.397465956367796
 20
73.5246370642619098
 30
0.0
 11
3884.397465956367796
 21
73.5139463342619166
 31
0.0
  0
LINE
  5
8199
  8
0
 10
3884.4258788632678261
 20
73.524637064261924
 30
0.0
 11
3884.4258788632678261
 21
73.5139463342619166
 31
0.0
  0
LINE
  5
819A
  8
0
 10
3884.3958772687819874
 20
73.4903200087619126
 30
0.0
 11
3884.4287962861940287
 21
73.4903200087619126
 31
0.0
  0
LINE
  5
819B
  8
0
 10
3884.395544025378058
 20
73.4730539631619166
 30
0.0
 11
3884.4278678002169727
 21
73.4730539631619166
 31
0.0
  0
ARC
  5
819C
  8
0
 10
3884.3909944439778883
 20
73.4790141471917764
 30
0.0
 40
0.0064413209206729
 50
293.1478013602040278
 51
3.5611594646367721
  0
ARC
  5
819D
  8
0
 10
3884.4315265323079984
 20
73.4788087279185049
 30
0.0
 40
0.0057224245873391
 50
173.9259081472478954
 51
252.7124885596300032
  0
ARC
  5
819E
  8
0
 10
3884.4495149899871649
 20
73.4992806994015098
 30
0.0
 40
0.0180024183326114
 50
247.9645885719357921
 51
261.5881259966001835
  0
LINE
  5
819F
  8
0
 10
3884.4287962861940287
 20
73.4903200087619126
 30
0.0
 11
3884.4427612212230088
 21
73.4825948673619109
 31
0.0
  0
LINE
  5
81A0
  8
0
 10
3884.4468814514448241
 20
73.4814719504119154
 30
0.0
 11
3884.4316585384531209
 21
73.4739264792544162
 31
0.0
  0
ARC
  5
81A1
  8
0
 10
3884.4270041340460011
 20
73.4854124943784655
 30
0.0
 40
0.0123932249156367
 50
274.2881651990193177
 51
292.0589527090571096
  0
LINE
  5
81A2
  8
0
 10
3884.3974233271228513
 20
73.4903200087619126
 30
0.0
 11
3884.3974233271228513
 21
73.4786140513216708
 31
0.0
  0
LINE
  5
81A3
  8
0
 10
3884.4258362340237909
 20
73.4903200087619126
 30
0.0
 11
3884.4258362340237909
 21
73.4794142430619104
 31
0.0
  0
LINE
  5
81A4
  8
0
 10
3884.3958772687819874
 20
73.4730539632619042
 30
0.0
 11
3884.4276198153052064
 21
73.4730539632619042
 31
0.0
  0
LINE
  5
81A5
  8
0
 10
3884.395544025378058
 20
73.4557879176619224
 30
0.0
 11
3884.4278678002169727
 21
73.4557879176619224
 31
0.0
  0
ARC
  5
81A6
  8
0
 10
3884.3909944439778883
 20
73.4617481016917679
 30
0.0
 40
0.006441320920675
 50
293.1478013602048236
 51
3.561159464624176
  0
ARC
  5
81A7
  8
0
 10
3884.4315265323079984
 20
73.4615426824185107
 30
0.0
 40
0.0057224245873391
 50
173.9259081472482933
 51
252.7124885596300032
  0
ARC
  5
81A8
  8
0
 10
3884.4495149921531265
 20
73.4820146602749844
 30
0.0
 40
0.0180024250534092
 50
247.9645897903465084
 51
261.5881221890343227
  0
LINE
  5
81A9
  8
0
 10
3884.4276198153052064
 20
73.4730539632619042
 30
0.0
 11
3884.4427612212230088
 21
73.4653288218619167
 31
0.0
  0
LINE
  5
81AA
  8
0
 10
3884.4468814514448241
 20
73.4642059048119194
 30
0.0
 11
3884.4316585384531209
 21
73.456660433754422
 31
0.0
  0
ARC
  5
81AB
  8
0
 10
3884.4270041340460011
 20
73.4681464488784712
 30
0.0
 40
0.0123932249156367
 50
274.2881651990193177
 51
292.0589527090571096
  0
LINE
  5
81AC
  8
0
 10
3884.3974233271228513
 20
73.4730539632619042
 30
0.0
 11
3884.3974233271228513
 21
73.4621481975619162
 31
0.0
  0
LINE
  5
81AD
  8
0
 10
3884.4258362340237909
 20
73.4730539632619042
 30
0.0
 11
3884.4258362340237909
 21
73.460937167275091
 31
0.0
  0
LINE
  5
81AE
  8
0
 10
3884.395544025378058
 20
73.4387369077619212
 30
0.0
 11
3884.4278678002169727
 21
73.4387369077619212
 31
0.0
  0
ARC
  5
81AF
  8
0
 10
3884.3909944439778883
 20
73.444697091791781
 30
0.0
 40
0.006441320920675
 50
293.1478013602048236
 51
3.561159464624176
  0
ARC
  5
81B0
  8
0
 10
3884.4315265323079984
 20
73.4444916725185095
 30
0.0
 40
0.0057224245873391
 50
173.9259081472482933
 51
252.7124885596300032
  0
ARC
  5
81B1
  8
0
 10
3884.4698574175868089
 20
73.5248036072117088
 30
0.0
 40
0.0811828693303147
 50
250.502120002513891
 51
253.559770611503609
  0
LINE
  5
81B2
  8
0
 10
3884.4280264957601503
 20
73.4557954650984044
 30
0.0
 11
3884.4427612212230088
 21
73.4482778119619155
 31
0.0
  0
LINE
  5
81B3
  8
0
 10
3884.4468814514448241
 20
73.4469398592119092
 30
0.0
 11
3884.4316585384531209
 21
73.4396094238544208
 31
0.0
  0
ARC
  5
81B4
  8
0
 10
3884.4270041340460011
 20
73.45109543897847
 30
0.0
 40
0.0123932249156367
 50
274.2881651990193177
 51
292.0589527090571096
  0
LINE
  5
81B5
  8
0
 10
3884.3974233271228513
 20
73.4557879176619224
 30
0.0
 11
3884.3974233271228513
 21
73.4442969959216612
 31
0.0
  0
LINE
  5
81B6
  8
0
 10
3884.4258362340237909
 20
73.4557879176619224
 30
0.0
 11
3884.4258362340237909
 21
73.445097187661915
 31
0.0
  0
LINE
  5
81B7
  8
0
 10
3884.344387720593204
 20
73.498738178961915
 30
0.0
 11
3884.3294147026981591
 21
73.4909774891544174
 31
0.0
  0
ARC
  5
81B8
  8
0
 10
3884.3247602982910394
 20
73.5024635042784666
 30
0.0
 40
0.0123932249156367
 50
274.2881651990193177
 51
292.0589527090571096
  0
LINE
  5
81B9
  8
0
 10
3884.3256869738052046
 20
73.4901049728619142
 30
0.0
 11
3884.3405173854689565
 21
73.4823798316619161
 31
0.0
  0
LINE
  5
81BA
  8
0
 10
3884.344387720593204
 20
73.498738178961915
 30
0.0
 11
3884.3767671969621915
 21
73.4987379958619158
 31
0.0
  0
ARC
  5
81BB
  8
0
 10
3884.3404682268101169
 20
73.4872919713388342
 30
0.0
 40
0.0058793720248445
 50
289.3291139983202243
 51
5.2723793240645387
  0
ARC
  5
81BC
  8
0
 10
3884.3834070746079306
 20
73.4881838154810225
 30
0.0
 40
0.0086785684582176
 50
182.3217964223298964
 51
228.4697801235560917
  0
ARC
  5
81BD
  8
0
 10
3884.3948348553599317
 20
73.4971690176829782
 30
0.0
 40
0.0069278819953851
 50
242.7266323627183056
 51
278.6539557276677783
  0
LINE
  5
81BE
  8
0
 10
3884.3765192120499705
 20
73.4987379958619158
 30
0.0
 11
3884.3916606179691371
 21
73.4910128544619141
 31
0.0
  0
LINE
  5
81BF
  8
0
 10
3884.3958772687819874
 20
73.4903200087619126
 30
0.0
 11
3884.3776530536929386
 21
73.4816869859619146
 31
0.0
  0
LINE
  5
81C0
  8
0
 10
3884.3463227238689797
 20
73.4987381680198268
 30
0.0
 11
3884.3463227238689797
 21
73.4878322301619136
 31
0.0
  0
LINE
  5
81C1
  8
0
 10
3884.3747356307690097
 20
73.4987379958619158
 30
0.0
 11
3884.3747356307690097
 21
73.4878322301619278
 31
0.0
  0
ARC
  5
81C2
  8
0
 10
3884.3766243170571215
 20
73.4839894729642964
 30
0.0
 40
0.0025218535768009
 50
266.641598004057812
 51
294.0747898282515962
  0
ARC
  5
81C3
  8
0
 10
3884.3450916715191852
 20
73.5101519562063856
 30
0.0
 40
0.0114354649180989
 50
247.3782231466946939
 51
266.4707220470073139
  0
ARC
  5
81C4
  8
0
 10
3884.3766739326410971
 20
73.501054402286556
 30
0.0
 40
0.0023182831919061
 50
272.3056262055084176
 51
294.9828823550301991
  0
LINE
  5
81C5
  8
0
 10
3884.3406930635469507
 20
73.4995962892073038
 30
0.0
 11
3884.3256239644629204
 21
73.5073710186619138
 31
0.0
  0
LINE
  5
81C6
  8
0
 10
3884.3768223406927973
 20
73.5160040414619118
 30
0.0
 11
3884.392305063240201
 21
73.508026253525415
 31
0.0
  0
LINE
  5
81C7
  8
0
 10
3884.3776530536929386
 20
73.4989530315619106
 30
0.0
 11
3884.3947007978931651
 21
73.5075860543618944
 31
0.0
  0
ARC
  5
81C8
  8
0
 10
3884.3946954317689233
 20
73.514296208193926
 30
0.0
 40
0.0067101559776638
 50
249.1310646085719043
 51
270.0458195498832197
  0
ARC
  5
81C9
  8
0
 10
3884.3443646963610263
 20
73.724617766395852
 30
0.0
 40
0.3078417839128141
 50
259.9354102314478041
 51
260.4516951640031834
  0
LINE
  5
81CA
  8
0
 10
3884.2905668064859128
 20
73.4215132448728838
 30
0.0
 11
3884.2744807319631946
 21
73.4296738136619069
 31
0.0
  0
ARC
  5
81CB
  8
0
 10
3884.4468372230958266
 20
73.5011346123061173
 30
0.0
 40
0.0023970244654221
 50
245.521988234891495
 51
271.0572447674667274
  0
ARC
  5
81CC
  8
0
 10
3884.4288116029078992
 20
73.4969577436905155
 30
0.0
 40
0.0066377526004189
 50
269.8677890016516017
 51
296.3744919483290801
  0
LINE
  5
81CD
  8
0
 10
3884.4317607045932164
 20
73.491011123261913
 30
0.0
 11
3884.4468372230958266
 21
73.4987375878406937
 31
0.0
  0
ARC
  5
81CE
  8
0
 10
3883.9170461202002116
 20
73.4789823531403101
 30
0.0
 40
0.0061644677122449
 50
265.2381637013531872
 51
300.5476281805907774
  0
ARC
  5
81CF
  8
0
 10
3883.9240160312760963
 20
73.4630700132518228
 30
0.0
 40
0.0072254850215218
 50
179.9093747485275969
 51
240.3837560188538021
  0
ARC
  5
81D0
  8
0
 10
3883.9425295581750106
 20
73.4538138014613651
 30
0.0
 40
0.0072502329579851
 50
184.0641270474289115
 51
251.4612384899791095
  0
ARC
  5
81D1
  8
0
 10
3883.9776480647019525
 20
73.4392568792299443
 30
0.0
 40
0.0054327372546376
 50
179.0076410867941092
 51
272.5470257838717885
  0
ARC
  5
81D2
  8
0
 10
3884.0229701270359328
 20
73.4278637541737567
 30
0.0
 40
0.0056305144340433
 50
181.9598949792863039
 51
267.7215479157666778
  0
ARC
  5
81D3
  8
0
 10
3884.0734247945019888
 20
73.4191317201067761
 30
0.0
 40
0.0054017934768885
 50
183.4300194044506895
 51
288.2401650290177031
  0
ARC
  5
81D4
  8
0
 10
3884.1297703461668789
 20
73.4133529082120333
 30
0.0
 40
0.0055421694966618
 50
182.8700738087657953
 51
294.3468704791021082
  0
ARC
  5
81D5
  8
0
 10
3884.188148774696856
 20
73.4110331172977055
 30
0.0
 40
0.0059631830599442
 50
250.3277102894523125
 51
346.4869827809221761
  0
ARC
  5
81D6
  8
0
 10
3884.2263960773061626
 20
73.4111925731386066
 30
0.0
 40
0.0061896841100281
 50
194.5294263196327051
 51
301.7711992941236758
  0
ARC
  5
81D7
  8
0
 10
3884.2845796361148132
 20
73.4133873546947626
 30
0.0
 40
0.0055727636719319
 50
245.8129674024661995
 51
353.3119688784533992
  0
ARC
  5
81D8
  8
0
 10
3884.3409264544047801
 20
73.4191317147993914
 30
0.0
 40
0.0054017683889322
 50
251.7612759271893026
 51
356.5700211821495031
  0
ARC
  5
81D9
  8
0
 10
3884.3913811071670352
 20
73.4278639181078887
 30
0.0
 40
0.0056306312057648
 50
272.2782553896748254
 51
1.4607310860902141
  0
ARC
  5
81DA
  8
0
 10
3884.4366896127548898
 20
73.4392869220136788
 30
0.0
 40
0.0054618450983527
 50
267.6124624307101953
 51
4.2115611462114417
  0
ARC
  5
81DB
  8
0
 10
3884.1360285921241484
 20
73.5390512181647011
 30
0.0
 40
0.0058261722029686
 50
288.426458588369087
 51
5.7030818671047188
  0
ARC
  5
81DC
  8
0
 10
3884.1400496945211671
 20
73.5426520209929748
 30
0.0
 40
0.0093848602757
 50
244.5730901080287083
 51
268.5691380111828721
  0
ARC
  5
81DD
  8
0
 10
3884.1360285921241484
 20
73.5217851726646927
 30
0.0
 40
0.0058261722029686
 50
288.4264585883689733
 51
5.7030818671047188
  0
ARC
  5
81DE
  8
0
 10
3884.1400496945211671
 20
73.5253859754929806
 30
0.0
 40
0.0093848602757
 50
244.5730901080287083
 51
268.5691380111828721
  0
ARC
  5
81DF
  8
0
 10
3884.1360285921241484
 20
73.5045191270646967
 30
0.0
 40
0.0058261722029686
 50
288.4264585883689733
 51
5.7030818671047188
  0
ARC
  5
81E0
  8
0
 10
3884.1400496945211671
 20
73.5081199298929704
 30
0.0
 40
0.0093848602757
 50
244.5730901080287083
 51
268.5691380111828721
  0
ARC
  5
81E1
  8
0
 10
3884.1360285921241484
 20
73.4872530815646883
 30
0.0
 40
0.0058261722029686
 50
288.4264585883689733
 51
5.7030818671047188
  0
ARC
  5
81E2
  8
0
 10
3884.1400496945211671
 20
73.4908538843929762
 30
0.0
 40
0.0093848602757
 50
244.5730901080287083
 51
268.5691380111828721
  0
ARC
  5
81E3
  8
0
 10
3884.1360285921241484
 20
73.4699870360646941
 30
0.0
 40
0.0058261722029686
 50
288.4264585883689733
 51
5.7030818671047188
  0
ARC
  5
81E4
  8
0
 10
3884.1400496945211671
 20
73.4735878388929677
 30
0.0
 40
0.0093848602757
 50
244.5730901080287083
 51
268.5691380111828721
  0
ARC
  5
81E5
  8
0
 10
3884.1360285921241484
 20
73.452720990464698
 30
0.0
 40
0.0058261722029686
 50
288.4264585883689733
 51
5.7030818671047188
  0
ARC
  5
81E6
  8
0
 10
3884.1400496945211671
 20
73.4563217932929717
 30
0.0
 40
0.0093848602757
 50
244.5730901080287083
 51
268.5691380111828721
  0
ARC
  5
81E7
  8
0
 10
3884.0848853596239678
 20
73.5304181953646889
 30
0.0
 40
0.0058261722029686
 50
288.4264585883689733
 51
5.7030818671047188
  0
ARC
  5
81E8
  8
0
 10
3884.088906462021896
 20
73.5340189981929768
 30
0.0
 40
0.0093848602757
 50
244.5730901080287083
 51
268.5691380111828721
  0
ARC
  5
81E9
  8
0
 10
3884.0848853596239678
 20
73.5131521498646947
 30
0.0
 40
0.0058261722029686
 50
288.4264585883689733
 51
5.7030818671047188
  0
ARC
  5
81EA
  8
0
 10
3884.088906462021896
 20
73.5167529526929684
 30
0.0
 40
0.0093848602757
 50
244.5730901080287083
 51
268.5691380111828721
  0
ARC
  5
81EB
  8
0
 10
3884.0848853596239678
 20
73.4958861042646987
 30
0.0
 40
0.0058261722029686
 50
288.4264585883689733
 51
5.7030818671047188
  0
ARC
  5
81EC
  8
0
 10
3884.088906462021896
 20
73.4994869070929724
 30
0.0
 40
0.0093848602757
 50
244.5730901080287083
 51
268.5691380111828721
  0
ARC
  5
81ED
  8
0
 10
3884.0848853596239678
 20
73.4786200587647045
 30
0.0
 40
0.0058261722029686
 50
288.4264585883689733
 51
5.7030818671047188
  0
ARC
  5
81EE
  8
0
 10
3884.088906462021896
 20
73.482220861592964
 30
0.0
 40
0.0093848602757
 50
244.5730901080287083
 51
268.5691380111828721
  0
ARC
  5
81EF
  8
0
 10
3884.0848853596239678
 20
73.4613540132646961
 30
0.0
 40
0.0058261722029686
 50
288.4264585883689733
 51
5.7030818671047188
  0
ARC
  5
81F0
  8
0
 10
3884.088906462021896
 20
73.4649548160929697
 30
0.0
 40
0.0093848602757
 50
244.5730901080287083
 51
268.5691380111828721
  0
ARC
  5
81F1
  8
0
 10
3884.0848853596239678
 20
73.426821922064704
 30
0.0
 40
0.0058261722029686
 50
288.4264585883689733
 51
5.7030818671047188
  0
ARC
  5
81F2
  8
0
 10
3884.088906462021896
 20
73.4304227248929777
 30
0.0
 40
0.0093848602757008
 50
244.5730901080279978
 51
268.5685260570222113
  0
LINE
  5
81F3
  8
0
 10
3884.1398153483928581
 20
73.5332700870619078
 30
0.0
 11
3884.1721727571689371
 21
73.5332706351619123
 31
0.0
  0
LINE
  5
81F4
  8
0
 10
3884.1398153483928581
 20
73.5505361325619162
 30
0.0
 11
3884.1721727571689371
 21
73.5505366806619065
 31
0.0
  0
LINE
  5
81F5
  8
0
 10
3884.1398153483928581
 20
73.5678021781619123
 30
0.0
 11
3884.1721648915568039
 21
73.5678027263619185
 31
0.0
  0
LINE
  5
81F6
  8
0
 10
3884.1418259260931336
 20
73.5678021781619123
 30
0.0
 11
3884.1418259260931336
 21
73.5568962295619144
 31
0.0
  0
LINE
  5
81F7
  8
0
 10
3884.1418259260931336
 20
73.5505361325619162
 30
0.0
 11
3884.1418259260931336
 21
73.5396301839619184
 31
0.0
  0
LINE
  5
81F8
  8
0
 10
3884.1418259260931336
 20
73.5332700870619078
 30
0.0
 11
3884.1418259260931336
 21
73.52236413846191
 31
0.0
  0
LINE
  5
81F9
  8
0
 10
3884.1702388329931637
 20
73.5678021781619123
 30
0.0
 11
3884.1702388329931637
 21
73.5568962295619144
 31
0.0
  0
LINE
  5
81FA
  8
0
 10
3884.1702388329931637
 20
73.5505366479033
 30
0.0
 11
3884.1702388329931637
 21
73.5332706024033058
 31
0.0
  0
LINE
  5
81FB
  8
0
 10
3884.1702388329931637
 20
73.5332700870619078
 30
0.0
 11
3884.1702388329931637
 21
73.5160040414619118
 31
0.0
  0
LINE
  5
81FC
  8
0
 10
3884.1702388329931637
 20
73.5160040414619118
 30
0.0
 11
3884.1702388329931637
 21
73.505098092861914
 31
0.0
  0
LINE
  5
81FD
  8
0
 10
3884.1702388329931637
 20
73.4987379958619158
 30
0.0
 11
3884.1702388329931637
 21
73.4878320473619198
 31
0.0
  0
LINE
  5
81FE
  8
0
 10
3884.1418259260931336
 20
73.5160040414619118
 30
0.0
 11
3884.1418259260931336
 21
73.505098092861914
 31
0.0
  0
LINE
  5
81FF
  8
0
 10
3884.1418259260931336
 20
73.4987379958619158
 30
0.0
 11
3884.1418259260931336
 21
73.4878320473619198
 31
0.0
  0
LINE
  5
8200
  8
0
 10
3884.1418259255769954
 20
73.4814721560538544
 30
0.0
 11
3884.1418547643270358
 21
73.4699870360646941
 31
0.0
  0
LINE
  5
8201
  8
0
 10
3884.1418259260931336
 20
73.4642059047619114
 30
0.0
 11
3884.1418259260931336
 21
73.4521420246674808
 31
0.0
  0
LINE
  5
8202
  8
0
 10
3884.1702388329931637
 20
73.4642064564225734
 30
0.0
 11
3884.1702388329931637
 21
73.4532999562619153
 31
0.0
  0
LINE
  5
8203
  8
0
 10
3884.1702388329931637
 20
73.446940410828546
 30
0.0
 11
3884.1702388329931637
 21
73.4360339106619193
 31
0.0
  0
LINE
  5
8204
  8
0
 10
3884.1418259260931336
 20
73.4469398592619029
 30
0.0
 11
3884.1418259260931336
 21
73.4357593237719044
 31
0.0
  0
LINE
  5
8205
  8
0
 10
3884.1418259260931336
 20
73.429673847718945
 30
0.0
 11
3884.1418259260931336
 21
73.4184932212636738
 31
0.0
  0
LINE
  5
8206
  8
0
 10
3884.1702388329931637
 20
73.4296743290033049
 30
0.0
 11
3884.1702388329931637
 21
73.4183890082124009
 31
0.0
  0
ARC
  5
8207
  8
0
 10
3884.1248929344619683
 20
73.5304181953646889
 30
0.0
 40
0.0058261722029686
 50
174.2969181328948025
 51
251.5735414116309983
  0
ARC
  5
8208
  8
0
 10
3884.1208718320649496
 20
73.5340189981929768
 30
0.0
 40
0.0093848602757
 50
271.4308619888171279
 51
295.426909891971377
  0
ARC
  5
8209
  8
0
 10
3884.1248929344619683
 20
73.5131521498646947
 30
0.0
 40
0.0058261722029686
 50
174.2969181328948025
 51
251.5735414116309983
  0
ARC
  5
820A
  8
0
 10
3884.1208718320649496
 20
73.5167529526929684
 30
0.0
 40
0.0093848602757
 50
271.4308619888171279
 51
295.426909891971377
  0
ARC
  5
820B
  8
0
 10
3884.1248929344619683
 20
73.4958861042646987
 30
0.0
 40
0.0058261722029686
 50
174.2969181328948025
 51
251.5735414116309983
  0
ARC
  5
820C
  8
0
 10
3884.1208718320649496
 20
73.4994869070929724
 30
0.0
 40
0.0093848602757
 50
271.4308619888171279
 51
295.426909891971377
  0
ARC
  5
820D
  8
0
 10
3884.1248929344619683
 20
73.4786200587647045
 30
0.0
 40
0.0058261722029686
 50
174.2969181328948025
 51
251.5735414116309983
  0
ARC
  5
820E
  8
0
 10
3884.1208718320649496
 20
73.482220861592964
 30
0.0
 40
0.0093848602757
 50
271.4308619888171279
 51
295.426909891971377
  0
ARC
  5
820F
  8
0
 10
3884.1248929344619683
 20
73.4613540132646961
 30
0.0
 40
0.0058261722029686
 50
174.2969181328948025
 51
251.5735414116309983
  0
ARC
  5
8210
  8
0
 10
3884.1208718320649496
 20
73.4649548160929697
 30
0.0
 40
0.0093848602757
 50
271.4308619888171279
 51
295.426909891971377
  0
ARC
  5
8211
  8
0
 10
3884.1248929344619683
 20
73.426821922064704
 30
0.0
 40
0.0058261722029686
 50
174.2969181328948025
 51
251.5735414116309983
  0
ARC
  5
8212
  8
0
 10
3884.1208718320649496
 20
73.4304227248929635
 30
0.0
 40
0.0093848602757
 50
271.4308619888171279
 51
295.426909891971377
  0
LINE
  5
8213
  8
0
 10
3884.090682693592953
 20
73.5419031097619182
 30
0.0
 11
3884.090682693592953
 21
73.5309971611619204
 31
0.0
  0
LINE
  5
8214
  8
0
 10
3884.1190956004929831
 20
73.5419031097619182
 30
0.0
 11
3884.1190956004929831
 21
73.5309971611619062
 31
0.0
  0
LINE
  5
8215
  8
0
 10
3884.090682693592953
 20
73.524637064261924
 30
0.0
 11
3884.090682693592953
 21
73.513731115661912
 31
0.0
  0
LINE
  5
8216
  8
0
 10
3884.1190956004929831
 20
73.524637064261924
 30
0.0
 11
3884.1190956004929831
 21
73.513731115661912
 31
0.0
  0
LINE
  5
8217
  8
0
 10
3884.090682693592953
 20
73.5073710186619138
 30
0.0
 11
3884.090682693592953
 21
73.496465070061916
 31
0.0
  0
LINE
  5
8218
  8
0
 10
3884.1190956004929831
 20
73.5073710186619138
 30
0.0
 11
3884.1190956004929831
 21
73.496465070061916
 31
0.0
  0
LINE
  5
8219
  8
0
 10
3884.090682693592953
 20
73.4901049731619196
 30
0.0
 11
3884.090682693592953
 21
73.4791990245619218
 31
0.0
  0
LINE
  5
821A
  8
0
 10
3884.1190956004929831
 20
73.4901049731619196
 30
0.0
 11
3884.1190956004929831
 21
73.4791990245619218
 31
0.0
  0
LINE
  5
821B
  8
0
 10
3884.090682693592953
 20
73.4728389275619236
 30
0.0
 11
3884.090682693592953
 21
73.4619329790619133
 31
0.0
  0
LINE
  5
821C
  8
0
 10
3884.1190956004929831
 20
73.4728389275619236
 30
0.0
 11
3884.1190956004929831
 21
73.4619329790619133
 31
0.0
  0
LINE
  5
821D
  8
0
 10
3884.090682693592953
 20
73.438521872161914
 30
0.0
 11
3884.090682693592953
 21
73.4274008878619213
 31
0.0
  0
LINE
  5
821E
  8
0
 10
3884.1190956004761574
 20
73.4274008876898705
 30
0.0
 11
3884.1190956004761574
 21
73.438521872161914
 31
0.0
  0
ARC
  5
821F
  8
0
 10
3884.0337421270241975
 20
73.5390512181647011
 30
0.0
 40
0.0058261722029686
 50
288.4264585883689733
 51
5.7030818671047188
  0
ARC
  5
8220
  8
0
 10
3884.0377632294212162
 20
73.5426520209929748
 30
0.0
 40
0.0093848602757
 50
244.5730901080287083
 51
268.5691380111828721
  0
ARC
  5
8221
  8
0
 10
3884.0337421270241975
 20
73.5217851726646927
 30
0.0
 40
0.0058261722029686
 50
288.4264585883689733
 51
5.7030818671047188
  0
ARC
  5
8222
  8
0
 10
3884.0377632294212162
 20
73.5253859754929806
 30
0.0
 40
0.0093848602757
 50
244.5730901080287083
 51
268.5691380111828721
  0
ARC
  5
8223
  8
0
 10
3884.0337421270241975
 20
73.5045191270646967
 30
0.0
 40
0.0058261722029686
 50
288.4264585883689733
 51
5.7030818671047188
  0
ARC
  5
8224
  8
0
 10
3884.0377632294212162
 20
73.5081199298929704
 30
0.0
 40
0.0093848602757
 50
244.5730901080287083
 51
268.5691380111828721
  0
ARC
  5
8225
  8
0
 10
3884.0337421270241975
 20
73.4872530815646883
 30
0.0
 40
0.0058261722029686
 50
288.4264585883689733
 51
5.7030818671047188
  0
ARC
  5
8226
  8
0
 10
3884.0377632294212162
 20
73.4908538843929762
 30
0.0
 40
0.0093848602757
 50
244.5730901080287083
 51
268.5691380111828721
  0
ARC
  5
8227
  8
0
 10
3884.0337421270241975
 20
73.4699870360646941
 30
0.0
 40
0.0058261722029686
 50
288.4264585883689733
 51
5.7030818671047188
  0
ARC
  5
8228
  8
0
 10
3884.0377632294212162
 20
73.4735878388929677
 30
0.0
 40
0.0093848602757
 50
244.5730901080287083
 51
268.5691380111828721
  0
ARC
  5
8229
  8
0
 10
3884.073749701862198
 20
73.5390512181647011
 30
0.0
 40
0.0058261722029686
 50
174.2969181328948025
 51
251.5735414116309983
  0
ARC
  5
822A
  8
0
 10
3884.0697285994651793
 20
73.5426520209929748
 30
0.0
 40
0.0093848602757
 50
271.4308619888171279
 51
295.426909891971377
  0
ARC
  5
822B
  8
0
 10
3884.073749701862198
 20
73.5217851726646927
 30
0.0
 40
0.0058261722029686
 50
174.2969181328948025
 51
251.5735414116309983
  0
ARC
  5
822C
  8
0
 10
3884.0697285994651793
 20
73.5253859754929806
 30
0.0
 40
0.0093848602757
 50
271.4308619888171279
 51
295.426909891971377
  0
ARC
  5
822D
  8
0
 10
3884.073749701862198
 20
73.5045191270646967
 30
0.0
 40
0.0058261722029686
 50
174.2969181328948025
 51
251.5735414116309983
  0
ARC
  5
822E
  8
0
 10
3884.0697285994651793
 20
73.5081199298929704
 30
0.0
 40
0.0093848602757
 50
271.4308619888171279
 51
295.426909891971377
  0
ARC
  5
822F
  8
0
 10
3884.073749701862198
 20
73.4872530815646883
 30
0.0
 40
0.0058261722029686
 50
174.2969181328948025
 51
251.5735414116309983
  0
ARC
  5
8230
  8
0
 10
3884.0697285994651793
 20
73.4908538843929762
 30
0.0
 40
0.0093848602757
 50
271.4308619888171279
 51
295.426909891971377
  0
ARC
  5
8231
  8
0
 10
3884.073749701862198
 20
73.4699870360646941
 30
0.0
 40
0.0058261722029686
 50
174.2969181328948025
 51
251.5735414116309983
  0
ARC
  5
8232
  8
0
 10
3884.0697285994651793
 20
73.4735878388929677
 30
0.0
 40
0.0093848602757
 50
271.4308619888171279
 51
295.426909891971377
  0
LINE
  5
8233
  8
0
 10
3884.0395394609931827
 20
73.5505361325619162
 30
0.0
 11
3884.0395394609931827
 21
73.5396301839619184
 31
0.0
  0
LINE
  5
8234
  8
0
 10
3884.0679523678932128
 20
73.5505361325619162
 30
0.0
 11
3884.0679523678932128
 21
73.5396301839619184
 31
0.0
  0
LINE
  5
8235
  8
0
 10
3884.0395394609931827
 20
73.5332702587148503
 30
0.0
 11
3884.0395394609931827
 21
73.52236413846191
 31
0.0
  0
LINE
  5
8236
  8
0
 10
3884.0679523678932128
 20
73.5332700870619078
 30
0.0
 11
3884.0679523678932128
 21
73.52236413846191
 31
0.0
  0
LINE
  5
8237
  8
0
 10
3884.0395394609931827
 20
73.5160046100147753
 30
0.0
 11
3884.0395394609931827
 21
73.505098092861914
 31
0.0
  0
LINE
  5
8238
  8
0
 10
3884.0679523678932128
 20
73.5160040414619118
 30
0.0
 11
3884.0679523678932128
 21
73.505098092861914
 31
0.0
  0
LINE
  5
8239
  8
0
 10
3884.0395394609931827
 20
73.4987385643997868
 30
0.0
 11
3884.0395394609931827
 21
73.486674115767471
 31
0.0
  0
LINE
  5
823A
  8
0
 10
3884.0679523678932128
 20
73.4987379959619176
 30
0.0
 11
3884.0679523678932128
 21
73.4878320473619198
 31
0.0
  0
LINE
  5
823B
  8
0
 10
3884.0395394609931827
 20
73.4814725415357657
 30
0.0
 11
3884.0395394609931827
 21
73.4705660018619113
 31
0.0
  0
LINE
  5
823C
  8
0
 10
3884.0679523678932128
 20
73.4814719503618932
 30
0.0
 11
3884.0679523678932128
 21
73.4694080702674768
 31
0.0
  0
ARC
  5
823D
  8
0
 10
3883.9314556620252006
 20
73.5045191270646967
 30
0.0
 40
0.0058261722029686
 50
288.4264585883689733
 51
5.7030818671047188
  0
ARC
  5
823E
  8
0
 10
3883.935476764420855
 20
73.5081199298929704
 30
0.0
 40
0.0093848602757
 50
244.5730901080287083
 51
268.5691380111828721
  0
ARC
  5
823F
  8
0
 10
3883.9314556620252006
 20
73.4872530815646883
 30
0.0
 40
0.0058261722029686
 50
288.4264585883689733
 51
5.7030818671047188
  0
ARC
  5
8240
  8
0
 10
3883.935476764420855
 20
73.4908538843929762
 30
0.0
 40
0.0093848602757
 50
244.5730901080287083
 51
268.5691380111828721
  0
ARC
  5
8241
  8
0
 10
3883.9314556620252006
 20
73.4699870359646923
 30
0.0
 40
0.0058261722029686
 50
288.4264585883689733
 51
5.7030818671047188
  0
ARC
  5
8242
  8
0
 10
3883.935476764420855
 20
73.4735878387929802
 30
0.0
 40
0.0093848602757
 50
244.5730901080287083
 51
268.5691380111828721
  0
ARC
  5
8243
  8
0
 10
3883.9825988945249264
 20
73.4440879676647
 30
0.0
 40
0.0058261722029686
 50
288.4264585883689733
 51
5.7030818671047188
  0
ARC
  5
8244
  8
0
 10
3883.9866199969210356
 20
73.4476887704929737
 30
0.0
 40
0.0093848602757
 50
244.5730901080287083
 51
268.5691380111828721
  0
ARC
  5
8245
  8
0
 10
3883.9714632368609273
 20
73.5045191270646967
 30
0.0
 40
0.0058261722029686
 50
174.2969181328948025
 51
251.5735414116309983
  0
ARC
  5
8246
  8
0
 10
3883.9674421344648181
 20
73.5081199298929704
 30
0.0
 40
0.0093848602757
 50
271.4308619888171279
 51
295.426909891971377
  0
ARC
  5
8247
  8
0
 10
3883.9714632368609273
 20
73.4872530815646883
 30
0.0
 40
0.0058261722029686
 50
174.2969181328948025
 51
251.5735414116309983
  0
ARC
  5
8248
  8
0
 10
3883.9674421344648181
 20
73.4908538843929762
 30
0.0
 40
0.0093848602757
 50
271.4308619888171279
 51
295.426909891971377
  0
ARC
  5
8249
  8
0
 10
3883.9714632368609273
 20
73.4699870359646923
 30
0.0
 40
0.0058261722029686
 50
174.2969181328948025
 51
251.5735414116309983
  0
ARC
  5
824A
  8
0
 10
3883.9674421344648181
 20
73.4735878387929802
 30
0.0
 40
0.0093848602757
 50
271.4308619888171279
 51
295.426909891971377
  0
ARC
  5
824B
  8
0
 10
3883.9714632368609273
 20
73.452720990464698
 30
0.0
 40
0.0058261722029686
 50
174.2969181328948025
 51
251.5735414116309983
  0
ARC
  5
824C
  8
0
 10
3883.9674421344648181
 20
73.4563217932929717
 30
0.0
 40
0.0093848602757
 50
271.4308619888171279
 51
295.426909891971377
  0
ARC
  5
824D
  8
0
 10
3884.0226064693620174
 20
73.4440879676647
 30
0.0
 40
0.0058261722029686
 50
174.2969181328948025
 51
251.5735414116309983
  0
ARC
  5
824E
  8
0
 10
3884.0185853669649987
 20
73.4476887704929737
 30
0.0
 40
0.0093848602757
 50
271.4308619888171279
 51
295.426909891971377
  0
LINE
  5
824F
  8
0
 10
3883.9372529959928215
 20
73.5160040414619118
 30
0.0
 11
3883.9372529959928215
 21
73.505098092861914
 31
0.0
  0
LINE
  5
8250
  8
0
 10
3883.9656659028928516
 20
73.5160040414619118
 30
0.0
 11
3883.9656659028928516
 21
73.505098092861914
 31
0.0
  0
LINE
  5
8251
  8
0
 10
3883.9372529959928215
 20
73.4987385644147651
 30
0.0
 11
3883.9372529959928215
 21
73.4878320473619198
 31
0.0
  0
LINE
  5
8252
  8
0
 10
3883.9656659028928516
 20
73.4987379959619176
 30
0.0
 11
3883.9656659028928516
 21
73.486674115767471
 31
0.0
  0
LINE
  5
8253
  8
0
 10
3883.9372529959928215
 20
73.4814725189147708
 30
0.0
 11
3883.9372529959928215
 21
73.4705660017619095
 31
0.0
  0
LINE
  5
8254
  8
0
 10
3883.9656659028928516
 20
73.4814719503618932
 30
0.0
 11
3883.9656659028928516
 21
73.4705660017619095
 31
0.0
  0
LINE
  5
8255
  8
0
 10
3883.9656659028928516
 20
73.4642059048619132
 30
0.0
 11
3883.9656659028928516
 21
73.4532999562619153
 31
0.0
  0
LINE
  5
8256
  8
0
 10
3883.9883962284930021
 20
73.4555728820619152
 30
0.0
 11
3883.9883962284930021
 21
73.4446669334619031
 31
0.0
  0
LINE
  5
8257
  8
0
 10
3884.0168091353762065
 20
73.4446669332898665
 30
0.0
 11
3884.0168091353762065
 21
73.4555732621920896
 31
0.0
  0
ARC
  5
8258
  8
0
 10
3883.9825988945249264
 20
73.5304181953646889
 30
0.0
 40
0.0058261722029686
 50
288.4264585883689733
 51
5.7030818671047188
  0
ARC
  5
8259
  8
0
 10
3883.9866199969210356
 20
73.5340189981929768
 30
0.0
 40
0.0093848602757
 50
244.5730901080287083
 51
268.5691380111828721
  0
ARC
  5
825A
  8
0
 10
3883.9825988945249264
 20
73.5131521498646947
 30
0.0
 40
0.0058261722029686
 50
288.4264585883689733
 51
5.7030818671047188
  0
ARC
  5
825B
  8
0
 10
3883.9866199969210356
 20
73.5167529526929684
 30
0.0
 40
0.0093848602757
 50
244.5730901080287083
 51
268.5691380111828721
  0
ARC
  5
825C
  8
0
 10
3883.9825988945249264
 20
73.4958861042646987
 30
0.0
 40
0.0058261722029686
 50
288.4264585883689733
 51
5.7030818671047188
  0
ARC
  5
825D
  8
0
 10
3883.9866199969210356
 20
73.4994869070929724
 30
0.0
 40
0.0093848602757
 50
244.5730901080287083
 51
268.5691380111828721
  0
ARC
  5
825E
  8
0
 10
3883.9825988945249264
 20
73.4786200587647045
 30
0.0
 40
0.0058261722029686
 50
288.4264585883689733
 51
5.7030818671047188
  0
ARC
  5
825F
  8
0
 10
3883.9866199969210356
 20
73.482220861592964
 30
0.0
 40
0.0093848602757
 50
244.5730901080287083
 51
268.5691380111828721
  0
ARC
  5
8260
  8
0
 10
3883.9825988945249264
 20
73.4613540132646961
 30
0.0
 40
0.0058261722029686
 50
288.4264585883689733
 51
5.7030818671047188
  0
ARC
  5
8261
  8
0
 10
3883.9866199969210356
 20
73.4649548160929697
 30
0.0
 40
0.0093848602757
 50
244.5730901080287083
 51
268.5691380111828721
  0
ARC
  5
8262
  8
0
 10
3884.0337421270241975
 20
73.4527209903646963
 30
0.0
 40
0.0058261722029686
 50
288.4264585883689733
 51
5.7030818671047188
  0
ARC
  5
8263
  8
0
 10
3884.0377632294212162
 20
73.4563217931929699
 30
0.0
 40
0.0093848602757
 50
244.5730901080287083
 51
268.5691380111828721
  0
ARC
  5
8264
  8
0
 10
3884.0226064693620174
 20
73.5304181953646889
 30
0.0
 40
0.0058261722029686
 50
174.2969181328948025
 51
251.5735414116309983
  0
ARC
  5
8265
  8
0
 10
3884.0185853669649987
 20
73.5340189981929768
 30
0.0
 40
0.0093848602757
 50
271.4308619888171279
 51
295.426909891971377
  0
ARC
  5
8266
  8
0
 10
3884.0226064693620174
 20
73.5131521498646947
 30
0.0
 40
0.0058261722029686
 50
174.2969181328948025
 51
251.5735414116309983
  0
ARC
  5
8267
  8
0
 10
3884.0185853669649987
 20
73.5167529526929684
 30
0.0
 40
0.0093848602757
 50
271.4308619888171279
 51
295.426909891971377
  0
ARC
  5
8268
  8
0
 10
3884.0226064693620174
 20
73.4958861042646987
 30
0.0
 40
0.0058261722029686
 50
174.2969181328948025
 51
251.5735414116309983
  0
ARC
  5
8269
  8
0
 10
3884.0185853669649987
 20
73.4994869070929724
 30
0.0
 40
0.0093848602757
 50
271.4308619888171279
 51
295.426909891971377
  0
ARC
  5
826A
  8
0
 10
3884.0226064693620174
 20
73.4786200587647045
 30
0.0
 40
0.0058261722029686
 50
174.2969181328948025
 51
251.5735414116309983
  0
ARC
  5
826B
  8
0
 10
3884.0185853669649987
 20
73.482220861592964
 30
0.0
 40
0.0093848602757
 50
271.4308619888171279
 51
295.426909891971377
  0
ARC
  5
826C
  8
0
 10
3884.0226064693620174
 20
73.4613540132646961
 30
0.0
 40
0.0058261722029686
 50
174.2969181328948025
 51
251.5735414116309983
  0
ARC
  5
826D
  8
0
 10
3884.0185853669649987
 20
73.4649548160929697
 30
0.0
 40
0.0093848602757
 50
271.4308619888171279
 51
295.426909891971377
  0
ARC
  5
826E
  8
0
 10
3884.073749701862198
 20
73.4527209903646963
 30
0.0
 40
0.0058261722029686
 50
174.2969181328948025
 51
251.5735414116309983
  0
ARC
  5
826F
  8
0
 10
3884.0697285994651793
 20
73.4563217931929699
 30
0.0
 40
0.0093848602757
 50
271.4308619888171279
 51
295.426909891971377
  0
LINE
  5
8270
  8
0
 10
3883.9883962284930021
 20
73.5419036783085858
 30
0.0
 11
3883.9883962284930021
 21
73.5309971611619204
 31
0.0
  0
LINE
  5
8271
  8
0
 10
3884.0168091353930322
 20
73.5419031097619182
 30
0.0
 11
3884.0168091353930322
 21
73.5309971611619062
 31
0.0
  0
LINE
  5
8272
  8
0
 10
3883.9883962284930021
 20
73.524637064261924
 30
0.0
 11
3883.9883962284930021
 21
73.513731115661912
 31
0.0
  0
LINE
  5
8273
  8
0
 10
3884.0168091353930322
 20
73.524637064261924
 30
0.0
 11
3884.0168091353930322
 21
73.5125731840674774
 31
0.0
  0
LINE
  5
8274
  8
0
 10
3883.9883962284930021
 20
73.5073710186619138
 30
0.0
 11
3883.9883962284930021
 21
73.496465070061916
 31
0.0
  0
LINE
  5
8275
  8
0
 10
3884.0168091353930322
 20
73.5073710186619138
 30
0.0
 11
3884.0168091353930322
 21
73.496465070061916
 31
0.0
  0
LINE
  5
8276
  8
0
 10
3883.9883962284930021
 20
73.4901049731619196
 30
0.0
 11
3883.9883962284930021
 21
73.4791990245619218
 31
0.0
  0
LINE
  5
8277
  8
0
 10
3884.0168091353930322
 20
73.4901049731619196
 30
0.0
 11
3884.0168091353930322
 21
73.478041092967473
 31
0.0
  0
LINE
  5
8278
  8
0
 10
3883.9883962284930021
 20
73.4728389275619236
 30
0.0
 11
3883.9883962284930021
 21
73.4619329790619133
 31
0.0
  0
LINE
  5
8279
  8
0
 10
3884.0168091353930322
 20
73.4728389275619236
 30
0.0
 11
3884.0168091353930322
 21
73.4619329790619133
 31
0.0
  0
LINE
  5
827A
  8
0
 10
3884.0395394609931827
 20
73.4642064959357555
 30
0.0
 11
3884.0395394609931827
 21
73.452142024567479
 31
0.0
  0
LINE
  5
827B
  8
0
 10
3884.0679523678759324
 20
73.4532999561532165
 30
0.0
 11
3884.0679523678759324
 21
73.4642062848921
 31
0.0
  0
ARC
  5
827C
  8
0
 10
3883.9314556621420707
 20
73.5215701369646837
 30
0.0
 40
0.0058261722029686
 50
288.4264585883689733
 51
5.7030818671047188
  0
ARC
  5
827D
  8
0
 10
3883.934421962594115
 20
73.5208525523839
 30
0.0
 40
0.0049387932597592
 50
232.9684290787616021
 51
280.1771871849127251
  0
ARC
  5
827E
  8
0
 10
3883.9714632369791616
 20
73.5215701369646837
 30
0.0
 40
0.0058261722029686
 50
174.2969181328948025
 51
251.5735414116309983
  0
ARC
  5
827F
  8
0
 10
3883.9685285769887741
 20
73.5220906074056302
 30
0.0
 40
0.0061459216627638
 50
262.0306013637919023
 51
298.6109634212378978
  0
LINE
  5
8280
  8
0
 10
3883.9372529961110558
 20
73.5300241484705452
 30
0.0
 11
3883.9372529961110558
 21
73.5221491027619152
 31
0.0
  0
LINE
  5
8281
  8
0
 10
3883.965665902992896
 20
73.5209911713395172
 30
0.0
 11
3883.965665902992896
 21
73.5332700870619078
 31
0.0
  0
ARC
  5
8282
  8
0
 10
3883.920320004478981
 20
73.4784050230646955
 30
0.0
 40
0.0058261722029695
 50
174.2969181329004869
 51
249.595334432109297
  0
LINE
  5
8283
  8
0
 10
3883.9145226704931702
 20
73.4789839888532157
 30
0.0
 11
3883.9145226704931702
 21
73.4901049731619196
 31
0.0
  0
ARC
  5
8284
  8
0
 10
3884.0337421270241975
 20
73.4354549448646878
 30
0.0
 40
0.0058261722029686
 50
288.4264585883689733
 51
5.7030818671047188
  0
ARC
  5
8285
  8
0
 10
3884.0377632294212162
 20
73.4390557476929757
 30
0.0
 40
0.0093848602757
 50
244.5730901080287083
 51
268.5691380111828721
  0
ARC
  5
8286
  8
0
 10
3884.073749701862198
 20
73.4354549448646878
 30
0.0
 40
0.0058261722029686
 50
174.2969181328948025
 51
251.5735414116309983
  0
ARC
  5
8287
  8
0
 10
3884.0697285994651793
 20
73.4390557476929757
 30
0.0
 40
0.0093848602757
 50
271.4308619888171279
 51
295.426909891971377
  0
LINE
  5
8288
  8
0
 10
3884.0395394609931827
 20
73.4469404278085847
 30
0.0
 11
3884.0395394609931827
 21
73.4360339106619193
 31
0.0
  0
LINE
  5
8289
  8
0
 10
3884.0679523462408724
 20
73.4348761959182923
 30
0.0
 11
3884.0679525716850549
 21
73.4469398968312959
 31
0.0
  0
ARC
  5
828A
  8
0
 10
3883.920320004478981
 20
73.4956710685646755
 30
0.0
 40
0.0058261722029686
 50
174.2969181328948025
 51
251.5735414116309983
  0
ARC
  5
828B
  8
0
 10
3883.9174168237300364
 20
73.4947131764702135
 30
0.0
 40
0.0046917024123334
 50
259.1589235040905237
 51
307.0206440747135161
  0
LINE
  5
828C
  8
0
 10
3883.9145226704931702
 20
73.4962500343531957
 30
0.0
 11
3883.9145226704931702
 21
73.5073710186619138
 31
0.0
  0
LINE
  5
828D
  8
0
 10
3884.1360204796928883
 20
73.5341759406619246
 30
0.0
 11
3884.1190956004929831
 21
73.5419031097619182
 31
0.0
  0
LINE
  5
828E
  8
0
 10
3884.1190956004929831
 20
73.5419031097619182
 30
0.0
 11
3884.090682693592953
 21
73.5419031097619182
 31
0.0
  0
LINE
  5
828F
  8
0
 10
3884.090682693592953
 20
73.5419031097619182
 30
0.0
 11
3884.0737580769928172
 21
73.5341762370619136
 31
0.0
  0
LINE
  5
8290
  8
0
 10
3884.0848769844928938
 20
73.5255432143619032
 30
0.0
 11
3884.0679523679928025
 21
73.5332700870619078
 31
0.0
  0
LINE
  5
8291
  8
0
 10
3884.069962945593943
 20
73.5332700870619078
 30
0.0
 11
3884.0375283254929855
 21
73.5332702700619194
 31
0.0
  0
LINE
  5
8292
  8
0
 10
3884.0375299453930893
 20
73.516004647561914
 30
0.0
 11
3884.069962945593943
 21
73.5160040415619136
 31
0.0
  0
LINE
  5
8293
  8
0
 10
3884.0886715579931661
 20
73.5246372472619214
 30
0.0
 11
3884.1211061781928038
 21
73.524637064261924
 31
0.0
  0
LINE
  5
8294
  8
0
 10
3884.0886721158931323
 20
73.5073710186619138
 30
0.0
 11
3884.1211056568931781
 21
73.5073713838619085
 31
0.0
  0
LINE
  5
8295
  8
0
 10
3884.0886721158931323
 20
73.4901049731619196
 30
0.0
 11
3884.1211056568931781
 21
73.4901053383619143
 31
0.0
  0
LINE
  5
8296
  8
0
 10
3884.0886731778928151
 20
73.4728395336619116
 30
0.0
 11
3884.1211056568931781
 21
73.4728392927619183
 31
0.0
  0
LINE
  5
8297
  8
0
 10
3884.0886721158931323
 20
73.4555728821619169
 30
0.0
 11
3884.1211061781928038
 21
73.4555728821619169
 31
0.0
  0
LINE
  5
8298
  8
0
 10
3884.0886489896629428
 20
73.421041397141579
 30
0.0
 11
3884.1211056568931781
 21
73.4210411560619178
 31
0.0
  0
LINE
  5
8299
  8
0
 10
3884.121936891192945
 20
73.438521872161914
 30
0.0
 11
3884.087841402892991
 21
73.438521872161914
 31
0.0
  0
LINE
  5
829A
  8
0
 10
3884.0375299453930893
 20
73.4296744197619091
 30
0.0
 11
3884.0699641969508775
 21
73.4296744197619091
 31
0.0
  0
LINE
  5
829B
  8
0
 10
3884.0375299453930893
 20
73.4469404653619193
 30
0.0
 11
3884.069962945593943
 21
73.4469398592619029
 31
0.0
  0
LINE
  5
829C
  8
0
 10
3884.0375299453930893
 20
73.4642065108619136
 30
0.0
 11
3884.0699624243929975
 21
73.4642062699619203
 31
0.0
  0
LINE
  5
829D
  8
0
 10
3884.0375299453930893
 20
73.4814725564619096
 30
0.0
 11
3884.0699624243929975
 21
73.4814723155619163
 31
0.0
  0
LINE
  5
829E
  8
0
 10
3884.0375299453930893
 20
73.498738601961918
 30
0.0
 11
3884.069955357571871
 21
73.4987379958619158
 31
0.0
  0
LINE
  5
829F
  8
0
 10
3883.9863867128929087
 20
73.5419037158619204
 30
0.0
 11
3884.0188197131928973
 21
73.5419031097619182
 31
0.0
  0
LINE
  5
82A0
  8
0
 10
3883.9863856507931814
 20
73.524637064261924
 30
0.0
 11
3884.0188197130928529
 21
73.524637064261924
 31
0.0
  0
LINE
  5
82A1
  8
0
 10
3883.9863867128929087
 20
73.507371624761916
 30
0.0
 11
3884.0188197130928529
 21
73.5073710187619156
 31
0.0
  0
LINE
  5
82A2
  8
0
 10
3883.9863867128929087
 20
73.4901055792619218
 30
0.0
 11
3884.0188197130928529
 21
73.4901049731619196
 31
0.0
  0
LINE
  5
82A3
  8
0
 10
3883.9863867128929087
 20
73.4728395336619116
 30
0.0
 11
3884.0188197130928529
 21
73.4728389276619112
 31
0.0
  0
LINE
  5
82A4
  8
0
 10
3883.9863867128929087
 20
73.4555734881619173
 30
0.0
 11
3884.0188191918928169
 21
73.4555732472619241
 31
0.0
  0
LINE
  5
82A5
  8
0
 10
3883.9863856507931814
 20
73.4383068364619191
 30
0.0
 11
3884.0188197131928973
 21
73.4383068364619191
 31
0.0
  0
LINE
  5
82A6
  8
0
 10
3883.9444259742190297
 20
73.5333086813306807
 30
0.0
 11
3883.9676764806931715
 21
73.5333086813306807
 31
0.0
  0
LINE
  5
82A7
  8
0
 10
3883.9352946121011882
 20
73.5159914659106448
 30
0.0
 11
3883.9676764806931715
 21
73.5160040414619118
 31
0.0
  0
LINE
  5
82A8
  8
0
 10
3883.9352434802931384
 20
73.498738601961918
 30
0.0
 11
3883.9676764805931271
 21
73.4987379959619176
 31
0.0
  0
LINE
  5
82A9
  8
0
 10
3883.9352434802931384
 20
73.4814725564619096
 30
0.0
 11
3883.9676764805931271
 21
73.4814719504619234
 31
0.0
  0
LINE
  5
82AA
  8
0
 10
3883.9352424182939103
 20
73.4642059047619114
 30
0.0
 11
3883.9676764805931271
 21
73.4642059048619132
 31
0.0
  0
LINE
  5
82AB
  8
0
 10
3883.9352940137928272
 20
73.4642059048619132
 30
0.0
 11
3883.9352975570000126
 21
73.4532999562619153
 31
0.0
  0
LINE
  5
82AC
  8
0
 10
3883.9204452806970949
 20
73.4567885027568366
 30
0.0
 11
3883.9352940140470309
 21
73.464057669082564
 31
0.0
  0
LINE
  5
82AD
  8
0
 10
3883.9167905462550152
 20
73.4630700132518228
 30
0.0
 11
3883.9167909392831461
 21
73.4728231693571274
 31
0.0
  0
LINE
  5
82AE
  8
0
 10
3883.9402243745930718
 20
73.4469397919619098
 30
0.0
 11
3883.9676776151918602
 21
73.4469400945618958
 31
0.0
  0
LINE
  5
82AF
  8
0
 10
3883.97221451389305
 20
73.4444674232619121
 30
0.0
 11
3883.9722161422828322
 21
73.4393509692068278
 31
0.0
  0
LINE
  5
82B0
  8
0
 10
3883.9826481955110467
 20
73.4391858065469023
 30
0.0
 11
3883.9676764805931271
 21
73.4469398593619189
 31
0.0
  0
LINE
  5
82B1
  8
0
 10
3884.0173413154930131
 20
73.4383068364619191
 30
0.0
 11
3884.0173413009929391
 21
73.4280082788619097
 31
0.0
  0
LINE
  5
82B2
  8
0
 10
3883.97788949199321
 20
73.4338295090619226
 30
0.0
 11
3883.9863867128929087
 21
73.4383074425619213
 31
0.0
  0
LINE
  5
82B3
  8
0
 10
3884.0227462802440641
 20
73.4222376911270231
 30
0.0
 11
3884.0375299453930893
 21
73.4296744197619091
 31
0.0
  0
LINE
  5
82B4
  8
0
 10
3884.0337337518931236
 20
73.4305799637619145
 30
0.0
 11
3884.0188197131928973
 21
73.4383068364619191
 31
0.0
  0
LINE
  5
82B5
  8
0
 10
3884.0680310891048066
 20
73.4296744197619091
 30
0.0
 11
3884.0680326777010123
 21
73.4188085341486953
 31
0.0
  0
LINE
  5
82B6
  8
0
 10
3884.0751155600928541
 20
73.4140013512619163
 30
0.0
 11
3884.0886731778928151
 21
73.4210413969619111
 31
0.0
  0
LINE
  5
82B7
  8
0
 10
3884.0849346624540885
 20
73.421919760086368
 30
0.0
 11
3884.0702132170308687
 21
73.4296834081659426
 31
0.0
  0
LINE
  5
82B8
  8
0
 10
3884.1320551597927988
 20
73.4083036241619169
 30
0.0
 11
3884.1398164103929957
 21
73.4124083742619149
 31
0.0
  0
LINE
  5
82B9
  8
0
 10
3884.1242351273372151
 20
73.4195970952521435
 30
0.0
 11
3884.1242351285100085
 21
73.4130754046275058
 31
0.0
  0
LINE
  5
82BA
  8
0
 10
3884.1398153483928581
 20
73.4124077681619127
 30
0.0
 11
3884.1211056568931781
 21
73.4210411560619178
 31
0.0
  0
LINE
  5
82BB
  8
0
 10
3883.9034020674930616
 20
73.5073710186619138
 30
0.0
 11
3883.9165332481929909
 21
73.5073710186619138
 31
0.0
  0
LINE
  5
82BC
  8
0
 10
3883.9165332481929909
 20
73.5073710186619138
 30
0.0
 11
3883.9315049666602135
 21
73.4996169642424348
 31
0.0
  0
LINE
  5
82BD
  8
0
 10
3883.8925212291937896
 20
73.4901049731619196
 30
0.0
 11
3883.9165332481929909
 21
73.4901049731619196
 31
0.0
  0
LINE
  5
82BE
  8
0
 10
3883.9203283794931849
 20
73.491011123261913
 30
0.0
 11
3883.9352434802931384
 21
73.498738601961918
 31
0.0
  0
LINE
  5
82BF
  8
0
 10
3883.9165332481929909
 20
73.4901049731619196
 30
0.0
 11
3883.9315049630067733
 21
73.4823509204491359
 31
0.0
  0
LINE
  5
82C0
  8
0
 10
3883.9203281167929163
 20
73.4737463443619134
 30
0.0
 11
3883.9352424182939103
 21
73.4814719503618932
 31
0.0
  0
LINE
  5
82C1
  8
0
 10
3883.9165332481929909
 20
73.4728389275619236
 30
0.0
 11
3883.8988599549929859
 21
73.4728389275619236
 31
0.0
  0
LINE
  5
82C2
  8
0
 10
3883.8963888157932161
 20
73.4901049731619196
 30
0.0
 11
3883.8963888157932161
 21
73.4791990245619218
 31
0.0
  0
ARC
  5
82C3
  8
0
 10
3883.9059362610069002
 20
73.4792372698525185
 30
0.0
 40
0.0095402754910231
 50
181.6541075758929935
 51
222.1149569383159985
  0
LINE
  5
82C4
  8
0
 10
3883.9167909276338833
 20
73.4725340740203023
 30
0.0
 11
3883.9315049664392063
 21
73.4650848732457291
 31
0.0
  0
LINE
  5
82C5
  8
0
 10
3883.965665902992896
 20
73.5413781976529464
 30
0.0
 11
3883.965665902992896
 21
73.5396301839619184
 31
0.0
  0
ARC
  5
82C6
  8
0
 10
3883.9806530180280788
 20
73.5409187338346726
 30
0.0
 40
0.0150424059852446
 50
184.9140449401382966
 51
210.391553160386195
  0
ARC
  5
82C7
  8
0
 10
3883.9671850056579387
 20
73.5441932446686337
 30
0.0
 40
0.0108957048056477
 50
272.5913029104095244
 51
293.1654539472996248
  0
LINE
  5
82C8
  8
0
 10
3883.9714716119929108
 20
73.5341762370619136
 30
0.0
 11
3883.9863856507931814
 21
73.5419031097619182
 31
0.0
  0
LINE
  5
82C9
  8
0
 10
3883.9883962284930021
 20
73.5486174786619102
 30
0.0
 11
3883.9883962284930021
 21
73.5482632067619164
 31
0.0
  0
ARC
  5
82CA
  8
0
 10
3883.9732720992410577
 20
73.5495449972495408
 30
0.0
 40
0.0151783488064942
 50
329.7726147006883934
 51
355.1556813436807261
  0
ARC
  5
82CB
  8
0
 10
3883.986956140095117
 20
73.5527007648369988
 30
0.0
 40
0.0108120541021578
 50
246.1857107363348121
 51
266.9810661043375148
  0
LINE
  5
82CC
  8
0
 10
3883.977580546380068
 20
73.545346323503054
 30
0.0
 11
3883.9825910036770438
 21
73.5428088512889815
 31
0.0
  0
LINE
  5
82CD
  8
0
 10
3884.0168091354930766
 20
73.5557273798619065
 30
0.0
 11
3884.0168091354930766
 21
73.5419031473351055
 31
0.0
  0
LINE
  5
82CE
  8
0
 10
3884.0227885566928308
 20
73.5569849585619124
 30
0.0
 11
3884.0375288833929517
 21
73.5505361325619162
 31
0.0
  0
LINE
  5
82CF
  8
0
 10
3884.0395352782520604
 20
73.5603091975517032
 30
0.0
 11
3884.0395394609931827
 21
73.5568962295619144
 31
0.0
  0
LINE
  5
82D0
  8
0
 10
3884.0679523679928025
 20
73.5649160412618954
 30
0.0
 11
3884.0679523679928025
 21
73.5563035540634331
 31
0.0
  0
LINE
  5
82D1
  8
0
 10
3883.9825907821918918
 20
73.5255429178619124
 30
0.0
 11
3883.9676764806931715
 21
73.5333086813306807
 31
0.0
  0
LINE
  5
82D2
  8
0
 10
3883.9714716121097808
 20
73.5166951558619246
 30
0.0
 11
3883.9863856507931814
 21
73.524637064261924
 31
0.0
  0
LINE
  5
82D3
  8
0
 10
3883.9825905194929874
 20
73.5082771687619072
 30
0.0
 11
3883.9676764806931715
 21
73.5160040414619118
 31
0.0
  0
LINE
  5
82D4
  8
0
 10
3883.9714713492930969
 20
73.4996454126619199
 30
0.0
 11
3883.9863856507931814
 21
73.5073710186619138
 31
0.0
  0
LINE
  5
82D5
  8
0
 10
3883.9826481991608489
 20
73.4909839414424511
 30
0.0
 11
3883.9676764805931271
 21
73.4987379959619176
 31
0.0
  0
LINE
  5
82D6
  8
0
 10
3883.9714713492930969
 20
73.4823793671619114
 30
0.0
 11
3883.9863867128929087
 21
73.4901055792619218
 31
0.0
  0
LINE
  5
82D7
  8
0
 10
3883.982590519392943
 20
73.473745077661917
 30
0.0
 11
3883.9676776151918602
 21
73.4814721856619144
 31
0.0
  0
LINE
  5
82D8
  8
0
 10
3883.9714713492930969
 20
73.4651133215619154
 30
0.0
 11
3883.9863856507931814
 21
73.4728389275619236
 31
0.0
  0
LINE
  5
82D9
  8
0
 10
3883.982590890092979
 20
73.4564805805619159
 30
0.0
 11
3883.9676764805931271
 21
73.4642059048619132
 31
0.0
  0
LINE
  5
82DA
  8
0
 10
3883.9714716119929108
 20
73.4478460093619248
 30
0.0
 11
3883.9863867128929087
 21
73.4555734881619173
 31
0.0
  0
LINE
  5
82DB
  8
0
 10
3884.0226145817928227
 20
73.4392142532619232
 30
0.0
 11
3884.0375299453930893
 21
73.4469404653619193
 31
0.0
  0
LINE
  5
82DC
  8
0
 10
3884.0337914316610295
 20
73.4478188275424344
 30
0.0
 11
3884.0194481288931456
 21
73.4557095737619079
 31
0.0
  0
LINE
  5
82DD
  8
0
 10
3884.0226145817928227
 20
73.4564802987619032
 30
0.0
 11
3884.0375299453930893
 21
73.4642065108619136
 31
0.0
  0
LINE
  5
82DE
  8
0
 10
3884.0337341225917953
 20
73.4651136033619139
 30
0.0
 11
3884.0188208476929503
 21
73.4728391628619164
 31
0.0
  0
LINE
  5
82DF
  8
0
 10
3884.0226145817928227
 20
73.4737463443619134
 30
0.0
 11
3884.0375288832929073
 21
73.4814719504619234
 31
0.0
  0
LINE
  5
82E0
  8
0
 10
3884.0337341225917953
 20
73.4823796488619223
 30
0.0
 11
3884.0188208476929503
 21
73.4901052084619124
 31
0.0
  0
LINE
  5
82E1
  8
0
 10
3884.0226145817928227
 20
73.4910123898618934
 30
0.0
 11
3884.0375288833929517
 21
73.4987379958619158
 31
0.0
  0
LINE
  5
82E2
  8
0
 10
3884.0337914316610295
 20
73.4996169642424348
 30
0.0
 11
3884.0188208476929503
 21
73.5073712540619226
 31
0.0
  0
LINE
  5
82E3
  8
0
 10
3884.0226148444930914
 20
73.5082771687619072
 30
0.0
 11
3884.0375288832929073
 21
73.5160040415619136
 31
0.0
  0
LINE
  5
82E4
  8
0
 10
3884.0337340146929819
 20
73.5169098950619144
 30
0.0
 11
3884.0188208476929503
 21
73.5246372995619168
 31
0.0
  0
LINE
  5
82E5
  8
0
 10
3884.0226148444930914
 20
73.5255432143619032
 30
0.0
 11
3884.037315457142995
 21
73.5332993375619139
 31
0.0
  0
LINE
  5
82E6
  8
0
 10
3884.0337340146929819
 20
73.5341759406619246
 30
0.0
 11
3884.0188197131928973
 21
73.5419031097619182
 31
0.0
  0
LINE
  5
82E7
  8
0
 10
3884.0188197131928973
 20
73.5419031097619182
 30
0.0
 11
3884.0375283254929855
 21
73.5505363155619136
 31
0.0
  0
LINE
  5
82E8
  8
0
 10
3884.0375288833929517
 20
73.5505361325619162
 30
0.0
 11
3884.0699629456930779
 21
73.5505361325619162
 31
0.0
  0
LINE
  5
82E9
  8
0
 10
3884.0699629456930779
 20
73.5505361325619162
 30
0.0
 11
3884.087841402892991
 21
73.5593841909618931
 31
0.0
  0
LINE
  5
82EA
  8
0
 10
3884.087841402892991
 20
73.5593841909618931
 30
0.0
 11
3884.0737111409680438
 21
73.5657281965774246
 31
0.0
  0
ARC
  5
82EB
  8
0
 10
3884.0253169451038957
 20
73.5578957431656448
 30
0.0
 40
0.0142575939651381
 50
328.9239081236768243
 51
355.9800424223651021
  0
ARC
  5
82EC
  8
0
 10
3884.0753621930612098
 20
73.5565998918126809
 30
0.0
 40
0.0074157483509554
 50
177.7098165174980124
 51
230.5298998837992031
  0
ARC
  5
82ED
  8
0
 10
3884.083176342814113
 20
73.5652705679545704
 30
0.0
 40
0.0075108068571193
 50
308.3974601842236893
 51
1.973750209925871
  0
ARC
  5
82EE
  8
0
 10
3884.1266155871280716
 20
73.565276872762368
 30
0.0
 40
0.0075242205214098
 50
178.0778076970435109
 51
231.5509819143846926
  0
LINE
  5
82EF
  8
0
 10
3884.0906789621290045
 20
73.5678761369957783
 30
0.0
 11
3884.0906789621290045
 21
73.5649199640997296
 31
0.0
  0
LINE
  5
82F0
  8
0
 10
3884.1190956004929831
 20
73.5706473934120311
 30
0.0
 11
3884.1190956004929831
 21
73.5655292523619124
 31
0.0
  0
LINE
  5
82F1
  8
0
 10
3884.087841402892991
 20
73.5593841909618646
 30
0.0
 11
3884.121936891192945
 21
73.5593841909618931
 31
0.0
  0
LINE
  5
82F2
  8
0
 10
3884.121936891192945
 20
73.5593841909618931
 30
0.0
 11
3884.1398153483928581
 21
73.5678021781619123
 31
0.0
  0
LINE
  5
82F3
  8
0
 10
3884.1398153483928581
 20
73.5678021781619123
 30
0.0
 11
3884.1304163769268598
 21
73.5715461276028719
 31
0.0
  0
LINE
  5
82F4
  8
0
 10
3884.121936891192945
 20
73.5593841909618931
 30
0.0
 11
3884.1398147904928919
 21
73.5505363155619136
 31
0.0
  0
LINE
  5
82F5
  8
0
 10
3884.1398147904928919
 20
73.5505363155619136
 30
0.0
 11
3884.1190956004929831
 21
73.5419031097619182
 31
0.0
  0
LINE
  5
82F6
  8
0
 10
3884.0699629456930779
 20
73.5505361325619162
 30
0.0
 11
3884.090682693592953
 21
73.5419031097619182
 31
0.0
  0
LINE
  5
82F7
  8
0
 10
3884.0737580769928172
 20
73.5169101915619336
 30
0.0
 11
3884.0886715579931661
 21
73.5246372472619214
 31
0.0
  0
LINE
  5
82F8
  8
0
 10
3884.0848772471931625
 20
73.5082768723619182
 30
0.0
 11
3884.069962945593943
 21
73.5160040415619136
 31
0.0
  0
LINE
  5
82F9
  8
0
 10
3884.0737578142930033
 20
73.4996454126619199
 30
0.0
 11
3884.0882458212931851
 21
73.5074293367619163
 31
0.0
  0
LINE
  5
82FA
  8
0
 10
3884.0848773550928854
 20
73.4910126716619203
 30
0.0
 11
3884.069955357571871
 21
73.4987379958619158
 31
0.0
  0
LINE
  5
82FB
  8
0
 10
3884.0737105325429184
 20
73.4823556603865597
 30
0.0
 11
3884.0886721158931323
 21
73.4901049731619196
 31
0.0
  0
LINE
  5
82FC
  8
0
 10
3884.0848769844928938
 20
73.473745077661917
 30
0.0
 11
3884.069962945593943
 21
73.4814719504619234
 31
0.0
  0
LINE
  5
82FD
  8
0
 10
3884.0737105360299211
 20
73.4650896165202738
 30
0.0
 11
3884.0886731778928151
 21
73.4728395336619116
 31
0.0
  0
LINE
  5
82FE
  8
0
 10
3884.0848773550928854
 20
73.4564805805619159
 30
0.0
 11
3884.0699629456930779
 21
73.4642059047619114
 31
0.0
  0
LINE
  5
82FF
  8
0
 10
3884.0737580769928172
 20
73.447846009261923
 30
0.0
 11
3884.0886721158931323
 21
73.4555728821619169
 31
0.0
  0
LINE
  5
8300
  8
0
 10
3884.087841402892991
 20
73.438521872161914
 30
0.0
 11
3884.0701757442930102
 21
73.4469692157619107
 31
0.0
  0
LINE
  5
8301
  8
0
 10
3884.0737105323551077
 20
73.4305575235983667
 30
0.0
 11
3884.087841402892991
 21
73.438521872161914
 31
0.0
  0
LINE
  5
8302
  8
0
 10
3884.1249010467918197
 20
73.421948207661913
 30
0.0
 11
3884.1398164103929957
 21
73.4296744197619091
 31
0.0
  0
LINE
  5
8303
  8
0
 10
3884.1398164103929957
 20
73.4296744197619091
 30
0.0
 11
3884.121936891192945
 21
73.438521872161914
 31
0.0
  0
LINE
  5
8304
  8
0
 10
3884.121936891192945
 20
73.438521872161914
 30
0.0
 11
3884.138736537638124
 21
73.4470292575036154
 31
0.0
  0
LINE
  5
8305
  8
0
 10
3884.1360202169930744
 20
73.4478460093619105
 30
0.0
 11
3884.1221849889448094
 21
73.4556622803033008
 31
0.0
  0
LINE
  5
8306
  8
0
 10
3884.1249010467918197
 20
73.4564802987619032
 30
0.0
 11
3884.1398164103929957
 21
73.4642065108619136
 31
0.0
  0
LINE
  5
8307
  8
0
 10
3884.1398164103929957
 20
73.4642065108619136
 30
0.0
 11
3884.1721727571689371
 21
73.4642064529619034
 31
0.0
  0
LINE
  5
8308
  8
0
 10
3884.136020587593066
 20
73.4651136033619139
 30
0.0
 11
3884.1213189767931908
 21
73.4728682840619172
 31
0.0
  0
LINE
  5
8309
  8
0
 10
3884.1249010467918197
 20
73.4737463443619134
 30
0.0
 11
3884.1398147904928919
 21
73.481472133361919
 31
0.0
  0
LINE
  5
830A
  8
0
 10
3884.1398147904928919
 20
73.481472133361919
 30
0.0
 11
3884.1721727571689371
 21
73.4814724984619119
 31
0.0
  0
LINE
  5
830B
  8
0
 10
3884.1360778912999194
 20
73.4823509212930333
 30
0.0
 11
3884.1211061781928038
 21
73.4901049731619196
 31
0.0
  0
LINE
  5
830C
  8
0
 10
3884.1249010467918197
 20
73.4910123898618934
 30
0.0
 11
3884.1398153483928581
 21
73.4987379958619158
 31
0.0
  0
LINE
  5
830D
  8
0
 10
3884.1398153483928581
 20
73.4987379958619158
 30
0.0
 11
3884.1722494106929844
 21
73.4987379958619158
 31
0.0
  0
LINE
  5
830E
  8
0
 10
3884.1722494106929844
 20
73.4987379958619158
 30
0.0
 11
3884.1910137246240993
 21
73.5075860543619228
 31
0.0
  0
LINE
  5
830F
  8
0
 10
3884.1398153483928581
 20
73.5160040414619118
 30
0.0
 11
3884.1720803356079159
 21
73.5160040414619118
 31
0.0
  0
LINE
  5
8310
  8
0
 10
3884.1249013095930422
 20
73.5082771687619072
 30
0.0
 11
3884.1398147904928919
 21
73.5160042244619092
 31
0.0
  0
LINE
  5
8311
  8
0
 10
3884.136020587593066
 20
73.4996456944619183
 30
0.0
 11
3884.1211056568931781
 21
73.5073713838619085
 31
0.0
  0
LINE
  5
8312
  8
0
 10
3884.1360202169930744
 20
73.5169101915619052
 30
0.0
 11
3884.1211061781928038
 21
73.524637064261924
 31
0.0
  0
LINE
  5
8313
  8
0
 10
3884.1249013095930422
 20
73.5255432143619032
 30
0.0
 11
3884.1398153483928581
 21
73.5332700870619078
 31
0.0
  0
LINE
  5
8314
  8
0
 10
3884.1398164103929957
 20
73.4469404653619193
 30
0.0
 11
3884.1721727571689371
 21
73.4469404073619216
 31
0.0
  0
LINE
  5
8315
  8
0
 10
3884.1398153483928581
 20
73.4296738136619069
 30
0.0
 11
3884.1721727571689371
 21
73.4296743617619114
 31
0.0
  0
LINE
  5
8316
  8
0
 10
3884.1398164103929957
 20
73.4124083742619149
 30
0.0
 11
3884.1722488893929039
 21
73.4124081333619074
 31
0.0
  0
LINE
  5
8317
  8
0
 10
3884.1722488893929039
 20
73.4124081333619074
 30
0.0
 11
3884.1910137246240993
 21
73.4210407908619231
 31
0.0
  0
ARC
  5
8318
  8
0
 10
3884.1340620364690039
 20
73.4186305431628341
 30
0.0
 40
0.0077651039528954
 50
310.5708477906525218
 51
1.013299430886156
  0
ARC
  5
8319
  8
0
 10
3884.1779637772788192
 20
73.4185784366371337
 30
0.0
 40
0.0077272664867282
 50
178.5952941269227097
 51
229.3076331851953
  0
ARC
  5
831A
  8
0
 10
3884.1340618609851845
 20
73.4358966172169119
 30
0.0
 40
0.0077652789065697
 50
310.7486347062230152
 51
1.0130666185146799
  0
ARC
  5
831B
  8
0
 10
3884.1868955035961335
 20
73.4376271093499469
 30
0.0
 40
0.0167326912848162
 50
185.4636789767245091
 51
208.3798481211383091
  0
ARC
  5
831C
  8
0
 10
3884.1895418847761903
 20
73.4556982851610201
 30
0.0
 40
0.0194514726861817
 50
187.0824816557230861
 51
206.7610454421298982
  0
ARC
  5
831D
  8
0
 10
3884.1845163773341483
 20
73.4886999903232834
 30
0.0
 40
0.0143039014736972
 50
183.4787736683624075
 51
210.3500178533329859
  0
ARC
  5
831E
  8
0
 10
3884.1845163770940417
 20
73.4714339447642715
 30
0.0
 40
0.0143039012376854
 50
183.478773890310805
 51
210.3500181329405052
  0
LINE
  5
831F
  8
0
 10
3884.1702388329931637
 20
73.4814724766411445
 30
0.0
 11
3884.1702388329931637
 21
73.4705660017619238
 31
0.0
  0
ARC
  5
8320
  8
0
 10
3884.1845065279940172
 20
73.5577626106450424
 30
0.0
 40
0.014293975542069
 50
183.4749201877629901
 51
210.3686069102440115
  0
ARC
  5
8321
  8
0
 10
3884.1341655766418626
 20
73.5566672442968041
 30
0.0
 40
0.0076637711326006
 50
310.9353427968583787
 51
1.71219128942891
  0
ARC
  5
8322
  8
0
 10
3884.134989563873205
 20
73.5734156602837999
 30
0.0
 40
0.0067277004469949
 50
307.6365150432314977
 51
350.5755854945396095
  0
ARC
  5
8323
  8
0
 10
3884.1857713035938104
 20
73.5754727780424957
 30
0.0
 40
0.0156186987904332
 50
186.4229987834451947
 51
209.4139889417895972
  0
LINE
  5
8324
  8
0
 10
3884.172250709878881
 20
73.4987386084755911
 30
0.0
 11
3884.1913469680271191
 21
73.4901049731619196
 31
0.0
  0
ARC
  5
8325
  8
0
 10
3884.1779088317839523
 20
73.5049182072217917
 30
0.0
 40
0.0076721079431165
 50
178.6564797274718046
 51
229.7014230110954998
  0
ARC
  5
8326
  8
0
 10
3884.4350425858278868
 20
73.5231803135182105
 30
0.0
 40
0.0136671272496337
 50
328.3275833934476964
 51
356.576367152582975
  0
ARC
  5
8327
  8
0
 10
3884.4924710342838807
 20
73.5234057689014833
 30
0.0
 40
0.0154080552704082
 50
183.8763217917918098
 51
208.7102479377556108
  0
ARC
  5
8328
  8
0
 10
3884.4787354891927862
 20
73.5160177596995794
 30
0.0
 40
0.0212166469249035
 50
335.5382279967795967
 51
1.8048140269143651
  0
ARC
  5
8329
  8
0
 10
3884.4716751779910737
 20
73.5006864353079266
 30
0.0
 40
0.0284680958683285
 50
337.8786027913430985
 51
351.4725007656139155
  0
ARC
  5
832A
  8
0
 10
3884.467923659142798
 20
73.4844484098323534
 30
0.0
 40
0.0323338574194918
 50
338.6943994374198041
 51
350.6567045689625957
  0
ARC
  5
832B
  8
0
 10
3884.5082603339110392
 20
73.4793063614697246
 30
0.0
 40
0.0097014687273203
 50
318.1946332707370857
 51
0.3638112190033771
  0
ARC
  5
832C
  8
0
 10
3884.4908885223239849
 20
73.4629318612183937
 30
0.0
 40
0.0066738228385053
 50
292.9956164259122033
 51
1.284279906973427
  0
ARC
  5
832D
  8
0
 10
3884.2249853221228477
 20
73.4209393522853873
 30
0.0
 40
0.0192499382894166
 50
333.2300237733675203
 51
353.5229692443923
  0
ARC
  5
832E
  8
0
 10
3884.284483131315028
 20
73.419235581130323
 30
0.0
 40
0.0119669768982905
 50
182.2399127401833994
 51
215.3759360777600023
  0
LINE
  5
832F
  8
0
 10
3884.186141329406837
 20
73.4054179845643944
 30
0.0
 11
3884.1722488893929039
 21
73.4124081333619074
 31
0.0
  0
LINE
  5
8330
  8
0
 10
3884.1939468780929019
 20
73.4096397225619199
 30
0.0
 11
3884.1939468780929019
 21
73.4210407908619231
 31
0.0
  0
LINE
  5
8331
  8
0
 10
3884.2204025738928976
 20
73.4210407908619231
 30
0.0
 11
3884.2204043459710192
 21
73.4096397226014119
 31
0.0
  0
LINE
  5
8332
  8
0
 10
3884.2296546541929274
 20
73.4059307513619217
 30
0.0
 11
3884.2421720897928026
 21
73.4122689923619163
 31
0.0
  0
LINE
  5
8333
  8
0
 10
3884.2421720897928026
 20
73.4122689923619163
 30
0.0
 11
3884.223337499463014
 21
73.4210407908619231
 31
0.0
  0
LINE
  5
8334
  8
0
 10
3884.2441123910930401
 20
73.4296738136619069
 30
0.0
 11
3884.2441123910930401
 21
73.4187678650618949
 31
0.0
  0
LINE
  5
8335
  8
0
 10
3884.2725252979930701
 20
73.4296738136619069
 30
0.0
 11
3884.2725252979930701
 21
73.4187678650618949
 31
0.0
  0
LINE
  5
8336
  8
0
 10
3884.2822963823928148
 20
73.4083038079619143
 30
0.0
 11
3884.2747256051698059
 21
73.4123074342211339
 31
0.0
  0
LINE
  5
8337
  8
0
 10
3884.2901144771299187
 20
73.4127383325158007
 30
0.0
 11
3884.2901160966930547
 21
73.4192819187619108
 31
0.0
  0
LINE
  5
8338
  8
0
 10
3884.2933001896240057
 20
73.4210407908619231
 30
0.0
 11
3884.2747256051698059
 21
73.4123074342211339
 31
0.0
  0
LINE
  5
8339
  8
0
 10
3884.2421720897928026
 20
73.4122689923619163
 30
0.0
 11
3884.2747256051698059
 21
73.4123074342211339
 31
0.0
  0
LINE
  5
833A
  8
0
 10
3884.3392358256928674
 20
73.4140013272619143
 30
0.0
 11
3884.3256869738052046
 21
73.4210407907618929
 31
0.0
  0
LINE
  5
833B
  8
0
 10
3884.3463185463861009
 20
73.4188085341478285
 30
0.0
 11
3884.3463185463861009
 21
73.429888849361916
 31
0.0
  0
LINE
  5
833C
  8
0
 10
3884.3916049392869354
 20
73.4222377376133011
 30
0.0
 11
3884.3767875770590763
 21
73.4298888492619142
 31
0.0
  0
LINE
  5
833D
  8
0
 10
3884.3970099085931906
 20
73.4280082769619185
 30
0.0
 11
3884.3970099085931906
 21
73.4387369077619212
 31
0.0
  0
LINE
  5
833E
  8
0
 10
3884.4421367525928872
 20
73.4396880397619185
 30
0.0
 11
3884.4421328768689818
 21
73.4446532325337103
 31
0.0
  0
LINE
  5
833F
  8
0
 10
3884.4364617127930615
 20
73.4338294907619229
 30
0.0
 11
3884.4279308095601664
 21
73.4387369076619194
 31
0.0
  0
ARC
  5
8340
  8
0
 10
3884.4713369227160911
 20
73.4539959893933201
 30
0.0
 40
0.0077525313530585
 50
291.0923528555937878
 51
354.3388029763542022
  0
LINE
  5
8341
  8
0
 10
3884.4975606686930405
 20
73.4630814418619167
 30
0.0
 11
3884.4975625295869577
 21
73.4727671318915441
 31
0.0
  0
LINE
  5
8342
  8
0
 10
3884.4981014366790077
 20
73.4728389275619236
 30
0.0
 11
3884.5154912689931734
 21
73.4728389275619236
 31
0.0
  0
LINE
  5
8343
  8
0
 10
3884.4980476822270248
 20
73.4899661973119152
 30
0.0
 11
3884.521870469471196
 21
73.489961300579651
 31
0.0
  0
LINE
  5
8344
  8
0
 10
3884.517962408243875
 20
73.4899621038748023
 30
0.0
 11
3884.517961607063171
 21
73.4793679625069416
 31
0.0
  0
LINE
  5
8345
  8
0
 10
3884.4998285535930336
 20
73.4899658312569244
 30
0.0
 11
3884.4998285535930336
 21
73.4791990245619218
 31
0.0
  0
LINE
  5
8346
  8
0
 10
3884.5179624045931632
 20
73.4795369162619068
 30
0.0
 11
3884.5228697859211024
 21
73.4856676762738061
 31
0.0
  0
LINE
  5
8347
  8
0
 10
3884.4998285535930336
 20
73.5073710186619138
 30
0.0
 11
3884.4998285535930336
 21
73.496465070061916
 31
0.0
  0
LINE
  5
8348
  8
0
 10
3884.4980476822270248
 20
73.5072322428119094
 30
0.0
 11
3884.5111424145588899
 21
73.5072322428119094
 31
0.0
  0
LINE
  5
8349
  8
0
 10
3884.477098227992883
 20
73.52236413846191
 30
0.0
 11
3884.477098227992883
 21
73.5300687176625729
 31
0.0
  0
LINE
  5
834A
  8
0
 10
3884.4789572413719725
 20
73.5160040415119056
 30
0.0
 11
3884.4923614972940413
 21
73.5216995250619192
 31
0.0
  0
LINE
  5
834B
  8
0
 10
3884.4467528854052034
 20
73.5331313111619238
 30
0.0
 11
3884.4703292632470948
 21
73.5331313111619238
 31
0.0
  0
LINE
  5
834C
  8
0
 10
3884.448685321092853
 20
73.52236413846191
 30
0.0
 11
3884.448685321092853
 21
73.5331313111619238
 31
0.0
  0
LINE
  5
834D
  8
0
 10
3884.448685321092853
 20
73.5414774417365606
 30
0.0
 11
3884.4467528854052034
 21
73.5331313111619238
 31
0.0
  0
LINE
  5
834E
  8
0
 10
3884.445844030392891
 20
73.4989530315619106
 30
0.0
 11
3884.4287962864900692
 21
73.5075860543619228
 31
0.0
  0
LINE
  5
834F
  8
0
 10
3884.3463988560929465
 20
73.5160040414619118
 30
0.0
 11
3884.3463988560929465
 21
73.505098092861914
 31
0.0
  0
LINE
  5
8350
  8
0
 10
3884.3748117629929766
 20
73.5160040414619118
 30
0.0
 11
3884.3748117629929766
 21
73.5047415924469334
 31
0.0
  0
ARC
  5
8351
  8
0
 10
3884.338848139269885
 20
73.5048599220687748
 30
0.0
 40
0.0075544721766776
 50
308.56453906408791
 51
1.8066706142480931
  0
ARC
  5
8352
  8
0
 10
3884.3824920743250004
 20
73.5049198426544308
 30
0.0
 40
0.0076823795328138
 50
178.6704768837518884
 51
230.9583134381566936
  0
ARC
  5
8353
  8
0
 10
3884.2263437307128697
 20
73.5073210198019638
 30
0.0
 40
0.0179439535693138
 50
331.4240020212915852
 51
351.8201824161581044
  0
ARC
  5
8354
  8
0
 10
3884.2773761720918628
 20
73.5038275993306769
 30
0.0
 40
0.0050144923300029
 50
165.3233138903484871
 51
256.4383324182314823
  0
ARC
  5
8355
  8
0
 10
3884.2790790655640194
 20
73.4978659978416715
 30
0.0
 40
0.0162371065252026
 50
331.3976573768219964
 51
355.0504007074143829
  0
ARC
  5
8356
  8
0
 10
3884.3313716565030518
 20
73.4962904377995017
 30
0.0
 40
0.0077051052395334
 50
178.7013093125266039
 51
232.0699733180470048
  0
LINE
  5
8357
  8
0
 10
3884.323668530492796
 20
73.5073710186619138
 30
0.0
 11
3884.323668530492796
 21
73.496465070061916
 31
0.0
  0
LINE
  5
8358
  8
0
 10
3884.2952556235932207
 20
73.5073710186619138
 30
0.0
 11
3884.2952556235932207
 21
73.496465070061916
 31
0.0
  0
LINE
  5
8359
  8
0
 10
3884.2441123910930401
 20
73.5160040414619118
 30
0.0
 11
3884.2441123910930401
 21
73.504767949125366
 31
0.0
  0
LINE
  5
835A
  8
0
 10
3884.2725252979930701
 20
73.5160040414619118
 30
0.0
 11
3884.2725252979930701
 21
73.505098092861914
 31
0.0
  0
LINE
  5
835B
  8
0
 10
3883.9165332481929909
 20
73.5073710186619138
 30
0.0
 11
3883.9352946121011882
 21
73.5159914659106448
 31
0.0
  0
LINE
  5
835C
  8
0
 10
3883.9314475496939849
 20
73.5169098950619144
 30
0.0
 11
3883.9220436490008979
 21
73.5216722187530678
 31
0.0
  0
ENDSEC
  0
EOF
