  0
SECTION
  2
HEADER
  9
$ACADVER
  1
AC1009
  9
$INSBASE
 10
4311.4657706816424252
 20
228.4543478528433127
 30
0.0
  9
$EXTMIN
 10
4307.7362919419911123
 20
224.3312702737659947
 30
-0.0000000000112498
  9
$EXTMAX
 10
4315.2887646718063479
 20
228.4609504270908076
 30
0.0000000000002956
  9
$LIMMIN
 10
0.0
 20
0.0
  9
$LIMMAX
 10
11.6929133858000007
 20
8.2677165353999982
  9
$ORTHOMODE
 70
     0
  9
$REGENMODE
 70
     1
  9
$FILLMODE
 70
     1
  9
$QTEXTMODE
 70
     0
  9
$MIRRTEXT
 70
     0
  9
$DRAGMODE
 70
     2
  9
$LTSCALE
 40
0.6431102362
  9
$OSMODE
 70
   695
  9
$ATTMODE
 70
     1
  9
$TEXTSIZE
 40
0.2
  9
$TRACEWID
 40
0.05
  9
$TEXTSTYLE
  7
STANDARD
  9
$CLAYER
  8
0
  9
$CELTYPE
  6
BYLAYER
  9
$CECOLOR
 62
   256
  9
$DIMSCALE
 40
1.0
  9
$DIMASZ
 40
0.1875
  9
$DIMEXO
 40
0.0625
  9
$DIMDLI
 40
0.4443307087
  9
$DIMRND
 40
0.0
  9
$DIMDLE
 40
0.0
  9
$DIMEXE
 40
0.125
  9
$DIMTP
 40
0.01
  9
$DIMTM
 40
0.01
  9
$DIMTXT
 40
2.0
  9
$DIMCEN
 40
0.1052362205
  9
$DIMTSZ
 40
0.0
  9
$DIMTOL
 70
     1
  9
$DIMLIM
 70
     0
  9
$DIMTIH
 70
     1
  9
$DIMTOH
 70
     1
  9
$DIMSE1
 70
     0
  9
$DIMSE2
 70
     0
  9
$DIMTAD
 70
     0
  9
$DIMZIN
 70
     0
  9
$DIMBLK
  1

  9
$DIMASO
 70
     1
  9
$DIMSHO
 70
     1
  9
$DIMPOST
  1
\X
  9
$DIMAPOST
  1

  9
$DIMALT
 70
     1
  9
$DIMALTD
 70
     2
  9
$DIMALTF
 40
25.3999999999999986
  9
$DIMLFAC
 40
1.0
  9
$DIMTOFL
 70
     0
  9
$DIMTVP
 40
0.0
  9
$DIMTIX
 70
     0
  9
$DIMSOXD
 70
     0
  9
$DIMSAH
 70
     0
  9
$DIMBLK1
  1

  9
$DIMBLK2
  1

  9
$DIMSTYLE
  2
STANDARD
  9
$DIMCLRD
 70
     0
  9
$DIMCLRE
 70
     0
  9
$DIMCLRT
 70
     0
  9
$DIMTFAC
 40
1.0
  9
$DIMGAP
 40
0.09
  9
$LUNITS
 70
     2
  9
$LUPREC
 70
     4
  9
$SKETCHINC
 40
0.1
  9
$FILLETRAD
 40
0.0
  9
$AUNITS
 70
     0
  9
$AUPREC
 70
     0
  9
$MENU
  1
.
  9
$ELEVATION
 40
0.0
  9
$PELEVATION
 40
0.0
  9
$THICKNESS
 40
0.0
  9
$LIMCHECK
 70
     0
  9
$BLIPMODE
 70
     0
  9
$CHAMFERA
 40
0.0
  9
$CHAMFERB
 40
0.0
  9
$SKPOLY
 70
     0
  9
$TDCREATE
 40
2458060.468368056230247
  9
$TDUPDATE
 40
2459345.6597569440491498
  9
$TDINDWG
 40
0.6511644676
  9
$TDUSRTIMER
 40
0.6511644676
  9
$USRTIMER
 70
     1
  9
$ANGBASE
 50
0.0
  9
$ANGDIR
 70
     0
  9
$PDMODE
 70
     0
  9
$PDSIZE
 40
0.3125
  9
$PLINEWID
 40
0.0
  9
$COORDS
 70
     1
  9
$SPLFRAME
 70
     0
  9
$SPLINETYPE
 70
     6
  9
$SPLINESEGS
 70
     8
  9
$ATTDIA
 70
     1
  9
$ATTREQ
 70
     1
  9
$HANDLING
 70
     1
  9
$HANDSEED
  5
1394D
  9
$SURFTAB1
 70
     6
  9
$SURFTAB2
 70
     6
  9
$SURFTYPE
 70
     6
  9
$SURFU
 70
     6
  9
$SURFV
 70
     6
  9
$UCSNAME
  2

  9
$UCSORG
 10
0.0
 20
0.0
 30
0.0
  9
$UCSXDIR
 10
1.0
 20
0.0
 30
0.0
  9
$UCSYDIR
 10
0.0
 20
1.0
 30
0.0
  9
$PUCSNAME
  2

  9
$PUCSORG
 10
0.0
 20
0.0
 30
0.0
  9
$PUCSXDIR
 10
1.0
 20
0.0
 30
0.0
  9
$PUCSYDIR
 10
0.0
 20
1.0
 30
0.0
  9
$USERI1
 70
     0
  9
$USERI2
 70
     0
  9
$USERI3
 70
     0
  9
$USERI4
 70
     0
  9
$USERI5
 70
     0
  9
$USERR1
 40
0.0
  9
$USERR2
 40
0.0
  9
$USERR3
 40
0.0
  9
$USERR4
 40
0.0
  9
$USERR5
 40
0.0
  9
$WORLDVIEW
 70
     1
  9
$SHADEDGE
 70
     3
  9
$SHADEDIF
 70
    70
  9
$TILEMODE
 70
     1
  9
$MAXACTVP
 70
    64
  9
$PLIMCHECK
 70
     0
  9
$PEXTMIN
 10
1.0000000000000000E+20
 20
1.0000000000000000E+20
 30
1.0000000000000000E+20
  9
$PEXTMAX
 10
-1.0000000000000000E+20
 20
-1.0000000000000000E+20
 30
-1.0000000000000000E+20
  9
$PLIMMIN
 10
0.0
 20
0.0
  9
$PLIMMAX
 10
12.0
 20
9.0
  9
$UNITMODE
 70
     0
  9
$VISRETAIN
 70
     1
  9
$PLINEGEN
 70
     0
  9
$PSLTSCALE
 70
     1
  0
ENDSEC
  0
SECTION
  2
TABLES
  0
TABLE
  2
VPORT
 70
     1
  0
VPORT
  2
*ACTIVE
 70
     0
 10
0.0
 20
0.0
 11
1.0
 21
1.0
 12
149.956131817372011
 22
0.2852781344405777
 13
0.0
 23
0.0
 14
1.0
 24
1.0
 15
0.0
 25
0.0
 16
0.0
 26
0.0
 36
202.37134017897489
 17
4161.556396484375
 27
226.1108322143554972
 37
0.0
 40
5.9596209956339941
 41
2.404287901990811
 42
50.0
 43
0.0
 44
0.0
 50
0.0
 51
0.0
 71
     0
 72
   100
 73
     1
 74
     1
 75
     0
 76
     0
 77
     0
 78
     0
  0
ENDTAB
  0
TABLE
  2
LTYPE
 70
     2
  0
LTYPE
  2
CONTINUOUS
 70
     0
  3
Solid line
 72
    65
 73
     0
 40
0.0
  0
LTYPE
  2
PHANTOM2
 70
     0
  3
___ _ _ ___ _ _ ___ _ _ ___ _ _
 72
    65
 73
     6
 40
1.25
 49
0.625
 49
-0.125
 49
0.125
 49
-0.125
 49
0.125
 49
-0.125
  0
ENDTAB
  0
TABLE
  2
LAYER
 70
     2
  0
LAYER
  2
0
 70
     0
 62
   255
  6
CONTINUOUS
  0
LAYER
  2
DEFPOINTS
 70
     0
 62
     7
  6
CONTINUOUS
  0
ENDTAB
  0
TABLE
  2
STYLE
 70
     1
  0
STYLE
  2
STANDARD
 70
     0
 40
0.0
 41
0.8
 50
0.0
 71
     0
 42
0.2
  3
txt
  4

  0
ENDTAB
  0
TABLE
  2
VIEW
 70
     0
  0
ENDTAB
  0
TABLE
  2
UCS
 70
     0
  0
ENDTAB
  0
TABLE
  2
APPID
 70
     9
  0
APPID
  2
ACAD
 70
     0
  0
APPID
  2
ACAD_MLEADERVER
 70
     0
  0
APPID
  2
ACAD_EXEMPT_FROM_CAD_STANDARDS
 70
     0
  0
APPID
  2
ACAD_NAV_VCDISPLAY
 70
     0
  0
APPID
  2
ACAECLAYERSTANDARD
 70
     0
  0
APPID
  2
ACCMTRANSPARENCY
 70
     0
  0
APPID
  2
ACAD_DSTYLE_DIMJAG
 70
     0
  0
APPID
  2
ACAD_DSTYLE_DIMTALN
 70
     0
  0
APPID
  2
ACDBATTR
 70
     0
  0
ENDTAB
  0
TABLE
  2
DIMSTYLE
 70
     1
  0
DIMSTYLE
  2
STANDARD
 70
     0
  3

  4

  5

  6

  7

 40
1.0
 41
0.1875
 42
0.0625
 43
0.38
 44
0.125
 45
0.0
 46
0.0
 47
0.01
 48
0.01
140
0.15625
141
0.09
142
0.0
143
25.3999999999999986
144
1.0
145
0.0
146
1.0
147
0.09
 71
     1
 72
     0
 73
     1
 74
     1
 75
     0
 76
     0
 77
     0
 78
     4
170
     0
171
     2
172
     0
173
     0
174
     0
175
     0
176
     0
177
     0
178
     0
  0
ENDTAB
  0
ENDSEC
  0
SECTION
  2
BLOCKS
  0
BLOCK
  8
0
  2
$MODEL_SPACE
 70
     0
 10
0.0
 20
0.0
 30
0.0
  3
$MODEL_SPACE
  1

  0
ENDBLK
  5
21
  8
0
  0
BLOCK
 67
     1
  8
0
  2
$PAPER_SPACE
 70
     0
 10
0.0
 20
0.0
 30
0.0
  3
$PAPER_SPACE
  1

  0
ENDBLK
  5
1D
 67
     1
  8
0
  0
ENDSEC
  0
SECTION
  2
ENTITIES
  0
ATTDEF
  5
12CA7
  8
DEFPOINTS
 10
4311.4659335713540713
 20
228.4578058035673962
 30
0.0
 40
0.001
  1
K-8146T-4
  3

  2
MODELNUMBER
 70
     0
1001
ACDBATTR
1070
     0
1070
     1
  0
ATTDEF
  5
12CA8
  8
DEFPOINTS
 10
4311.4659335713540713
 20
228.4561391369007026
 30
0.0
 40
0.001
  1
ARCHER
  3

  2
TRADENAME
 70
     0
1001
ACDBATTR
1070
     0
1070
     1
  0
ATTDEF
  5
12CA9
  8
DEFPOINTS
 10
4311.4659335713540713
 20
228.4544724702340943
 30
0.0
 40
0.001
  1
SHOWER TRIM
  3

  2
PRODUCT
 70
     0
1001
ACDBATTR
1070
     0
1070
     1
  0
LINE
  5
13705
  8
0
 10
4307.8043533587906495
 20
228.3362376166433023
 30
0.0
 11
4307.7940200520906728
 21
228.4543478528433127
 31
0.0
  0
LINE
  5
13706
  8
0
 10
4308.5390867956912189
 20
227.6480858250432959
 30
0.0
 11
4308.5541156002918797
 21
227.5628532385433118
 31
0.0
  0
LINE
  5
13707
  8
0
 10
4311.1764006028906806
 20
224.340174624443307
 30
0.0
 11
4311.7551407603914413
 21
224.340174624443307
 31
0.0
  0
LINE
  5
13708
  8
0
 10
4311.0069983818902983
 20
224.4189147819433003
 30
0.0
 11
4311.1080630782907974
 21
224.4189147819433003
 31
0.0
  0
LINE
  5
13709
  8
0
 10
4311.8234758859916838
 20
224.4189147819433003
 30
0.0
 11
4311.9245486574918687
 21
224.4189147819433003
 31
0.0
  0
LINE
  5
1370A
  8
0
 10
4311.1080630782907974
 20
224.4189147819433003
 30
0.0
 11
4311.8234758859916838
 21
224.4189147819433003
 31
0.0
  0
LINE
  5
1370B
  8
0
 10
4311.8989952976908171
 20
224.5024313309432955
 30
0.0
 11
4311.9999146589916563
 21
224.5024313309432955
 31
0.0
  0
LINE
  5
1370C
  8
0
 10
4310.9791505933917506
 20
224.4304460110433013
 30
0.0
 11
4310.9489235479913987
 21
224.4606730564433121
 31
0.0
  0
LINE
  5
1370D
  8
0
 10
4311.0802237044918002
 20
224.4304460110433013
 30
0.0
 11
4311.0499966590914482
 21
224.4606730564433121
 31
0.0
  0
LINE
  5
1370E
  8
0
 10
4310.4402959207909589
 20
226.3894763658433078
 30
0.0
 11
4310.3629933881911711
 21
225.6539918974432908
 31
0.0
  0
LINE
  5
1370F
  8
0
 10
4310.5012037524911648
 20
226.5960801362433017
 30
0.0
 11
4310.5012037524911648
 21
227.4490465677359055
 31
0.0
  0
LINE
  5
13710
  8
0
 10
4310.9534948589907799
 20
225.3639939671433012
 30
0.0
 11
4310.3938960651921661
 21
225.6015295623433019
 31
0.0
  0
LINE
  5
13711
  8
0
 10
4310.9316267043914195
 20
224.5024313309432955
 30
0.0
 11
4310.9316267043914195
 21
224.8549485301433037
 31
0.0
  0
LINE
  5
13712
  8
0
 10
4310.9534948589907799
 20
225.3639939671433012
 30
0.0
 11
4311.978046504291342
 21
225.3639939671433012
 31
0.0
  0
LINE
  5
13713
  8
0
 10
4311.0326998154905596
 20
224.5024313309432955
 30
0.0
 11
4311.0326998154905596
 21
225.0331872398433006
 31
0.0
  0
LINE
  5
13714
  8
0
 10
4311.0720698942914169
 20
225.218122932643297
 30
0.0
 11
4311.0720698942914169
 21
225.107886712143312
 31
0.0
  0
LINE
  5
13715
  8
0
 10
4311.1252195005909016
 20
224.4089147819433094
 30
0.0
 11
4311.1252195005909016
 21
224.391355726843301
 31
0.0
  0
LINE
  5
13716
  8
0
 10
4312.537645298391908
 20
225.6015295624432895
 30
0.0
 11
4310.3938960649911678
 21
225.6015295624432895
 31
0.0
  0
LINE
  5
13717
  8
0
 10
4312.491245442491163
 20
226.3894763658433078
 30
0.0
 11
4312.4905484570417684
 21
226.3894763658433078
 31
0.0
  0
LINE
  5
13718
  8
0
 10
4310.4409929061912408
 20
226.3894763658433078
 30
0.0
 11
4310.4402959207909589
 21
226.3894763658433078
 31
0.0
  0
LINE
  5
13719
  8
0
 10
4311.8063218627921742
 20
224.4089147819433094
 30
0.0
 11
4311.8063218627921742
 21
224.391355726843301
 31
0.0
  0
LINE
  5
1371A
  8
0
 10
4311.8594714690907495
 20
225.218122932643297
 30
0.0
 11
4311.8594714690907495
 21
225.107886712143312
 31
0.0
  0
LINE
  5
1371B
  8
0
 10
4311.8988415477906528
 20
224.5024313309432955
 30
0.0
 11
4311.8988415477906528
 21
225.0331872398433006
 31
0.0
  0
LINE
  5
1371C
  8
0
 10
4311.9999146589916563
 20
224.5024313309432955
 30
0.0
 11
4311.9999146589916563
 21
224.8549494869432976
 31
0.0
  0
LINE
  5
1371D
  8
0
 10
4310.9799055142912039
 20
224.9197034290432953
 30
0.0
 11
4310.9438140310912786
 21
224.8839266671432995
 31
0.0
  0
LINE
  5
1371E
  8
0
 10
4310.9438140310912786
 20
224.8839266671432995
 30
0.0
 11
4310.9438140310912786
 21
224.8839266671432995
 31
0.0
  0
LINE
  5
1371F
  8
0
 10
4310.4598731234918887
 20
226.407103758343311
 30
0.0
 11
4310.5608855101008885
 21
226.407103758343311
 31
0.0
  0
LINE
  5
13720
  8
0
 10
4312.3706558531821429
 20
226.407103758343311
 30
0.0
 11
4312.4716682397911427
 21
226.407103758343311
 31
0.0
  0
LINE
  5
13721
  8
0
 10
4310.5012120263918405
 20
226.466158876443302
 30
0.0
 11
4312.4303293368911909
 21
226.466158876443302
 31
0.0
  0
LINE
  5
13722
  8
0
 10
4312.4303293368911909
 20
226.5842691126433124
 30
0.0
 11
4310.5012120263918405
 21
226.5842691126433124
 31
0.0
  0
LINE
  5
13723
  8
0
 10
4314.3036060106924197
 20
227.4978742912433063
 30
0.0
 11
4308.6279353525924307
 21
227.4978742912433063
 31
0.0
  0
LINE
  5
13724
  8
0
 10
4312.491245442491163
 20
226.3894763658433078
 30
0.0
 11
4312.5685479750918603
 21
225.6539918974432908
 31
0.0
  0
LINE
  5
13725
  8
0
 10
4312.4303376107909571
 20
226.5960801362433017
 30
0.0
 11
4312.4303376107909571
 21
227.4490465676026076
 31
0.0
  0
LINE
  5
13726
  8
0
 10
4311.978046504291342
 20
225.3639939671433012
 30
0.0
 11
4312.5376452980917747
 21
225.6015295623433019
 31
0.0
  0
LINE
  5
13727
  8
0
 10
4308.2897743680905478
 20
227.7456864355432913
 30
0.0
 11
4314.6417294719922211
 21
227.7456864355432913
 31
0.0
  0
LINE
  5
13728
  8
0
 10
4311.8513176587912312
 20
224.4304460110433013
 30
0.0
 11
4311.8815447041906737
 21
224.4606730564433121
 31
0.0
  0
LINE
  5
13729
  8
0
 10
4311.9523907698912808
 20
224.4304460110433013
 30
0.0
 11
4311.9826178152907232
 21
224.4606730564433121
 31
0.0
  0
LINE
  5
1372A
  8
0
 10
4307.9421486343908327
 20
228.1484543092433057
 30
0.0
 11
4314.9893927288912892
 21
228.1484543092433057
 31
0.0
  0
LINE
  5
1372B
  8
0
 10
4315.1375213111914491
 20
228.4543478528433127
 30
0.0
 11
4307.7940200520906728
 21
228.4543478528433127
 31
0.0
  0
LINE
  5
1372C
  8
0
 10
4314.3924545675918125
 20
227.6480858250432959
 30
0.0
 11
4314.3774257629911517
 21
227.5628532385433118
 31
0.0
  0
LINE
  5
1372D
  8
0
 10
4315.1271880044905629
 20
228.3362376166433023
 30
0.0
 11
4315.1375213111914491
 21
228.4543478528433127
 31
0.0
  0
ARC
  5
1372E
  8
0
 10
4311.1903024713910781
 20
226.449159484343312
 30
0.0
 40
1.1811023622000001
 50
350.2124885386916162
 51
358.9497345593998148
  0
ARC
  5
1372F
  8
0
 10
4307.6442352485910305
 20
227.6477060870433036
 30
0.0
 40
0.5905511811000002
 50
15.3099901860063596
 51
52.6487279340024799
  0
ARC
  5
13730
  8
0
 10
4308.0012037524911648
 20
228.3362376166433023
 30
0.0
 40
0.1968503937
 50
180.0
 51
252.5423968763196001
  0
ARC
  5
13731
  8
0
 10
4307.8830935162914102
 20
227.9606710019432967
 30
0.0
 40
0.1968503937
 50
52.6487279340024799
 51
72.5423968763196001
  0
ARC
  5
13732
  8
0
 10
4310.9026998155286492
 20
225.244328334864889
 30
0.0
 40
0.1299999999571865
 50
17.1466058128331014
 51
67.0000015441095655
  0
ARC
  5
13733
  8
0
 10
4308.4227709190918176
 20
227.6275761993433093
 30
0.0
 40
0.1181102362
 50
9.9999992508036293
 51
90.0
  0
ARC
  5
13734
  8
0
 10
4308.6316595168909771
 20
227.5765263287433129
 30
0.0
 40
0.0787401575
 50
190.0000039606950963
 51
267.2890766529798725
  0
ARC
  5
13735
  8
0
 10
4308.2897743710918803
 20
227.824426593043313
 30
0.0
 40
0.0787401575
 50
195.3099895928961018
 51
269.9999978275774879
  0
ARC
  5
13736
  8
0
 10
4310.5012037530714224
 20
226.525213994543293
 30
0.0
 40
0.0590551186795266
 50
89.99197315391757
 51
270.0080268460823731
  0
ARC
  5
13737
  8
0
 10
4311.0917549335908916
 20
224.5024313309432955
 30
0.0
 40
0.0590551181
 50
180.0
 51
224.9999999999953957
  0
ARC
  5
13738
  8
0
 10
4310.9906818224917515
 20
224.5024313309432955
 30
0.0
 40
0.0590551181
 50
180.0
 51
224.9999999999953957
  0
ARC
  5
13739
  8
0
 10
4311.1764006028906806
 20
224.391355726843301
 30
0.0
 40
0.0511811024
 50
180.0
 51
270.0
  0
ARC
  5
1373A
  8
0
 10
4310.4138941150913524
 20
225.6486420154433006
 30
0.0
 40
0.0511811024
 50
174.0000001169011909
 51
246.9999996431861007
  0
ARC
  5
1373B
  8
0
 10
4311.07582805498987
 20
225.2977437293108096
 30
0.0
 40
0.0511811018788862
 50
197.1466056511488887
 51
241.5569117711696947
  0
ARC
  5
1373C
  8
0
 10
4311.0838809177939766
 20
225.0331872398672886
 30
0.0
 40
0.0511811023028319
 50
124.4173776847686952
 51
180.0000000269066902
  0
ARC
  5
1373D
  8
0
 10
4310.5209714902830456
 20
226.4267887977217129
 30
0.0
 40
0.0393700787216014
 50
1.050206637021736
 51
89.9999999871287741
  0
ARC
  5
1373E
  8
0
 10
4311.0326998154905596
 20
225.218122932643297
 30
0.0
 40
0.0393700787
 50
0.0
 51
61.5568847685780014
  0
ARC
  5
1373F
  8
0
 10
4311.0326998154905596
 20
225.107886712143312
 30
0.0
 40
0.0393700787
 50
304.4174030220185045
 51
0.0
  0
ARC
  5
13740
  8
0
 10
4311.0069894467642371
 20
224.45828486628929
 30
0.0
 40
0.0393700853599695
 50
225.00000192813431
 51
270.013003403278617
  0
ARC
  5
13741
  8
0
 10
4311.1080625542035705
 20
224.458284860662701
 30
0.0
 40
0.039370078722891
 50
225.0000000068328916
 51
270.0007627105890151
  0
ARC
  5
13742
  8
0
 10
4310.5130147760910404
 20
226.5960801362433017
 30
0.0
 40
0.0118110236
 50
180.0
 51
270.0
  0
ARC
  5
13743
  8
0
 10
4311.1352195005911199
 20
224.4089147819433094
 30
0.0
 40
0.01
 50
90.0
 51
180.0
  0
ARC
  5
13744
  8
0
 10
4311.7412388918919532
 20
226.449159484343312
 30
0.0
 40
1.1811023622000001
 50
181.0502654406002137
 51
189.7875114613067922
  0
ARC
  5
13745
  8
0
 10
4315.2873061146910914
 20
227.6477060870433036
 30
0.0
 40
0.5905511811000002
 50
127.3512720659975059
 51
164.6900098139936119
  0
ARC
  5
13746
  8
0
 10
4315.0484478469916212
 20
227.9606710019432967
 30
0.0
 40
0.1968503937
 50
107.4576031236803999
 51
127.3512720659975059
  0
ARC
  5
13747
  8
0
 10
4314.9303376107918666
 20
228.3362376166433023
 30
0.0
 40
0.1968503937
 50
287.4576031236804283
 51
0.0
  0
ARC
  5
13748
  8
0
 10
4312.0288415476270529
 20
225.2443283350424963
 30
0.0
 40
0.1299999997443589
 50
112.9999984351213982
 51
162.8533979765392985
  0
ARC
  5
13749
  8
0
 10
4314.5087704442912582
 20
227.6275761993433093
 30
0.0
 40
0.1181102362
 50
90.0
 51
170.000000749196289
  0
ARC
  5
1374A
  8
0
 10
4314.2998818463911448
 20
227.5765263287433129
 30
0.0
 40
0.0787401575
 50
272.7109233470201275
 51
349.9999960393031984
  0
ARC
  5
1374B
  8
0
 10
4314.6417669731272326
 20
227.824426605893791
 30
0.0
 40
0.0787401792807493
 50
269.972712065101291
 51
344.6900050510250821
  0
ARC
  5
1374C
  8
0
 10
4312.4303376102106995
 20
226.525213994543293
 30
0.0
 40
0.0590551186795248
 50
269.9919731539176269
 51
90.0080268460824442
  0
ARC
  5
1374D
  8
0
 10
4311.8397864296921398
 20
224.5024313309432955
 30
0.0
 40
0.0590551181
 50
315.0000000000046043
 51
0.0
  0
ARC
  5
1374E
  8
0
 10
4311.9408595407912799
 20
224.5024313309432955
 30
0.0
 40
0.0590551181
 50
315.0000000000046043
 51
0.0
  0
ARC
  5
1374F
  8
0
 10
4311.7551407603914413
 20
224.391355726843301
 30
0.0
 40
0.0511811024
 50
270.0
 51
0.0
  0
ARC
  5
13750
  8
0
 10
4311.8557133078793413
 20
225.2977437296497953
 30
0.0
 40
0.0511811024134914
 50
298.4430884161611743
 51
342.8533846458350922
  0
ARC
  5
13751
  8
0
 10
4312.5176472481907695
 20
225.6486420154433006
 30
0.0
 40
0.0511811024
 50
293.0000003568138141
 51
5.9999998830987753
  0
ARC
  5
13752
  8
0
 10
4311.8476604454890548
 20
225.0331872398672886
 30
0.0
 40
0.0511811023028308
 50
359.9999999730899845
 51
55.5826223152303811
  0
ARC
  5
13753
  8
0
 10
4312.4105698729999858
 20
226.4267887977217129
 30
0.0
 40
0.0393700787215998
 50
90.0000000128712259
 51
178.9497933629749866
  0
ARC
  5
13754
  8
0
 10
4311.8988415477906528
 20
225.218122932643297
 30
0.0
 40
0.0393700787
 50
118.4431152314219986
 51
180.0
  0
ARC
  5
13755
  8
0
 10
4311.8988415477906528
 20
225.107886712143312
 30
0.0
 40
0.0393700787
 50
180.0
 51
235.5825969779814955
  0
ARC
  5
13756
  8
0
 10
4311.8234788086865592
 20
224.4582848612473072
 30
0.0
 40
0.0393700794125668
 50
269.9957465626396242
 51
314.9999997935240117
  0
ARC
  5
13757
  8
0
 10
4311.9245519197884278
 20
224.4582848613958959
 30
0.0
 40
0.0393700795877865
 50
269.9952523373366944
 51
314.9999997428092229
  0
ARC
  5
13758
  8
0
 10
4312.4730477684906873
 20
226.3890336681432984
 30
0.0
 40
0.0175062869
 50
1.4490459340009341
 51
18.7756130149002196
  0
ARC
  5
13759
  8
0
 10
4312.418526587191991
 20
226.5960801362433017
 30
0.0
 40
0.0118110236
 50
270.0
 51
0.0
  0
ARC
  5
1375A
  8
0
 10
4311.7963218627919559
 20
224.4089147819433094
 30
0.0
 40
0.01
 50
0.0
 51
90.0
  0
ARC
  5
1375B
  8
0
 10
4311.4657706816906284
 20
287.4307258056433056
 30
0.0
 40
60.0
 50
270.9211332476572807
 51
272.7109445072791232
  0
ARC
  5
1375C
  8
0
 10
4311.4657706816906284
 20
287.4307258056433056
 30
0.0
 40
60.0
 50
267.28905549272082
 51
269.0788667522385254
  0
ARC
  5
1375D
  8
0
 10
4311.959127151400935
 20
224.8548458850276859
 30
0.0
 40
0.0407876391671526
 50
0.145533279554109
 51
45.474167219071937
  0
ARC
  5
1375E
  8
0
 10
4311.9019849550213621
 20
224.8569524428548903
 30
0.0
 40
0.080018993669043
 50
51.6493721954836786
 51
92.2513445058041839
  0
LINE
  5
1375F
  8
0
 10
4311.9877286991913934
 20
224.8839247944432884
 30
0.0
 11
4311.9516345188912965
 21
224.9197056113432893
 31
0.0
  0
ARC
  5
13760
  8
0
 10
4310.9756189690770043
 20
224.8534985948363101
 30
0.0
 40
0.0440161523155245
 50
136.2674258267967105
 51
178.1122792227162108
  0
ARC
  5
13761
  8
0
 10
4311.0189517818089371
 20
224.8764644837704054
 30
0.0
 40
0.0582599124213582
 50
100.7573571913411001
 51
132.0831311482762089
  0
ARC
  5
13762
  8
0
 10
4311.0431710288221439
 20
224.7701098817196907
 30
0.0
 40
0.1673124692592871
 50
93.5881885058392413
 51
102.1075900081358014
  0
ARC
  5
13763
  8
0
 10
4312.2484544478129465
 20
226.4078133257644936
 30
0.0
 40
0.1818845470645997
 50
336.413076108438986
 51
359.7764773187387846
  0
ARC
  5
13764
  8
0
 10
4312.1629877733039393
 20
226.4475815444095872
 30
0.0
 40
0.2761328231663953
 50
313.8295137110562791
 51
335.9468079846275259
  0
ARC
  5
13765
  8
0
 10
4310.9889842606071397
 20
226.6832297491120869
 30
0.0
 40
0.5987963265936878
 50
226.5695344793934112
 51
245.2096967746720111
  0
ARC
  5
13766
  8
0
 10
4311.4011934028976611
 20
227.5438504415060947
 30
0.0
 40
1.5530056663396179
 50
244.7165534432427023
 51
261.8723485254599836
  0
ARC
  5
13767
  8
0
 10
4311.465288765234618
 20
227.958355869816188
 30
0.0
 40
1.9724153121298851
 50
261.7314864484432064
 51
279.5657790883036
  0
ARC
  5
13768
  8
0
 10
4311.5332352871382682
 20
227.5270376154838914
 30
0.0
 40
1.53581011069048
 50
279.7401736783660908
 51
296.9672401312926127
  0
ARC
  5
13769
  8
0
 10
4311.9734306008158455
 20
226.6432265429010897
 30
0.0
 40
0.5485444376249733
 50
297.8509700030865019
 51
313.9611378846879006
  0
ARC
  5
1376A
  8
0
 10
4310.7699406349202036
 20
226.4484788778331961
 30
0.0
 40
0.2777409708395999
 50
203.8489266401876137
 51
226.0922597737715876
  0
ARC
  5
1376B
  8
0
 10
4310.6832894041626787
 20
226.4078850154326119
 30
0.0
 40
0.182087327695748
 50
180.2458318864935052
 51
203.1905283363608987
  0
ARC
  5
1376C
  8
0
 10
4310.4594751613067274
 20
226.3886052667110107
 30
0.0
 40
0.0185027718617374
 50
88.7675731977988249
 51
177.3015524356445951
  0
ARC
  5
1376D
  8
0
 10
4310.6636333538472172
 20
226.3836155381962101
 30
0.0
 40
0.2227175750084258
 50
178.4920837220437875
 51
190.6378353213324885
  0
ARC
  5
1376E
  8
0
 10
4310.7375509251496624
 20
226.4049511770917888
 30
0.0
 40
0.2993929313587834
 50
192.039543507209288
 51
223.7732805008600963
  0
ARC
  5
1376F
  8
0
 10
4311.0554553815645704
 20
226.7287753871277118
 30
0.0
 40
0.7530982877654993
 50
224.8308202480654927
 51
249.1626955235113883
  0
ARC
  5
13770
  8
0
 10
4311.4432825806516121
 20
227.7581591828704859
 30
0.0
 40
1.8531143564924519
 50
249.2773027345641879
 51
270.6953186137790794
  0
ARC
  5
13771
  8
0
 10
4311.4741634864712978
 20
227.9337287215876984
 30
0.0
 40
2.0285648021436571
 50
269.7629488278959116
 51
282.7958529170755924
  0
ARC
  5
13772
  8
0
 10
4311.6853701196496331
 20
227.0916600033473003
 30
0.0
 40
1.1607940880576479
 50
281.8351917942629825
 51
303.575942321295372
  0
ARC
  5
13773
  8
0
 10
4312.0867479074795483
 20
226.4799980288360928
 30
0.0
 40
0.4292244785060812
 50
304.0919156299688098
 51
331.4560232254299876
  0
ARC
  5
13774
  8
0
 10
4312.2524662981495567
 20
226.3846470008560061
 30
0.0
 40
0.2381311344697456
 50
332.5569666882490765
 51
1.162053853575824
  0
ARC
  5
13775
  8
0
 10
4312.4720694805973835
 20
226.3885042285151883
 30
0.0
 40
0.0186038572347482
 50
19.3496682132131887
 51
91.235829062049234
  0
ARC
  5
13776
  8
0
 10
4310.5041256762551711
 20
227.5707911810252142
 30
0.0
 40
0.1269733573537144
 50
255.1931496202759888
 51
268.6813873192676283
  0
ARC
  5
13777
  8
0
 10
4312.4274163490536012
 20
227.5707865491800987
 30
0.0
 40
0.1269687102285873
 50
271.3183621268266279
 51
284.80709570805368
  0
ARC
  5
13778
  8
0
 10
4311.4657706796670027
 20
198.8832056180818881
 30
0.0
 40
28.582121308921959
 50
88.0068341474648435
 51
91.9931658466431372
  0
LINE
  5
13779
  8
0
 10
4310.9316267043914195
 20
224.5024313309432955
 30
0.0
 11
4311.0326998154905596
 21
224.5024313309432955
 31
0.0
  0
LINE
  5
1377B
  8
0
 10
4311.0720698942914169
 20
225.107886712143312
 30
0.0
 11
4311.8594714690907495
 21
225.107886712143312
 31
0.0
  0
LINE
  5
1377C
  8
0
 10
4311.0720698942914169
 20
225.218122932643297
 30
0.0
 11
4311.8594714690907495
 21
225.218122932643297
 31
0.0
  0
LINE
  5
1377D
  8
0
 10
4311.0326998154905596
 20
225.0331872435432956
 30
0.0
 11
4311.8988415477906528
 21
225.0331872396365043
 31
0.0
  0
LINE
  5
1377E
  8
0
 10
4311.0269029197306736
 20
225.2827156881915016
 30
0.0
 11
4311.9046195878827348
 21
225.2826546269432981
 31
0.0
  0
LINE
  5
1377F
  8
0
 10
4311.0326998154905596
 20
224.7676067496570909
 30
0.0
 11
4310.9316267043914195
 21
224.854947920143303
 31
0.0
  0
LINE
  5
13780
  8
0
 10
4311.0326998154905596
 20
224.9061965177423019
 30
0.0
 11
4311.0023509471311627
 21
224.9322406736538085
 31
0.0
  0
LINE
  5
13781
  8
0
 10
4311.8988415477906528
 20
224.9062052878043119
 30
0.0
 11
4311.9292406898075569
 21
224.9321865060778975
 31
0.0
  0
LINE
  5
13782
  8
0
 10
4311.8988415477906528
 20
224.7677426147656945
 30
0.0
 11
4311.999914658790658
 21
224.8549474784433073
 31
0.0
  0
ENDSEC
  0
EOF
