  0
SECTION
  2
HEADER
  9
$ACADVER
  1
AC1009
  9
$INSBASE
 10
315.7019320827333786
 20
16.4249863080250194
 30
0.0
  9
$EXTMIN
 10
308.3790878168919107
 20
13.6425354079034502
 30
0.0
  9
$EXTMAX
 10
319.9085263949024807
 20
17.8817574434943189
 30
0.0
  9
$LIMMIN
 10
0.0
 20
0.0
  9
$LIMMAX
 10
11.6929133858000007
 20
8.2677165353999982
  9
$ORTHOMODE
 70
     0
  9
$REGENMODE
 70
     1
  9
$FILLMODE
 70
     1
  9
$QTEXTMODE
 70
     0
  9
$MIRRTEXT
 70
     0
  9
$DRAGMODE
 70
     2
  9
$LTSCALE
 40
0.6431102362
  9
$OSMODE
 70
  4095
  9
$ATTMODE
 70
     1
  9
$TEXTSIZE
 40
0.2
  9
$TRACEWID
 40
0.05
  9
$TEXTSTYLE
  7
STANDARD
  9
$CLAYER
  8
0
  9
$CELTYPE
  6
BYLAYER
  9
$CECOLOR
 62
   256
  9
$DIMSCALE
 40
1.0
  9
$DIMASZ
 40
0.1875
  9
$DIMEXO
 40
0.0625
  9
$DIMDLI
 40
0.4443307087
  9
$DIMRND
 40
0.0
  9
$DIMDLE
 40
0.0
  9
$DIMEXE
 40
0.125
  9
$DIMTP
 40
0.01
  9
$DIMTM
 40
0.01
  9
$DIMTXT
 40
1.0
  9
$DIMCEN
 40
0.1052362205
  9
$DIMTSZ
 40
0.0
  9
$DIMTOL
 70
     1
  9
$DIMLIM
 70
     0
  9
$DIMTIH
 70
     0
  9
$DIMTOH
 70
     1
  9
$DIMSE1
 70
     0
  9
$DIMSE2
 70
     0
  9
$DIMTAD
 70
     0
  9
$DIMZIN
 70
     0
  9
$DIMBLK
  1

  9
$DIMASO
 70
     1
  9
$DIMSHO
 70
     1
  9
$DIMPOST
  1
\X
  9
$DIMAPOST
  1

  9
$DIMALT
 70
     1
  9
$DIMALTD
 70
     2
  9
$DIMALTF
 40
25.3999999999999986
  9
$DIMLFAC
 40
1.0
  9
$DIMTOFL
 70
     0
  9
$DIMTVP
 40
0.0
  9
$DIMTIX
 70
     0
  9
$DIMSOXD
 70
     0
  9
$DIMSAH
 70
     0
  9
$DIMBLK1
  1

  9
$DIMBLK2
  1

  9
$DIMSTYLE
  2
STANDARD
  9
$DIMCLRD
 70
     0
  9
$DIMCLRE
 70
     0
  9
$DIMCLRT
 70
     0
  9
$DIMTFAC
 40
1.0
  9
$DIMGAP
 40
0.09
  9
$LUNITS
 70
     2
  9
$LUPREC
 70
     4
  9
$SKETCHINC
 40
0.1
  9
$FILLETRAD
 40
0.0
  9
$AUNITS
 70
     0
  9
$AUPREC
 70
     0
  9
$MENU
  1
.
  9
$ELEVATION
 40
0.0
  9
$PELEVATION
 40
0.0
  9
$THICKNESS
 40
0.0
  9
$LIMCHECK
 70
     0
  9
$BLIPMODE
 70
     0
  9
$CHAMFERA
 40
0.0
  9
$CHAMFERB
 40
0.0
  9
$SKPOLY
 70
     0
  9
$TDCREATE
 40
2458172.5207638889551163
  9
$TDUPDATE
 40
2459101.4626851850189269
  9
$TDINDWG
 40
0.1711448032
  9
$TDUSRTIMER
 40
0.1711448032
  9
$USRTIMER
 70
     1
  9
$ANGBASE
 50
0.0
  9
$ANGDIR
 70
     0
  9
$PDMODE
 70
     0
  9
$PDSIZE
 40
0.3125
  9
$PLINEWID
 40
0.0
  9
$COORDS
 70
     1
  9
$SPLFRAME
 70
     0
  9
$SPLINETYPE
 70
     6
  9
$SPLINESEGS
 70
     8
  9
$ATTDIA
 70
     1
  9
$ATTREQ
 70
     1
  9
$HANDLING
 70
     1
  9
$HANDSEED
  5
339F
  9
$SURFTAB1
 70
     6
  9
$SURFTAB2
 70
     6
  9
$SURFTYPE
 70
     6
  9
$SURFU
 70
     6
  9
$SURFV
 70
     6
  9
$UCSNAME
  2

  9
$UCSORG
 10
0.0
 20
0.0
 30
0.0
  9
$UCSXDIR
 10
1.0
 20
0.0
 30
0.0
  9
$UCSYDIR
 10
0.0
 20
1.0
 30
0.0
  9
$PUCSNAME
  2

  9
$PUCSORG
 10
0.0
 20
0.0
 30
0.0
  9
$PUCSXDIR
 10
1.0
 20
0.0
 30
0.0
  9
$PUCSYDIR
 10
0.0
 20
1.0
 30
0.0
  9
$USERI1
 70
     0
  9
$USERI2
 70
     0
  9
$USERI3
 70
     0
  9
$USERI4
 70
     0
  9
$USERI5
 70
     0
  9
$USERR1
 40
0.0
  9
$USERR2
 40
0.0
  9
$USERR3
 40
0.0
  9
$USERR4
 40
0.0
  9
$USERR5
 40
0.0
  9
$WORLDVIEW
 70
     1
  9
$SHADEDGE
 70
     3
  9
$SHADEDIF
 70
    70
  9
$TILEMODE
 70
     1
  9
$MAXACTVP
 70
    64
  9
$PLIMCHECK
 70
     0
  9
$PEXTMIN
 10
1.0000000000000000E+20
 20
1.0000000000000000E+20
 30
1.0000000000000000E+20
  9
$PEXTMAX
 10
-1.0000000000000000E+20
 20
-1.0000000000000000E+20
 30
-1.0000000000000000E+20
  9
$PLIMMIN
 10
0.0
 20
0.0
  9
$PLIMMAX
 10
12.0
 20
9.0
  9
$UNITMODE
 70
     0
  9
$VISRETAIN
 70
     1
  9
$PLINEGEN
 70
     0
  9
$PSLTSCALE
 70
     1
  0
ENDSEC
  0
SECTION
  2
TABLES
  0
TABLE
  2
VPORT
 70
     1
  0
VPORT
  2
*ACTIVE
 70
     0
 10
0.0
 20
0.0
 11
1.0
 21
1.0
 12
0.0
 22
0.0
 13
0.0
 23
0.0
 14
1.0
 24
1.0
 15
0.0
 25
0.0
 16
0.0
 26
0.0
 36
44.4503115770175796
 17
314.1444854736328125
 27
15.7619891166686994
 37
0.0
 40
12.2827351717450703
 41
2.8398203592814371
 42
50.0
 43
0.0
 44
0.0
 50
0.0
 51
0.0
 71
     0
 72
   100
 73
     1
 74
     1
 75
     0
 76
     0
 77
     0
 78
     0
  0
ENDTAB
  0
TABLE
  2
LTYPE
 70
     2
  0
LTYPE
  2
CONTINUOUS
 70
     0
  3
Solid line
 72
    65
 73
     0
 40
0.0
  0
LTYPE
  2
PHANTOM2
 70
     0
  3
___ _ _ ___ _ _ ___ _ _ ___ _ _
 72
    65
 73
     6
 40
1.25
 49
0.625
 49
-0.125
 49
0.125
 49
-0.125
 49
0.125
 49
-0.125
  0
ENDTAB
  0
TABLE
  2
LAYER
 70
     2
  0
LAYER
  2
0
 70
     0
 62
   255
  6
CONTINUOUS
  0
LAYER
  2
DEFPOINTS
 70
     0
 62
     7
  6
CONTINUOUS
  0
ENDTAB
  0
TABLE
  2
STYLE
 70
     1
  0
STYLE
  2
STANDARD
 70
     0
 40
0.0
 41
0.8
 50
0.0
 71
     0
 42
0.2
  3
txt
  4

  0
ENDTAB
  0
TABLE
  2
VIEW
 70
     0
  0
ENDTAB
  0
TABLE
  2
UCS
 70
     0
  0
ENDTAB
  0
TABLE
  2
APPID
 70
    10
  0
APPID
  2
ACAD
 70
     0
  0
APPID
  2
ACAD_MLEADERVER
 70
     0
  0
APPID
  2
ACAD_EXEMPT_FROM_CAD_STANDARDS
 70
     0
  0
APPID
  2
ACAD_DSTYLE_DIMJAG
 70
     0
  0
APPID
  2
ACAD_DSTYLE_DIMTALN
 70
     0
  0
APPID
  2
ACAD_NAV_VCDISPLAY
 70
     0
  0
APPID
  2
ACAECLAYERSTANDARD
 70
     0
  0
APPID
  2
ACCMTRANSPARENCY
 70
     0
  0
APPID
  2
DCO15
 70
     0
  0
APPID
  2
ACDBATTR
 70
     0
  0
ENDTAB
  0
TABLE
  2
DIMSTYLE
 70
     1
  0
DIMSTYLE
  2
STANDARD
 70
     0
  3

  4

  5

  6

  7

 40
1.0
 41
0.1875
 42
0.0625
 43
0.38
 44
0.125
 45
0.0
 46
0.0
 47
0.01
 48
0.01
140
0.15625
141
0.09
142
0.0
143
25.3999999999999986
144
1.0
145
0.0
146
1.0
147
0.09
 71
     1
 72
     0
 73
     1
 74
     1
 75
     0
 76
     0
 77
     0
 78
     4
170
     0
171
     2
172
     0
173
     0
174
     0
175
     0
176
     0
177
     0
178
     0
  0
ENDTAB
  0
ENDSEC
  0
SECTION
  2
BLOCKS
  0
BLOCK
  8
0
  2
$MODEL_SPACE
 70
     0
 10
0.0
 20
0.0
 30
0.0
  3
$MODEL_SPACE
  1

  0
ENDBLK
  5
21
  8
0
  0
BLOCK
 67
     1
  8
0
  2
$PAPER_SPACE
 70
     0
 10
0.0
 20
0.0
 30
0.0
  3
$PAPER_SPACE
  1

  0
ENDBLK
  5
1D
 67
     1
  8
0
  0
BLOCK
  8
0
  2
_FILLED
 70
     0
 10
0.0
 20
0.0
 30
0.0
  3
_FILLED
  1

  0
SOLID
  5
276F
  8
0
  6
BYBLOCK
 62
     0
 10
0.0
 20
0.0
 30
0.0
 11
-1.0
 21
0.1666666667
 31
0.0
 12
-1.0
 22
-0.1666666667
 32
0.0
 13
-1.0
 23
-0.1666666667
 33
0.0
  0
ENDBLK
  5
2770
  8
0
  6
BYBLOCK
 62
     0
  0
ENDSEC
  0
SECTION
  2
ENTITIES
  0
ATTDEF
  5
829
  8
DEFPOINTS
 10
315.7022603507501231
 20
16.4281025085495109
 30
0.0
 40
0.001
  1
K-8160IN
  3

  2
MODELNUMBER
 70
     0
1001
ACDBATTR
1070
     0
1070
     1
  0
ATTDEF
  5
82A
  8
DEFPOINTS
 10
315.7022603507501231
 20
16.4264358418828387
 30
0.0
 40
0.001
  1
SINGULIER
  3

  2
TRADENAME
 70
     0
1001
ACDBATTR
1070
     0
1070
     1
  0
ATTDEF
  5
82B
  8
DEFPOINTS
 10
315.7022603507501231
 20
16.4247691752161806
 30
0.0
 40
0.001
  1
BATH SPOUT
  3

  2
PRODUCT
 70
     0
1001
ACDBATTR
1070
     0
1070
     1
  0
LINE
  5
3190
  8
0
 10
308.6940838798918776
 20
16.3462458119081511
 30
0.0
 11
311.6484397814919021
 21
16.3462458119081511
 31
0.0
  0
LINE
  5
3191
  8
0
 10
308.6940838559918916
 20
16.976167071808149
 30
0.0
 11
315.4657374231919107
 21
16.976167071808149
 31
0.0
  0
ARC
  5
3192
  8
0
 10
308.6940484488334278
 20
16.6612064418568018
 30
0.0
 40
0.3149606319415415
 50
89.9935589386643215
 51
270.0064454090825166
  0
ARC
  5
3193
  8
0
 10
311.6484397678937057
 20
15.5588442371246796
 30
0.0
 40
0.7874015747834691
 50
65.7722556448350986
 51
89.9999990105150687
  0
LINE
  5
3194
  8
0
 10
311.9715615489918719
 20
16.2768926718081488
 30
0.0
 11
312.7131941252919205
 21
15.9431580125081496
 31
0.0
  0
ARC
  5
3195
  8
0
 10
313.0363159181923152
 20
16.6612064408700888
 30
0.0
 40
0.7874015738619387
 50
245.7722546729168869
 51
269.9436464092580081
  0
LINE
  5
3196
  8
0
 10
315.7019320827333786
 20
15.4791228503699401
 30
0.0
 11
315.7019320827333786
 21
17.3708497782568116
 31
0.0
  0
LINE
  5
3197
  8
0
 10
315.7019320827333786
 20
17.3708497782568116
 30
0.0
 11
315.5196195786334101
 21
17.3548995008567992
 31
0.0
  0
ARC
  5
3198
  8
0
 10
315.5247665563385908
 20
17.2960692767521991
 30
0.0
 40
0.0590549460053574
 50
95.0000000225221868
 51
180.0000000000017053
  0
LINE
  5
3199
  8
0
 10
315.4657116103331873
 20
17.2960692767521991
 30
0.0
 11
315.4657116103334147
 21
15.5539035097568004
 31
0.0
  0
ARC
  5
319A
  8
0
 10
315.5247667284937165
 20
15.5539035097568092
 30
0.0
 40
0.0590551181603001
 50
180.0000000000071054
 51
264.9999999365131202
  0
LINE
  5
319B
  8
0
 10
315.5196197357421966
 20
15.4950731141560301
 30
0.0
 11
315.7019320827333786
 21
15.4791228503699401
 31
0.0
  0
LINE
  5
319C
  8
0
 10
309.9208807720153231
 20
16.3462458119081511
 30
0.0
 11
309.9024633750333919
 21
16.0689585893568001
 31
0.0
  0
LINE
  5
319D
  8
0
 10
309.9024633750333919
 20
16.0689585893568001
 30
0.0
 11
309.8541264598334237
 21
16.0451743390567998
 31
0.0
  0
LINE
  5
319E
  8
0
 10
309.8541264598334237
 20
16.0451743390567998
 30
0.0
 11
309.0095323784333914
 21
16.1012722160567989
 31
0.0
  0
LINE
  5
319F
  8
0
 10
309.0095323784333914
 20
16.1012722160567989
 30
0.0
 11
308.9647656960333961
 21
16.1312404004568002
 31
0.0
  0
LINE
  5
31A0
  8
0
 10
308.9647656960333961
 20
16.1312404004568002
 30
0.0
 11
308.9790463626334258
 21
16.3462461569567985
 31
0.0
  0
LINE
  5
31A1
  8
0
 10
308.9647656960333961
 20
16.1312404004568002
 30
0.0
 11
309.2497536577440087
 21
16.1123115211158385
 31
0.0
  0
LINE
  5
31A2
  8
0
 10
309.2497536577440087
 20
16.1123115211158385
 30
0.0
 11
309.257883534318978
 21
16.2347126885511202
 31
0.0
  0
ARC
  5
31A3
  8
0
 10
309.3902618792274097
 20
15.4695266953173203
 30
0.0
 40
0.7765524003194342
 50
86.1065824990928661
 51
99.8151063233922855
  0
ARC
  5
31A4
  8
0
 10
309.3939898804770792
 20
15.4696904831891899
 30
0.0
 40
0.7761447154527112
 50
72.5804198108444325
 51
86.3803321882919732
  0
LINE
  5
31A5
  8
0
 10
309.6263418990221226
 20
16.2102397109946992
 30
0.0
 11
309.6182120224333971
 21
16.0878385433567992
 31
0.0
  0
LINE
  5
31A6
  8
0
 10
309.6182120224333971
 20
16.0878385433567992
 30
0.0
 11
309.9024633750333919
 21
16.0689585893568001
 31
0.0
  0
ARC
  5
31A7
  8
0
 10
309.4881295659408238
 20
16.8873518806937817
 30
0.0
 40
0.810870293316605
 50
252.9038927402694981
 51
267.7693922441463883
  0
ARC
  5
31A8
  8
0
 10
309.4865663609037938
 20
16.8472194117127394
 30
0.0
 40
0.7707073915725601
 50
267.7693922441463883
 51
279.8350029043979816
  0
ARC
  5
31A9
  8
0
 10
309.7838083257333892
 20
16.0557633882568105
 30
0.0
 40
0.0157480315000108
 50
266.2000105606309717
 51
334.1756871207703057
  0
LINE
  5
31AA
  8
0
 10
309.7827646451585224
 20
16.0400499791110214
 30
0.0
 11
309.0795897200334252
 21
16.0867548060567991
 31
0.0
  0
ARC
  5
31AB
  8
0
 10
309.0806334161417794
 20
16.1024684052903915
 30
0.0
 40
0.0157482221993615
 50
198.2247804227127119
 51
266.2000000039590191
  0
LINE
  5
31AC
  8
0
 10
309.2578835342321213
 20
16.2347126885360815
 30
0.0
 11
309.626341899029228
 21
16.2102397108940011
 31
0.0
  0
LINE
  5
31AD
  8
0
 10
314.5668252529807773
 20
15.8738052478671001
 30
0.0
 11
314.4490724444333978
 21
15.8147500939568104
 31
0.0
  0
LINE
  5
31AE
  8
0
 10
314.4490724444333978
 20
15.8147500939568104
 30
0.0
 11
313.332741261576416
 21
15.8147500935816598
 31
0.0
  0
ARC
  5
31AF
  8
0
 10
313.8909084606336251
 20
17.0745926136570816
 30
0.0
 40
1.3779527559003111
 50
240.6250724324879968
 51
246.1044918543996971
  0
LINE
  5
31B0
  8
0
 10
314.3633494055334268
 20
15.8147500939568104
 30
0.0
 11
314.3633494055334268
 21
15.3541200967568106
 31
0.0
  0
LINE
  5
31B1
  8
0
 10
314.3633494055334268
 20
15.3541200967568106
 30
0.0
 11
314.343664415433409
 21
15.3344351088568001
 31
0.0
  0
LINE
  5
31B2
  8
0
 10
314.343664415433409
 20
15.3344351088568001
 30
0.0
 11
313.4381525550334118
 21
15.3344351088568001
 31
0.0
  0
LINE
  5
31B3
  8
0
 10
313.4381525550334118
 20
15.3344351088568001
 30
0.0
 11
313.418467515833413
 21
15.3541200967568106
 31
0.0
  0
LINE
  5
31B4
  8
0
 10
313.418467515833413
 20
15.3541200967568106
 30
0.0
 11
313.418467515833413
 21
15.8147500936104706
 31
0.0
  0
LINE
  5
31B5
  8
0
 10
314.3633495083334992
 20
15.3541201995567995
 30
0.0
 11
313.418467515833413
 21
15.3541200967568106
 31
0.0
  0
LINE
  5
31B6
  8
0
 10
314.2452391693335016
 20
15.3344351088568001
 30
0.0
 11
314.2452391693335016
 21
15.2360099120568098
 31
0.0
  0
LINE
  5
31B7
  8
0
 10
314.3042942874333789
 20
15.2360099120568009
 30
0.0
 11
313.477522633933404
 21
15.2360099120568098
 31
0.0
  0
LINE
  5
31B8
  8
0
 10
313.477522633933404
 20
15.2360099120568098
 30
0.0
 11
313.477522633933404
 21
14.9997893421568005
 31
0.0
  0
LINE
  5
31B9
  8
0
 10
313.477522633933404
 20
14.9997893421568005
 30
0.0
 11
313.5365776979833754
 21
14.9407342919068
 31
0.0
  0
LINE
  5
31BA
  8
0
 10
314.24523922328342
 20
14.9407342919068
 30
0.0
 11
314.3042942874333789
 21
14.9997893421568005
 31
0.0
  0
LINE
  5
31BB
  8
0
 10
314.3042942874333789
 20
14.9997893421568005
 30
0.0
 11
314.3042942874333789
 21
15.2360099120568098
 31
0.0
  0
LINE
  5
31BC
  8
0
 10
313.536577752033395
 20
15.3344351088568001
 30
0.0
 11
313.536577752033395
 21
15.2360099120568098
 31
0.0
  0
LINE
  5
31BD
  8
0
 10
313.477522633933404
 20
14.9997893421568005
 30
0.0
 11
313.7148401160333719
 21
14.9997893421568005
 31
0.0
  0
ARC
  5
31BE
  8
0
 10
313.8909084606834199
 20
15.3738051881033506
 30
0.0
 40
0.4133859153465477
 50
244.791240487823103
 51
295.208759512177096
  0
LINE
  5
31BF
  8
0
 10
314.066976805333411
 20
14.9997893421568005
 30
0.0
 11
314.3042942874333789
 21
14.9997893421568094
 31
0.0
  0
LINE
  5
31C0
  8
0
 10
314.066976805333411
 20
14.9997893421568094
 30
0.0
 11
314.066976805333411
 21
15.2360099120568009
 31
0.0
  0
LINE
  5
31C1
  8
0
 10
313.7148401160333719
 20
14.9997893421568005
 30
0.0
 11
313.7148401160333719
 21
15.2360099120568098
 31
0.0
  0
LINE
  5
31C2
  8
0
 10
313.8121683000334201
 20
17.1730178104567983
 30
0.0
 11
313.9696486181334194
 21
17.1730178104567983
 31
0.0
  0
ARC
  5
31C3
  8
0
 10
313.9696486181334194
 20
17.2123878892567994
 30
0.0
 40
0.0393700787999976
 50
270.0
 51
359.999999854471298
  0
LINE
  5
31C4
  8
0
 10
314.0090186969334241
 20
17.2123878891568083
 30
0.0
 11
314.0090186975966162
 21
17.4734743220567985
 31
0.0
  0
ARC
  5
31C5
  8
0
 10
314.0483887808373993
 20
17.4734743219568109
 30
0.0
 40
0.0393700832408559
 50
149.6389264729124022
 51
179.9999998544709001
  0
LINE
  5
31C6
  8
0
 10
314.0144180184109928
 20
17.4933738383971402
 30
0.0
 11
314.0981075552081734
 21
17.6362414995607715
 31
0.0
  0
ARC
  5
31C7
  8
0
 10
314.0641689110946118
 20
17.6561222016193291
 30
0.0
 40
0.0393328600360429
 50
329.6389264729126012
 51
0.0273987900798922
  0
LINE
  5
31C8
  8
0
 10
314.1035017666334284
 20
17.6561410105568086
 30
0.0
 11
314.1034503946717109
 21
17.7635689793957603
 31
0.0
  0
ARC
  5
31C9
  8
0
 10
313.9878835770750243
 20
17.7537924621745695
 30
0.0
 40
0.1159796086318541
 50
4.8354938358199506
 51
69.1363554717533049
  0
ARC
  5
31CA
  8
0
 10
313.9378669119610095
 20
17.6591059147781095
 30
0.0
 40
0.2226515287162061
 50
65.7852578600408435
 51
102.1334979169165962
  0
ARC
  5
31CB
  8
0
 10
313.9195557503791179
 20
17.7148160192868005
 30
0.0
 40
0.1644537587990427
 50
99.9755583590173842
 51
141.4476410396769097
  0
ARC
  5
31CC
  8
0
 10
313.8646253776826143
 20
17.7624923236652883
 30
0.0
 40
0.0918334649679622
 50
143.3512246889503956
 51
179.3282410619490008
  0
LINE
  5
31CD
  8
0
 10
313.7727982244334157
 20
17.7635689917567987
 30
0.0
 11
313.7728033412333843
 21
17.2123878891568083
 31
0.0
  0
ARC
  5
31CE
  8
0
 10
313.8121683016333918
 20
17.2123827711895103
 30
0.0
 40
0.0393649607326987
 50
179.9925507882867066
 51
269.9999976711981162
  0
LINE
  5
31CF
  8
0
 10
313.9696486181334194
 20
17.1730178104567983
 30
0.0
 11
313.9696486181334194
 21
16.9761674167568088
 31
0.0
  0
LINE
  5
31D0
  8
0
 10
313.8121683032334204
 20
17.1730178104567983
 30
0.0
 11
313.8121683032334204
 21
16.9761674167568088
 31
0.0
  0
LINE
  5
31D1
  8
0
 10
314.24523922328342
 20
14.9407342919068
 30
0.0
 11
313.5365776979833754
 21
14.9407342919068
 31
0.0
  0
LINE
  5
31D3
  8
0
 10
313.0355414650078956
 20
15.8738052478671001
 30
0.0
 11
315.465711610333301
 21
15.8738052478671001
 31
0.0
  0
ENDSEC
  0
EOF
