  0
SECTION
  2
HEADER
  9
$ACADVER
  1
AC1009
  9
$INSBASE
 10
1431.7040870302789699
 20
242.55294570535861
 30
0.0
  9
$EXTMIN
 10
1402.1206995952190937
 20
227.7878471875002901
 30
-0.0000000000000058
  9
$EXTMAX
 10
1461.3059896147010477
 20
257.3220927359355983
 30
0.0000000000000104
  9
$LIMMIN
 10
0.0
 20
0.0
  9
$LIMMAX
 10
11.6929133858000007
 20
8.2677165353999982
  9
$ORTHOMODE
 70
     0
  9
$REGENMODE
 70
     1
  9
$FILLMODE
 70
     1
  9
$QTEXTMODE
 70
     0
  9
$MIRRTEXT
 70
     0
  9
$DRAGMODE
 70
     2
  9
$LTSCALE
 40
0.6431102362
  9
$OSMODE
 70
  4095
  9
$ATTMODE
 70
     1
  9
$TEXTSIZE
 40
0.2
  9
$TRACEWID
 40
0.05
  9
$TEXTSTYLE
  7
STANDARD
  9
$CLAYER
  8
0
  9
$CELTYPE
  6
BYLAYER
  9
$CECOLOR
 62
   256
  9
$DIMSCALE
 40
1.0
  9
$DIMASZ
 40
0.1875
  9
$DIMEXO
 40
0.0625
  9
$DIMDLI
 40
0.4443307087
  9
$DIMRND
 40
0.0
  9
$DIMDLE
 40
0.0
  9
$DIMEXE
 40
0.125
  9
$DIMTP
 40
0.01
  9
$DIMTM
 40
0.01
  9
$DIMTXT
 40
1.0
  9
$DIMCEN
 40
0.1052362205
  9
$DIMTSZ
 40
0.0
  9
$DIMTOL
 70
     1
  9
$DIMLIM
 70
     0
  9
$DIMTIH
 70
     0
  9
$DIMTOH
 70
     1
  9
$DIMSE1
 70
     0
  9
$DIMSE2
 70
     0
  9
$DIMTAD
 70
     0
  9
$DIMZIN
 70
     0
  9
$DIMBLK
  1

  9
$DIMASO
 70
     1
  9
$DIMSHO
 70
     1
  9
$DIMPOST
  1
\X
  9
$DIMAPOST
  1

  9
$DIMALT
 70
     1
  9
$DIMALTD
 70
     2
  9
$DIMALTF
 40
25.3999999999999986
  9
$DIMLFAC
 40
1.0
  9
$DIMTOFL
 70
     0
  9
$DIMTVP
 40
0.0
  9
$DIMTIX
 70
     0
  9
$DIMSOXD
 70
     0
  9
$DIMSAH
 70
     0
  9
$DIMBLK1
  1

  9
$DIMBLK2
  1

  9
$DIMSTYLE
  2
STANDARD
  9
$DIMCLRD
 70
     0
  9
$DIMCLRE
 70
     0
  9
$DIMCLRT
 70
     0
  9
$DIMTFAC
 40
1.0
  9
$DIMGAP
 40
0.09
  9
$LUNITS
 70
     2
  9
$LUPREC
 70
     4
  9
$SKETCHINC
 40
0.1
  9
$FILLETRAD
 40
0.0
  9
$AUNITS
 70
     0
  9
$AUPREC
 70
     0
  9
$MENU
  1
.
  9
$ELEVATION
 40
0.0
  9
$PELEVATION
 40
0.0
  9
$THICKNESS
 40
0.0
  9
$LIMCHECK
 70
     0
  9
$BLIPMODE
 70
     0
  9
$CHAMFERA
 40
0.0
  9
$CHAMFERB
 40
0.0
  9
$SKPOLY
 70
     0
  9
$TDCREATE
 40
2458172.5207638889551163
  9
$TDUPDATE
 40
2459137.6620254628360271
  9
$TDINDWG
 40
0.4634034954
  9
$TDUSRTIMER
 40
0.4634034954
  9
$USRTIMER
 70
     1
  9
$ANGBASE
 50
0.0
  9
$ANGDIR
 70
     0
  9
$PDMODE
 70
     0
  9
$PDSIZE
 40
0.3125
  9
$PLINEWID
 40
0.0
  9
$COORDS
 70
     1
  9
$SPLFRAME
 70
     0
  9
$SPLINETYPE
 70
     6
  9
$SPLINESEGS
 70
     8
  9
$ATTDIA
 70
     1
  9
$ATTREQ
 70
     1
  9
$HANDLING
 70
     1
  9
$HANDSEED
  5
D271
  9
$SURFTAB1
 70
     6
  9
$SURFTAB2
 70
     6
  9
$SURFTYPE
 70
     6
  9
$SURFU
 70
     6
  9
$SURFV
 70
     6
  9
$UCSNAME
  2

  9
$UCSORG
 10
0.0
 20
0.0
 30
0.0
  9
$UCSXDIR
 10
1.0
 20
0.0
 30
0.0
  9
$UCSYDIR
 10
0.0
 20
1.0
 30
0.0
  9
$PUCSNAME
  2

  9
$PUCSORG
 10
0.0
 20
0.0
 30
0.0
  9
$PUCSXDIR
 10
1.0
 20
0.0
 30
0.0
  9
$PUCSYDIR
 10
0.0
 20
1.0
 30
0.0
  9
$USERI1
 70
     0
  9
$USERI2
 70
     0
  9
$USERI3
 70
     0
  9
$USERI4
 70
     0
  9
$USERI5
 70
     0
  9
$USERR1
 40
0.0
  9
$USERR2
 40
0.0
  9
$USERR3
 40
0.0
  9
$USERR4
 40
0.0
  9
$USERR5
 40
0.0
  9
$WORLDVIEW
 70
     1
  9
$SHADEDGE
 70
     3
  9
$SHADEDIF
 70
    70
  9
$TILEMODE
 70
     1
  9
$MAXACTVP
 70
    64
  9
$PLIMCHECK
 70
     0
  9
$PEXTMIN
 10
1.0000000000000000E+20
 20
1.0000000000000000E+20
 30
1.0000000000000000E+20
  9
$PEXTMAX
 10
-1.0000000000000000E+20
 20
-1.0000000000000000E+20
 30
-1.0000000000000000E+20
  9
$PLIMMIN
 10
0.0
 20
0.0
  9
$PLIMMAX
 10
12.0
 20
9.0
  9
$UNITMODE
 70
     0
  9
$VISRETAIN
 70
     1
  9
$PLINEGEN
 70
     0
  9
$PSLTSCALE
 70
     1
  0
ENDSEC
  0
SECTION
  2
TABLES
  0
TABLE
  2
VPORT
 70
     1
  0
VPORT
  2
*ACTIVE
 70
     0
 10
0.0
 20
0.0
 11
1.0
 21
1.0
 12
964.9711428971301075
 22
153.4218228417882131
 13
0.0
 23
0.0
 14
1.0
 24
1.0
 15
0.0
 25
0.0
 16
0.0
 26
0.0
 36
24.1179433675886514
 17
466.74220170783002
 27
89.133147119929788
 37
0.0
 40
29.883075220267191
 41
2.6055226824457591
 42
50.0
 43
0.0
 44
0.0
 50
0.0
 51
0.0
 71
     0
 72
   100
 73
     1
 74
     1
 75
     0
 76
     0
 77
     0
 78
     0
  0
ENDTAB
  0
TABLE
  2
LTYPE
 70
     2
  0
LTYPE
  2
CONTINUOUS
 70
     0
  3
Solid line
 72
    65
 73
     0
 40
0.0
  0
LTYPE
  2
PHANTOM2
 70
     0
  3
___ _ _ ___ _ _ ___ _ _ ___ _ _
 72
    65
 73
     6
 40
1.25
 49
0.625
 49
-0.125
 49
0.125
 49
-0.125
 49
0.125
 49
-0.125
  0
ENDTAB
  0
TABLE
  2
LAYER
 70
     2
  0
LAYER
  2
0
 70
     0
 62
   255
  6
CONTINUOUS
  0
LAYER
  2
DEFPOINTS
 70
     0
 62
     7
  6
CONTINUOUS
  0
ENDTAB
  0
TABLE
  2
STYLE
 70
     1
  0
STYLE
  2
STANDARD
 70
     0
 40
0.0
 41
0.8
 50
0.0
 71
     0
 42
0.2
  3
txt
  4

  0
ENDTAB
  0
TABLE
  2
VIEW
 70
     0
  0
ENDTAB
  0
TABLE
  2
UCS
 70
     0
  0
ENDTAB
  0
TABLE
  2
APPID
 70
    11
  0
APPID
  2
ACAD
 70
     0
  0
APPID
  2
ACAD_MLEADERVER
 70
     0
  0
APPID
  2
ACAD_EXEMPT_FROM_CAD_STANDARDS
 70
     0
  0
APPID
  2
ACAD_DSTYLE_DIMJAG
 70
     0
  0
APPID
  2
ACAD_DSTYLE_DIMTALN
 70
     0
  0
APPID
  2
ACAD_NAV_VCDISPLAY
 70
     0
  0
APPID
  2
ACAECLAYERSTANDARD
 70
     0
  0
APPID
  2
ACCMTRANSPARENCY
 70
     0
  0
APPID
  2
DCO15
 70
     0
  0
APPID
  2
ACDBATTR
 70
     0
  0
APPID
  2
ACADANNOTATIVE
 70
     0
  0
ENDTAB
  0
TABLE
  2
DIMSTYLE
 70
     1
  0
DIMSTYLE
  2
STANDARD
 70
     0
  3

  4

  5

  6

  7

 40
1.0
 41
0.1875
 42
0.0625
 43
0.38
 44
0.125
 45
0.0
 46
0.0
 47
0.01
 48
0.01
140
0.15625
141
0.09
142
0.0
143
25.3999999999999986
144
1.0
145
0.0
146
1.0
147
0.09
 71
     1
 72
     0
 73
     1
 74
     1
 75
     0
 76
     0
 77
     0
 78
     4
170
     0
171
     2
172
     0
173
     0
174
     0
175
     0
176
     0
177
     0
178
     0
  0
ENDTAB
  0
ENDSEC
  0
SECTION
  2
BLOCKS
  0
BLOCK
  8
0
  2
$MODEL_SPACE
 70
     0
 10
0.0
 20
0.0
 30
0.0
  3
$MODEL_SPACE
  1

  0
ENDBLK
  5
21
  8
0
  0
BLOCK
 67
     1
  8
0
  2
$PAPER_SPACE
 70
     0
 10
0.0
 20
0.0
 30
0.0
  3
$PAPER_SPACE
  1

  0
ENDBLK
  5
1D
 67
     1
  8
0
  0
ENDSEC
  0
SECTION
  2
ENTITIES
  0
ATTDEF
  5
829
  8
DEFPOINTS
 10
1431.7001957133979886
 20
242.5501977432371916
 30
0.0
 40
0.001
  1
K-8223T
  3

  2
MODELNUMBER
 70
     0
1001
ACDBATTR
1070
     0
1070
     1
  0
ATTDEF
  5
82A
  8
DEFPOINTS
 10
1431.7001957133979886
 20
242.5485310765706117
 30
0.0
 40
0.001
  1
BIOVE
  3

  2
TRADENAME
 70
     0
1001
ACDBATTR
1070
     0
1070
     1
  0
ATTDEF
  5
82B
  8
DEFPOINTS
 10
1431.7001957133979886
 20
242.5468644099038897
 30
0.0
 40
0.001
  1
BATH
  3

  2
PRODUCT
 70
     0
1001
ACDBATTR
1070
     0
1070
     1
  0
LINE
  5
D184
  8
0
 10
1460.3645801581260457
 20
227.7891661777755985
 30
0.0
 11
1403.0435939024318941
 21
227.7891661777755985
 31
0.0
  0
LINE
  5
D185
  8
0
 10
1403.0435939024318941
 20
257.3167252329413941
 30
0.0
 11
1460.3645801581260457
 21
257.3167252329413941
 31
0.0
  0
LINE
  5
D186
  8
0
 10
1402.1778939024320607
 20
228.6548661777756877
 30
0.0
 11
1402.1778939024320607
 21
256.4510252329413902
 31
0.0
  0
LINE
  5
D187
  8
0
 10
1461.2302801581249696
 20
228.6548661777756877
 30
0.0
 11
1461.2302801581249696
 21
256.4510252329413902
 31
0.0
  0
ARC
  5
D188
  8
0
 10
1460.3645801581260457
 20
228.6548661777756877
 30
0.0
 40
0.8657
 50
270.0
 51
0.0
  0
ARC
  5
D189
  8
0
 10
1403.0435939024318941
 20
228.6548661777756877
 30
0.0
 40
0.8657
 50
180.0
 51
270.0
  0
ARC
  5
D18A
  8
0
 10
1403.0435939024318941
 20
256.4510252329413902
 30
0.0
 40
0.8657
 50
90.0
 51
180.0
  0
ARC
  5
D18B
  8
0
 10
1460.3645801581260457
 20
256.4510252329413902
 30
0.0
 40
0.8657
 50
0.0
 51
90.0
  0
LINE
  5
D18C
  8
0
 10
1407.2728263602220977
 20
254.7951754094492003
 30
0.0
 11
1455.503819356710892
 21
254.7951754094492003
 31
0.0
  0
LINE
  5
D18D
  8
0
 10
1407.2728263582980617
 20
230.3107160012918087
 30
0.0
 11
1455.527843871946061
 21
230.3107160012918087
 31
0.0
  0
ARC
  5
D18E
  8
0
 10
1434.117590515405027
 20
242.5529149430145139
 30
0.0
 40
26.3513194014803496
 50
154.7415290413580067
 51
205.2620146454680992
  0
ARC
  5
D18F
  8
0
 10
1409.6227287768479073
 20
257.0203891914399037
 30
0.0
 40
3.2362969182728829
 50
223.4388670801671992
 51
259.3620902658767022
  0
ARC
  5
D190
  8
0
 10
1409.3778233650350558
 20
245.6084325698456041
 30
0.0
 40
8.2388257941098022
 50
83.6736850461807649
 51
92.452303251398277
  0
ARC
  5
D191
  8
0
 10
1409.8315163053759989
 20
227.7025491595412916
 30
0.0
 40
3.6536869761496571
 50
102.7476503637099938
 51
134.4513626521280969
  0
ARC
  5
D192
  8
0
 10
1409.2354503154740542
 20
229.8159223466738865
 30
0.0
 40
1.4654018596553611
 50
86.7904607067753631
 51
98.2449769699895938
  0
ARC
  5
D193
  8
0
 10
1409.7164609798030597
 20
234.2251132464801913
 30
0.0
 40
2.9729793208342512
 50
262.2877873130544231
 51
281.0516301713533949
  0
LINE
  5
D194
  8
0
 10
1452.6093101661260789
 20
252.7599061632494966
 30
0.0
 11
1419.385058562713084
 21
252.7599061632494966
 31
0.0
  0
LINE
  5
D195
  8
0
 10
1452.5160230776009485
 20
232.3251962375721007
 30
0.0
 11
1419.3955398096838962
 21
232.3251962375721007
 31
0.0
  0
ARC
  5
D196
  8
0
 10
1452.749415175869899
 20
250.7525482663508001
 30
0.0
 40
2.0122413225050182
 50
31.4090512842466794
 51
93.9925260340890958
  0
ARC
  5
D197
  8
0
 10
1426.76101562675899
 20
242.5529202570432972
 30
0.0
 40
29.2085853673053499
 50
341.540875433318206
 51
18.4592063662284005
  0
ARC
  5
D198
  8
0
 10
1452.6265001189269697
 20
234.5375736344826123
 30
0.0
 40
2.2151340643448441
 50
267.1412586771364204
 51
326.1800489988663116
  0
ARC
  5
D199
  8
0
 10
1419.3915617586039843
 20
216.7765734665449031
 30
0.0
 40
15.5486232799111903
 50
89.985341111178144
 51
100.3345907988596935
  0
ARC
  5
D19A
  8
0
 10
1416.7244555792610754
 20
233.575782497694405
 30
0.0
 40
1.507797140817992
 50
211.3103233994540915
 51
265.3491548847371746
  0
ARC
  5
D19B
  8
0
 10
1430.7196308581198991
 20
242.5529457053756914
 30
0.0
 40
18.1343209333404403
 50
147.4356874435081863
 51
212.5643125564918137
  0
ARC
  5
D19C
  8
0
 10
1416.6858325138989585
 20
251.5728410657964957
 30
0.0
 40
1.4526851891617869
 50
92.1805534201961478
 51
149.338006588771691
  0
ARC
  5
D19D
  8
0
 10
1419.1389750491259747
 20
264.6690975086223148
 30
0.0
 40
11.9117335260810293
 50
257.8434474943013015
 51
271.1837529629310097
  0
ARC
  5
D19E
  8
0
 10
1426.8787546040800862
 20
321.7045733569270283
 30
0.0
 40
69.9053445631874553
 50
256.2689221800665109
 51
260.845355171936319
  0
ARC
  5
D19F
  8
0
 10
1402.3449816649310833
 20
288.1710896368605859
 30
0.0
 40
57.4156746479034865
 50
277.9502847737318234
 51
283.5842549701029043
  0
ARC
  5
D1A0
  8
0
 10
1425.6060040901199955
 20
242.5529457039297085
 30
0.0
 40
22.0448994971329704
 50
146.2664411606353099
 51
213.7335588303583904
  0
ARC
  5
D1A1
  8
0
 10
1452.2869833848769758
 20
233.2407236830439956
 30
0.0
 40
4.3689955037476338
 50
317.8837938296339871
 51
338.9328694197794789
  0
ARC
  5
D1A2
  8
0
 10
1418.9699659101020188
 20
242.3040309574043931
 30
0.0
 40
38.8765734269612508
 50
344.1257468899564174
 51
16.4858852117791095
  0
ARC
  5
D1A3
  8
0
 10
1443.2113122674691112
 20
247.6023197714509934
 30
0.0
 40
14.2422927496999598
 50
23.7413645175678703
 51
30.3336725951422501
  0
ARC
  5
D1A4
  8
0
 10
1456.0659831498899166
 20
252.2547591088313936
 30
0.0
 40
2.6018730005144661
 50
102.4777927995378946
 51
118.917292304708397
  0
ARC
  5
D1A5
  8
0
 10
1455.92130432969293
 20
232.5017220902585109
 30
0.0
 40
2.2260545396956068
 50
240.0103882361729859
 51
259.8193475306362075
  0
LINE
  5
D1A6
  8
0
 10
1454.8078563505430338
 20
230.5736643947757045
 30
0.0
 11
1452.5160230776009485
 21
232.325196237571987
 31
0.0
  0
LINE
  5
D1A7
  8
0
 10
1452.6093101661269884
 20
252.7599061632494966
 30
0.0
 11
1454.8078563507428953
 21
254.5322270159755931
 31
0.0
  0
CIRCLE
  5
D1A8
  8
0
 10
1450.9940596856420143
 20
242.5529457053756914
 30
0.0
 40
1.0236220471999959
  0
ARC
  5
D1A9
  8
0
 10
1461.2461676883610835
 20
242.5509127046848903
 30
0.0
 40
3.7983408246664401
 50
164.3362520804521125
 51
195.5976291334592929
  0
ARC
  5
D1AA
  8
0
 10
1454.7744546130290928
 20
242.5546468528505102
 30
0.0
 40
2.9941730438155969
 50
339.9803598028590841
 51
19.953521411051689
  0
ENDSEC
  0
EOF
