  0
SECTION
  2
HEADER
  9
$ACADVER
  1
AC1009
  9
$INSBASE
 10
4517.4393274262001796
 20
267.006709612390182
 30
0.0
  9
$EXTMIN
 10
4503.4818737773739485
 20
267.0054762962620885
 30
-0.0000000000112498
  9
$EXTMAX
 10
4531.3486559760713135
 20
284.3073158748072728
 30
0.0000000000002956
  9
$LIMMIN
 10
0.0
 20
0.0
  9
$LIMMAX
 10
11.6929133858000007
 20
8.2677165353999982
  9
$ORTHOMODE
 70
     0
  9
$REGENMODE
 70
     1
  9
$FILLMODE
 70
     1
  9
$QTEXTMODE
 70
     0
  9
$MIRRTEXT
 70
     0
  9
$DRAGMODE
 70
     2
  9
$LTSCALE
 40
0.6431102362
  9
$OSMODE
 70
   575
  9
$ATTMODE
 70
     1
  9
$TEXTSIZE
 40
0.2
  9
$TRACEWID
 40
0.05
  9
$TEXTSTYLE
  7
STANDARD
  9
$CLAYER
  8
0
  9
$CELTYPE
  6
BYLAYER
  9
$CECOLOR
 62
   256
  9
$DIMSCALE
 40
1.0
  9
$DIMASZ
 40
0.1875
  9
$DIMEXO
 40
0.0625
  9
$DIMDLI
 40
0.4443307087
  9
$DIMRND
 40
0.0
  9
$DIMDLE
 40
0.0
  9
$DIMEXE
 40
0.125
  9
$DIMTP
 40
0.01
  9
$DIMTM
 40
0.01
  9
$DIMTXT
 40
2.0
  9
$DIMCEN
 40
0.1052362205
  9
$DIMTSZ
 40
0.0
  9
$DIMTOL
 70
     1
  9
$DIMLIM
 70
     0
  9
$DIMTIH
 70
     1
  9
$DIMTOH
 70
     1
  9
$DIMSE1
 70
     0
  9
$DIMSE2
 70
     0
  9
$DIMTAD
 70
     0
  9
$DIMZIN
 70
     0
  9
$DIMBLK
  1

  9
$DIMASO
 70
     1
  9
$DIMSHO
 70
     1
  9
$DIMPOST
  1
\X
  9
$DIMAPOST
  1

  9
$DIMALT
 70
     1
  9
$DIMALTD
 70
     2
  9
$DIMALTF
 40
25.3999999999999986
  9
$DIMLFAC
 40
1.0
  9
$DIMTOFL
 70
     0
  9
$DIMTVP
 40
0.0
  9
$DIMTIX
 70
     0
  9
$DIMSOXD
 70
     0
  9
$DIMSAH
 70
     0
  9
$DIMBLK1
  1

  9
$DIMBLK2
  1

  9
$DIMSTYLE
  2
STANDARD
  9
$DIMCLRD
 70
     0
  9
$DIMCLRE
 70
     0
  9
$DIMCLRT
 70
     0
  9
$DIMTFAC
 40
1.0
  9
$DIMGAP
 40
0.09
  9
$LUNITS
 70
     2
  9
$LUPREC
 70
     4
  9
$SKETCHINC
 40
0.1
  9
$FILLETRAD
 40
0.0
  9
$AUNITS
 70
     0
  9
$AUPREC
 70
     0
  9
$MENU
  1
.
  9
$ELEVATION
 40
0.0
  9
$PELEVATION
 40
0.0
  9
$THICKNESS
 40
0.0
  9
$LIMCHECK
 70
     0
  9
$BLIPMODE
 70
     0
  9
$CHAMFERA
 40
0.0
  9
$CHAMFERB
 40
0.0
  9
$SKPOLY
 70
     0
  9
$TDCREATE
 40
2458060.468368056230247
  9
$TDUPDATE
 40
2459387.8459606477990746
  9
$TDINDWG
 40
0.568722338
  9
$TDUSRTIMER
 40
0.568722338
  9
$USRTIMER
 70
     1
  9
$ANGBASE
 50
0.0
  9
$ANGDIR
 70
     0
  9
$PDMODE
 70
     0
  9
$PDSIZE
 40
0.3125
  9
$PLINEWID
 40
0.0
  9
$COORDS
 70
     2
  9
$SPLFRAME
 70
     0
  9
$SPLINETYPE
 70
     6
  9
$SPLINESEGS
 70
     8
  9
$ATTDIA
 70
     1
  9
$ATTREQ
 70
     1
  9
$HANDLING
 70
     1
  9
$HANDSEED
  5
21964
  9
$SURFTAB1
 70
     6
  9
$SURFTAB2
 70
     6
  9
$SURFTYPE
 70
     6
  9
$SURFU
 70
     6
  9
$SURFV
 70
     6
  9
$UCSNAME
  2

  9
$UCSORG
 10
0.0
 20
0.0
 30
0.0
  9
$UCSXDIR
 10
1.0
 20
0.0
 30
0.0
  9
$UCSYDIR
 10
0.0
 20
1.0
 30
0.0
  9
$PUCSNAME
  2

  9
$PUCSORG
 10
0.0
 20
0.0
 30
0.0
  9
$PUCSXDIR
 10
1.0
 20
0.0
 30
0.0
  9
$PUCSYDIR
 10
0.0
 20
1.0
 30
0.0
  9
$USERI1
 70
     0
  9
$USERI2
 70
     0
  9
$USERI3
 70
     0
  9
$USERI4
 70
     0
  9
$USERI5
 70
     0
  9
$USERR1
 40
0.0
  9
$USERR2
 40
0.0
  9
$USERR3
 40
0.0
  9
$USERR4
 40
0.0
  9
$USERR5
 40
0.0
  9
$WORLDVIEW
 70
     1
  9
$SHADEDGE
 70
     3
  9
$SHADEDIF
 70
    70
  9
$TILEMODE
 70
     1
  9
$MAXACTVP
 70
    64
  9
$PLIMCHECK
 70
     0
  9
$PEXTMIN
 10
1.0000000000000000E+20
 20
1.0000000000000000E+20
 30
1.0000000000000000E+20
  9
$PEXTMAX
 10
-1.0000000000000000E+20
 20
-1.0000000000000000E+20
 30
-1.0000000000000000E+20
  9
$PLIMMIN
 10
0.0
 20
0.0
  9
$PLIMMAX
 10
12.0
 20
9.0
  9
$UNITMODE
 70
     0
  9
$VISRETAIN
 70
     1
  9
$PLINEGEN
 70
     0
  9
$PSLTSCALE
 70
     1
  0
ENDSEC
  0
SECTION
  2
TABLES
  0
TABLE
  2
VPORT
 70
     1
  0
VPORT
  2
*ACTIVE
 70
     0
 10
0.0
 20
0.0
 11
1.0
 21
1.0
 12
606.0499081511242139
 22
143.0767909207067135
 13
0.0
 23
0.0
 14
1.0
 24
1.0
 15
0.0
 25
0.0
 16
0.0
 26
0.0
 36
60.4960186965801583
 17
3911.3653564453120453
 27
132.5796051025390057
 37
0.0
 40
24.2786005697528005
 41
2.4022257551669308
 42
50.0
 43
0.0
 44
0.0
 50
0.0
 51
0.0
 71
     0
 72
   100
 73
     1
 74
     1
 75
     0
 76
     0
 77
     0
 78
     0
  0
ENDTAB
  0
TABLE
  2
LTYPE
 70
     2
  0
LTYPE
  2
CONTINUOUS
 70
     0
  3
Solid line
 72
    65
 73
     0
 40
0.0
  0
LTYPE
  2
PHANTOM2
 70
     0
  3
___ _ _ ___ _ _ ___ _ _ ___ _ _
 72
    65
 73
     6
 40
1.25
 49
0.625
 49
-0.125
 49
0.125
 49
-0.125
 49
0.125
 49
-0.125
  0
ENDTAB
  0
TABLE
  2
LAYER
 70
     2
  0
LAYER
  2
0
 70
     0
 62
   255
  6
CONTINUOUS
  0
LAYER
  2
DEFPOINTS
 70
     0
 62
     7
  6
CONTINUOUS
  0
ENDTAB
  0
TABLE
  2
STYLE
 70
     1
  0
STYLE
  2
STANDARD
 70
     0
 40
0.0
 41
0.8
 50
0.0
 71
     0
 42
0.2
  3
txt
  4

  0
ENDTAB
  0
TABLE
  2
VIEW
 70
     2
  0
ENDTAB
  0
TABLE
  2
UCS
 70
     0
  0
ENDTAB
  0
TABLE
  2
APPID
 70
    11
  0
APPID
  2
ACAD
 70
     0
  0
APPID
  2
ACAD_MLEADERVER
 70
     0
  0
APPID
  2
ACAD_EXEMPT_FROM_CAD_STANDARDS
 70
     0
  0
APPID
  2
ACAD_NAV_VCDISPLAY
 70
     0
  0
APPID
  2
ACAECLAYERSTANDARD
 70
     0
  0
APPID
  2
ACCMTRANSPARENCY
 70
     0
  0
APPID
  2
ACAD_DSTYLE_DIMJAG
 70
     0
  0
APPID
  2
ACAD_DSTYLE_DIMTALN
 70
     0
  0
APPID
  2
ACDBATTR
 70
     0
  0
APPID
  2
ACADANNOTATIVE
 70
     0
  0
APPID
  2
DCO15
 70
     0
  0
ENDTAB
  0
TABLE
  2
DIMSTYLE
 70
     1
  0
DIMSTYLE
  2
STANDARD
 70
     0
  3

  4

  5

  6

  7

 40
1.0
 41
0.1875
 42
0.0625
 43
0.38
 44
0.125
 45
0.0
 46
0.0
 47
0.01
 48
0.01
140
0.15625
141
0.09
142
0.0
143
25.3999999999999986
144
1.0
145
0.0
146
1.0
147
0.09
 71
     1
 72
     0
 73
     1
 74
     1
 75
     0
 76
     0
 77
     0
 78
     4
170
     0
171
     2
172
     0
173
     0
174
     0
175
     0
176
     0
177
     0
178
     0
  0
ENDTAB
  0
ENDSEC
  0
SECTION
  2
BLOCKS
  0
BLOCK
  8
0
  2
$MODEL_SPACE
 70
     0
 10
0.0
 20
0.0
 30
0.0
  3
$MODEL_SPACE
  1

  0
ENDBLK
  5
21
  8
0
  0
BLOCK
 67
     1
  8
0
  2
$PAPER_SPACE
 70
     0
 10
0.0
 20
0.0
 30
0.0
  3
$PAPER_SPACE
  1

  0
ENDBLK
  5
1D
 67
     1
  8
0
  0
BLOCK
  8
0
  2
_FILLED
 70
     0
 10
0.0
 20
0.0
 30
0.0
  3
_FILLED
  1

  0
SOLID
  5
215A4
  8
0
  6
BYBLOCK
 62
     0
 10
0.0
 20
0.0
 30
0.0
 11
-1.0
 21
0.1666666667
 31
0.0
 12
-1.0
 22
-0.1666666667
 32
0.0
 13
-1.0
 23
-0.1666666667
 33
0.0
  0
ENDBLK
  5
215A5
  8
0
  6
BYBLOCK
 62
     0
  0
ENDSEC
  0
SECTION
  2
ENTITIES
  0
ATTDEF
  5
20106
  8
DEFPOINTS
 10
4517.4393811011696016
 20
267.0101377135749772
 30
0.0
 40
0.001
  1
K-8271T
  3

  2
MODELNUMBER
 70
     0
1001
ACDBATTR
1070
     0
1070
     1
  0
ATTDEF
  5
20107
  8
DEFPOINTS
 10
4517.439255291513291
 20
267.008470873195904
 30
0.0
 40
0.001
  1
PRELUDE
  3

  2
TRADENAME
 70
     0
1001
ACDBATTR
1070
     0
1070
     1
  0
ATTDEF
  5
20108
  8
DEFPOINTS
 10
4517.4393811011696016
 20
267.0068043802417037
 30
0.0
 40
0.001
  1
BATH
  3

  2
PRODUCT
 70
     0
1001
ACDBATTR
1070
     0
1070
     1
  0
LINE
  5
216F5
  8
0
 10
4508.9730989100498846
 20
271.3946126302902258
 30
0.0
 11
4508.55805414535007
 21
272.7812906664901789
 31
0.0
  0
LINE
  5
216F6
  8
0
 10
4511.2516588370499449
 20
268.5022437263901907
 30
0.0
 11
4511.8176493365499482
 21
268.1622616121900933
 31
0.0
  0
LINE
  5
216F7
  8
0
 10
4511.3768274261501574
 20
267.006709612390182
 30
0.0
 11
4511.7518274261501574
 21
267.006709612390182
 31
0.0
  0
LINE
  5
216F8
  8
0
 10
4512.5073895474497476
 20
267.2167096123902184
 30
0.0
 11
4512.3712653019501886
 21
267.2167096123902184
 31
0.0
  0
LINE
  5
216F9
  8
0
 10
4515.9643268706486197
 20
267.2167096123902184
 30
0.0
 11
4518.9143279817490111
 21
267.2167096123902184
 31
0.0
  0
LINE
  5
216FA
  8
0
 10
4511.6102822607499547
 20
267.4667096123902184
 30
0.0
 11
4512.301225481352958
 21
267.4667096123902184
 31
0.0
  0
LINE
  5
216FB
  8
0
 10
4512.5774293710155689
 20
267.4667096123902184
 30
0.0
 11
4513.5643274261501574
 21
267.4667096123902184
 31
0.0
  0
LINE
  5
216FC
  8
0
 10
4511.3033384135496817
 20
268.4089635077901903
 30
0.0
 11
4511.3768274261501574
 21
267.006709612390182
 31
0.0
  0
LINE
  5
216FD
  8
0
 10
4511.4368274261487386
 20
267.2664601824902206
 30
0.0
 11
4511.4368274261487386
 21
267.006709612390182
 31
0.0
  0
LINE
  5
216FE
  8
0
 10
4511.7878953564495532
 20
268.1066383479902129
 30
0.0
 11
4511.7878953564495532
 21
267.5267096123902206
 31
0.0
  0
LINE
  5
216FF
  8
0
 10
4512.2789721029503198
 20
267.8913293676902185
 30
0.0
 11
4512.3113475454501895
 21
267.2735691236900948
 31
0.0
  0
LINE
  5
21700
  8
0
 10
4511.7635187626501647
 20
267.229793601490087
 30
0.0
 11
4511.7518274261501574
 21
267.006709612390182
 31
0.0
  0
LINE
  5
21701
  8
0
 10
4512.5673073173502416
 20
267.2735693232901895
 30
0.0
 11
4512.590462091649897
 21
267.7153887355901816
 31
0.0
  0
LINE
  5
21702
  8
0
 10
4513.5643274261501574
 20
267.6175287735900952
 30
0.0
 11
4513.5643274261501574
 21
267.4667096123902184
 31
0.0
  0
LINE
  5
21703
  8
0
 10
4503.6597774261890663
 20
283.5507096123901078
 30
0.0
 11
4531.2187774261892628
 21
283.5507096123901078
 31
0.0
  0
ARC
  5
21704
  8
0
 10
4511.1785906543727833
 20
268.4008061249027151
 30
0.0
 40
0.1250141844561458
 50
3.741302795377266
 51
54.2337980336100784
  0
ARC
  5
21705
  8
0
 10
4512.0131761463489966
 20
267.2167096123902184
 30
0.0
 40
0.25
 50
90.0
 51
177.0000000001988099
  0
ARC
  5
21706
  8
0
 10
4512.6828244189000543
 20
267.709308621558705
 30
0.0
 40
0.0925622346196804
 50
75.6575720006907773
 51
176.2337137927794117
  0
ARC
  5
21707
  8
0
 10
4511.8478953564490439
 20
267.5267096123902206
 30
0.0
 40
0.06
 50
180.0
 51
270.0
  0
ARC
  5
21708
  8
0
 10
4512.5073895521500162
 20
267.2767096123902206
 30
0.0
 40
0.06
 50
270.0
 51
356.9998734630984814
  0
ARC
  5
21709
  8
0
 10
4512.3712653001339277
 20
267.2767096123532156
 30
0.0
 40
0.0599999999630017
 50
183.0003167931959922
 51
270.0000034504253108
  0
ARC
  5
2170A
  8
0
 10
4513.8790562671501903
 20
271.8108996142901788
 30
0.0
 40
4.1799629833999994
 50
253.6981976891040915
 51
263.8313018133213177
  0
ARC
  5
2170B
  8
0
 10
4506.7679216892502154
 20
283.038909612390114
 30
0.0
 40
3.149999999999999
 50
159.9823203235019093
 51
170.6493475011764076
  0
ARC
  5
2170C
  8
0
 10
4507.527882781650078
 20
283.3876214662902271
 30
0.0
 40
0.5926855078000001
 50
7.9857037056028224
 51
15.9720321752186702
  0
ARC
  5
2170D
  8
0
 10
4528.1215834118602288
 20
283.0422996743201907
 30
0.0
 40
3.1386448393405511
 50
9.3220677838043411
 51
20.0273599625831089
  0
ARC
  5
2170E
  8
0
 10
4530.8103129306637129
 20
284.0221007607671027
 30
0.0
 40
0.2769537551238889
 50
20.0799740337966384
 51
89.8359600798110023
  0
ARC
  5
2170F
  8
0
 10
4504.0683407405367689
 20
284.0221024472991189
 30
0.0
 40
0.2769520652198589
 50
90.1637965747358265
 51
159.9205576896416119
  0
LINE
  5
21710
  8
0
 10
4513.1930909140637596
 20
267.4667096123902184
 30
0.0
 11
4513.1930909140637596
 21
267.6876069886134815
 31
0.0
  0
LINE
  5
21711
  8
0
 10
4512.7785418173862126
 20
267.4667096123902184
 30
0.0
 11
4512.7785418173862126
 21
267.778411736012572
 31
0.0
  0
ARC
  5
21712
  8
0
 10
4517.4453621767061122
 20
281.7389157662237267
 30
0.0
 40
1.1160265932011251
 50
0.288417627379377
 51
90.3098200566636535
  0
ARC
  5
21713
  8
0
 10
4517.4328369531003773
 20
281.7400319936782012
 30
0.0
 40
1.1149129419378041
 50
89.6664503574958758
 51
179.7665678029619016
  0
ARC
  5
21714
  8
0
 10
4517.4340776568305955
 20
281.7488110157649999
 30
0.0
 40
1.1161524334618771
 50
180.2174843076188893
 51
270.2694889384309249
  0
ARC
  5
21715
  8
0
 10
4517.444119881601182
 20
281.7499284229818954
 30
0.0
 40
1.117267773119162
 50
269.7542323160620867
 51
359.723343338231814
  0
ARC
  5
21716
  8
0
 10
4517.23266505733136
 20
191.8699245793089858
 30
0.0
 40
75.6474094741123935
 50
88.4515803283177462
 51
91.2770905008578666
  0
ARC
  5
21717
  8
0
 10
4515.4893065603419018
 20
266.9631489408712923
 30
0.0
 40
0.5384582707566731
 50
28.0928143860743909
 51
83.8848686059054529
  0
ARC
  5
21718
  8
0
 10
4517.6904794259680784
 20
310.8622856074774745
 30
0.0
 40
43.4167027734171
 50
264.3683628985991163
 51
267.1697208586339229
  0
ARC
  5
21719
  8
0
 10
4513.68885720653725
 20
267.6174976806771042
 30
0.0
 40
0.1245297842679184
 50
168.7161399681253044
 51
179.9856942439795944
  0
ARC
  5
2171A
  8
0
 10
4514.6014501121362628
 20
274.0459347301642765
 30
0.0
 40
6.5282489651240203
 50
248.6618503343495092
 51
253.1190764347539073
  0
ARC
  5
2171B
  8
0
 10
4514.0044927404342161
 20
271.8962029221743819
 30
0.0
 40
4.3314848193038733
 50
204.657141787859814
 51
236.3784982897691975
  0
ARC
  5
2171C
  8
0
 10
4513.8017434736693758
 20
271.7987071700542856
 30
0.0
 40
4.1065501024901536
 50
187.7658034623042909
 51
204.6010298134048924
  0
ARC
  5
2171D
  8
0
 10
-133512.1050446630106308
 20
-17988.6463132231292548
 30
0.0
 40
139224.4638160525937565
 50
7.5363012379158407
 51
7.5413765999339351
  0
ARC
  5
2171E
  8
0
 10
4512.1888242366039776
 20
267.882619514110786
 30
0.0
 40
0.0905676507148686
 50
5.5186404661185193
 51
65.7609206109462292
  0
ARC
  5
2171F
  8
0
 10
4514.1164088807163353
 20
272.4042465857231718
 30
0.0
 40
4.8248038258127464
 50
241.5464449106497966
 51
246.9328797643285895
  0
ARC
  5
21720
  8
0
 10
4511.6547969403973184
 20
268.1048079618548172
 30
0.0
 40
0.1331110013074976
 50
0.7878890902285169
 51
58.6488272520790517
  0
ARC
  5
21721
  8
0
 10
4514.4107169274220723
 20
273.4526205555321781
 30
0.0
 40
5.8724678601805129
 50
215.7748450801026081
 51
237.4562214020276087
  0
ARC
  5
21722
  8
0
 10
4513.5902547520508961
 20
272.8026771671068218
 30
0.0
 40
4.8270875079254036
 50
196.9597985876553139
 51
215.2090222703650113
  0
ARC
  5
21723
  8
0
 10
1962.234674827398976
 20
-489.6292090536080082
 30
0.0
 40
2658.012889762695977
 50
16.6685525055207897
 51
16.9110336038763194
  0
ARC
  5
21724
  8
0
 10
4511.6312086626603559
 20
267.2155171076527154
 30
0.0
 40
0.200945918050899
 50
144.6365796210806138
 51
165.3143105569450029
  0
ARC
  5
21725
  8
0
 10
4512.1614494768718941
 20
266.8331648641382117
 30
0.0
 40
0.8546605780813807
 50
134.5075654157703013
 51
144.3064252437829964
  0
ARC
  5
21726
  8
0
 10
4511.614200840371268
 20
267.3990414911477274
 30
0.0
 40
0.0677814864010338
 50
93.314228400994125
 51
139.9313176956198959
  0
LINE
  5
21727
  8
0
 10
4525.9055559423486557
 20
271.3946126302902258
 30
0.0
 11
4526.3206007070493797
 21
272.7812906664901789
 31
0.0
  0
LINE
  5
21728
  8
0
 10
4523.6269960153485954
 20
268.5022437263901907
 30
0.0
 11
4523.061005515848592
 21
268.1622616121900933
 31
0.0
  0
LINE
  5
21729
  8
0
 10
4523.5018274262492923
 20
267.006709612390182
 30
0.0
 11
4523.1268274262492923
 21
267.006709612390182
 31
0.0
  0
LINE
  5
2172A
  8
0
 10
4522.3712653049497021
 20
267.2167096123902184
 30
0.0
 11
4522.5073895504501706
 21
267.2167096123902184
 31
0.0
  0
LINE
  5
2172B
  8
0
 10
4523.2683725916485855
 20
267.4667096123902184
 30
0.0
 11
4522.5774293710455822
 21
267.4667096123902184
 31
0.0
  0
LINE
  5
2172C
  8
0
 10
4522.3012254813829713
 20
267.4667096123902184
 30
0.0
 11
4521.3143274262492923
 21
267.4667096123902184
 31
0.0
  0
LINE
  5
2172D
  8
0
 10
4523.575316438849768
 20
268.4089635077901903
 30
0.0
 11
4523.5018274262492923
 21
267.006709612390182
 31
0.0
  0
LINE
  5
2172E
  8
0
 10
4523.4418274262498016
 20
267.2664601824902206
 30
0.0
 11
4523.4418274262498016
 21
267.006709612390182
 31
0.0
  0
LINE
  5
2172F
  8
0
 10
4523.090759495948987
 20
268.1066383479902129
 30
0.0
 11
4523.090759495948987
 21
267.5267096123902206
 31
0.0
  0
LINE
  5
21730
  8
0
 10
4522.5996827494500394
 20
267.8913293676902185
 30
0.0
 11
4522.5673073069501697
 21
267.2735691236900948
 31
0.0
  0
LINE
  5
21731
  8
0
 10
4523.115136089749285
 20
267.229793601490087
 30
0.0
 11
4523.1268274262492923
 21
267.006709612390182
 31
0.0
  0
LINE
  5
21732
  8
0
 10
4522.3113475350501176
 20
267.2735693232901895
 30
0.0
 11
4522.2881927607495527
 21
267.7153887355901816
 31
0.0
  0
LINE
  5
21733
  8
0
 10
4521.3143274262492923
 20
267.6175287735900952
 30
0.0
 11
4521.3143274262492923
 21
267.4667096123902184
 31
0.0
  0
ARC
  5
21734
  8
0
 10
4523.7000641980266664
 20
268.4008061249027151
 30
0.0
 40
0.1250141844561458
 50
125.7662019663899002
 51
176.2586972046227061
  0
ARC
  5
21735
  8
0
 10
4522.8654787060504532
 20
267.2167096123902184
 30
0.0
 40
0.25
 50
2.999999999801203
 51
90.0
  0
ARC
  5
21736
  8
0
 10
4522.1958304334993954
 20
267.709308621558705
 30
0.0
 40
0.0925622346196804
 50
3.7662862072206078
 51
95.5977332435808478
  0
ARC
  5
21737
  8
0
 10
4523.0307594959504058
 20
267.5267096123902206
 30
0.0
 40
0.06
 50
270.0
 51
0.0
  0
ARC
  5
21738
  8
0
 10
4522.3712653002494335
 20
267.2767096123902206
 30
0.0
 40
0.06
 50
183.000126536901405
 51
270.0
  0
ARC
  5
21739
  8
0
 10
4522.5073895522646126
 20
267.2767096123532156
 30
0.0
 40
0.0599999999630017
 50
269.9999965495746892
 51
356.9996832068039794
  0
ARC
  5
2173A
  8
0
 10
4520.969262336167958
 20
272.0091022142627253
 30
0.0
 40
4.3802867383299731
 50
276.2846230015600213
 51
292.6008851331670826
  0
ARC
  5
2173B
  8
0
 10
4527.3507720707493718
 20
283.3876214662902271
 30
0.0
 40
0.5926855078000001
 50
164.0279678247813138
 51
172.0142962943972123
  0
LINE
  5
2173C
  8
0
 10
4521.6855639383356902
 20
267.4667096123902184
 30
0.0
 11
4521.6855639383356902
 21
267.6877802030348903
 31
0.0
  0
LINE
  5
2173D
  8
0
 10
4522.1001130350132371
 20
267.4667096123902184
 30
0.0
 11
4522.1001130350132371
 21
267.7773072514943919
 31
0.0
  0
ARC
  5
2173E
  8
0
 10
4521.1897976458621997
 20
267.6174976806771042
 30
0.0
 40
0.1245297842679184
 50
0.014305756020391
 51
11.2838600318730506
  0
ARC
  5
2173F
  8
0
 10
4520.8871294793179914
 20
271.8880034637576273
 30
0.0
 40
4.316279582567323
 50
303.1500109228510951
 51
335.3699646076095746
  0
ARC
  5
21740
  8
0
 10
4521.0769113789965559
 20
271.7987071699536727
 30
0.0
 40
4.10655010220575
 50
335.3989701863266077
 51
352.2341965415918139
  0
ARC
  5
21741
  8
0
 10
142546.983699515403714
 20
-17988.6463132231292548
 30
0.0
 40
139224.4638160525937565
 50
172.4586234000661022
 51
172.4636987620841069
  0
ARC
  5
21742
  8
0
 10
4522.6898306157945626
 20
267.882619514110786
 30
0.0
 40
0.0905676507148686
 50
114.2390793890537992
 51
174.4813595338814878
  0
ARC
  5
21743
  8
0
 10
4520.7622459716831145
 20
272.4042465857231718
 30
0.0
 40
4.8248038258127464
 50
293.067120235671382
 51
298.453555089350175
  0
ARC
  5
21744
  8
0
 10
4523.2238579120021313
 20
268.1048079618548172
 30
0.0
 40
0.1331110013074976
 50
121.3511727479208986
 51
179.2121109097714111
  0
ARC
  5
21745
  8
0
 10
4520.4679379249773774
 20
273.4526205555321781
 30
0.0
 40
5.8724678601805129
 50
302.5437785979723913
 51
324.2251549198974203
  0
ARC
  5
21746
  8
0
 10
4521.2884001003476442
 20
272.8026771671068218
 30
0.0
 40
4.8270875079254036
 50
324.7909777296350171
 51
343.0402014123445724
  0
ARC
  5
21747
  8
0
 10
7072.6439800250000189
 20
-489.6292090536080082
 30
0.0
 40
2658.012889762695977
 50
163.088966396123709
 51
163.3314474944791925
  0
ARC
  5
21748
  8
0
 10
4523.2474461897381843
 20
267.2155171076527154
 30
0.0
 40
0.200945918050899
 50
14.6856894430550202
 51
35.3634203789193933
  0
ARC
  5
21749
  8
0
 10
4522.7172053755266461
 20
266.8331648641382117
 30
0.0
 40
0.8546605780813807
 50
35.6935747562169823
 51
45.4924345842296418
  0
ARC
  5
2174A
  8
0
 10
4523.2644540120281818
 20
267.3990414911477274
 30
0.0
 40
0.0677814864010338
 50
40.0686823043801112
 51
86.6857715990058892
  0
ARC
  5
2174B
  8
0
 10
4517.1881754264313713
 20
310.8622856074774745
 30
0.0
 40
43.4167027734171
 50
272.8302791413660202
 51
275.6316371014008837
  0
ARC
  5
2174C
  8
0
 10
4519.3893482920566385
 20
266.9631489408712923
 30
0.0
 40
0.5384582707566731
 50
96.1151313940945329
 51
151.9071856139140948
  0
LINE
  5
2174E
  8
0
 10
4504.0675489939485487
 20
284.2990533807997053
 30
0.0
 11
4530.8111058583463091
 21
284.2990533807997053
 31
0.0
  0
ENDSEC
  0
EOF
