  0
SECTION
  2
HEADER
  9
$ACADVER
  1
AC1009
  9
$INSBASE
 10
31.8215427958906112
 20
-86.2529260545559282
 30
0.0
  9
$EXTMIN
 10
-1.6480316626796701
 20
-86.2544843617329491
 30
-0.0015258207003583
  9
$EXTMAX
 10
65.290287558343266
 20
-67.1158227749592697
 30
0.0000000349246037
  9
$LIMMIN
 10
0.0
 20
0.0
  9
$LIMMAX
 10
11.6929133858000007
 20
8.2677165353999982
  9
$ORTHOMODE
 70
     0
  9
$REGENMODE
 70
     1
  9
$FILLMODE
 70
     1
  9
$QTEXTMODE
 70
     0
  9
$MIRRTEXT
 70
     0
  9
$DRAGMODE
 70
     2
  9
$LTSCALE
 40
0.6431102362
  9
$OSMODE
 70
  4095
  9
$ATTMODE
 70
     1
  9
$TEXTSIZE
 40
0.2
  9
$TRACEWID
 40
0.05
  9
$TEXTSTYLE
  7
STANDARD
  9
$CLAYER
  8
0
  9
$CELTYPE
  6
BYLAYER
  9
$CECOLOR
 62
   256
  9
$DIMSCALE
 40
1.0
  9
$DIMASZ
 40
0.1875
  9
$DIMEXO
 40
0.0625
  9
$DIMDLI
 40
0.4443307087
  9
$DIMRND
 40
0.0
  9
$DIMDLE
 40
0.0
  9
$DIMEXE
 40
0.125
  9
$DIMTP
 40
0.01
  9
$DIMTM
 40
0.01
  9
$DIMTXT
 40
1.0
  9
$DIMCEN
 40
0.1052362205
  9
$DIMTSZ
 40
0.0
  9
$DIMTOL
 70
     1
  9
$DIMLIM
 70
     0
  9
$DIMTIH
 70
     1
  9
$DIMTOH
 70
     1
  9
$DIMSE1
 70
     0
  9
$DIMSE2
 70
     0
  9
$DIMTAD
 70
     0
  9
$DIMZIN
 70
     0
  9
$DIMBLK
  1

  9
$DIMASO
 70
     1
  9
$DIMSHO
 70
     1
  9
$DIMPOST
  1
\X
  9
$DIMAPOST
  1

  9
$DIMALT
 70
     1
  9
$DIMALTD
 70
     2
  9
$DIMALTF
 40
25.3999999999999986
  9
$DIMLFAC
 40
1.0
  9
$DIMTOFL
 70
     0
  9
$DIMTVP
 40
0.0
  9
$DIMTIX
 70
     0
  9
$DIMSOXD
 70
     0
  9
$DIMSAH
 70
     0
  9
$DIMBLK1
  1

  9
$DIMBLK2
  1

  9
$DIMSTYLE
  2
STANDARD
  9
$DIMCLRD
 70
     0
  9
$DIMCLRE
 70
     0
  9
$DIMCLRT
 70
     0
  9
$DIMTFAC
 40
1.0
  9
$DIMGAP
 40
0.09
  9
$LUNITS
 70
     2
  9
$LUPREC
 70
     4
  9
$SKETCHINC
 40
0.1
  9
$FILLETRAD
 40
0.0
  9
$AUNITS
 70
     0
  9
$AUPREC
 70
     0
  9
$MENU
  1
.
  9
$ELEVATION
 40
0.0
  9
$PELEVATION
 40
0.0
  9
$THICKNESS
 40
0.0
  9
$LIMCHECK
 70
     0
  9
$BLIPMODE
 70
     0
  9
$CHAMFERA
 40
0.0
  9
$CHAMFERB
 40
0.0
  9
$SKPOLY
 70
     0
  9
$TDCREATE
 40
2458172.4620254631154239
  9
$TDUPDATE
 40
2459111.3476736121810973
  9
$TDINDWG
 40
0.1526795486
  9
$TDUSRTIMER
 40
0.1526795486
  9
$USRTIMER
 70
     1
  9
$ANGBASE
 50
0.0
  9
$ANGDIR
 70
     0
  9
$PDMODE
 70
     0
  9
$PDSIZE
 40
0.3125
  9
$PLINEWID
 40
0.0
  9
$COORDS
 70
     1
  9
$SPLFRAME
 70
     0
  9
$SPLINETYPE
 70
     6
  9
$SPLINESEGS
 70
     8
  9
$ATTDIA
 70
     1
  9
$ATTREQ
 70
     1
  9
$HANDLING
 70
     1
  9
$HANDSEED
  5
8E74
  9
$SURFTAB1
 70
     6
  9
$SURFTAB2
 70
     6
  9
$SURFTYPE
 70
     6
  9
$SURFU
 70
     6
  9
$SURFV
 70
     6
  9
$UCSNAME
  2

  9
$UCSORG
 10
0.0
 20
0.0
 30
0.0
  9
$UCSXDIR
 10
1.0
 20
0.0
 30
0.0
  9
$UCSYDIR
 10
0.0
 20
1.0
 30
0.0
  9
$PUCSNAME
  2

  9
$PUCSORG
 10
0.0
 20
0.0
 30
0.0
  9
$PUCSXDIR
 10
1.0
 20
0.0
 30
0.0
  9
$PUCSYDIR
 10
0.0
 20
1.0
 30
0.0
  9
$USERI1
 70
     0
  9
$USERI2
 70
     0
  9
$USERI3
 70
     0
  9
$USERI4
 70
     0
  9
$USERI5
 70
     0
  9
$USERR1
 40
0.0
  9
$USERR2
 40
0.0
  9
$USERR3
 40
0.0
  9
$USERR4
 40
0.0
  9
$USERR5
 40
0.0
  9
$WORLDVIEW
 70
     1
  9
$SHADEDGE
 70
     3
  9
$SHADEDIF
 70
    70
  9
$TILEMODE
 70
     1
  9
$MAXACTVP
 70
    64
  9
$PLIMCHECK
 70
     0
  9
$PEXTMIN
 10
1.0000000000000000E+20
 20
1.0000000000000000E+20
 30
1.0000000000000000E+20
  9
$PEXTMAX
 10
-1.0000000000000000E+20
 20
-1.0000000000000000E+20
 30
-1.0000000000000000E+20
  9
$PLIMMIN
 10
0.0
 20
0.0
  9
$PLIMMAX
 10
12.0
 20
9.0
  9
$UNITMODE
 70
     0
  9
$VISRETAIN
 70
     1
  9
$PLINEGEN
 70
     0
  9
$PSLTSCALE
 70
     1
  0
ENDSEC
  0
SECTION
  2
TABLES
  0
TABLE
  2
VPORT
 70
     1
  0
VPORT
  2
*ACTIVE
 70
     0
 10
0.0
 20
0.0
 11
1.0
 21
1.0
 12
-92.7900306522408442
 22
-81.9974277387239141
 13
0.0
 23
0.0
 14
1.0
 24
1.0
 15
0.0
 25
0.0
 16
0.0
 26
0.0
 36
30.6214257250603907
 17
124.6111586000725993
 27
5.3122741703778242
 37
0.0
 40
25.3523951003790806
 41
2.6486111111111108
 42
50.0
 43
0.0
 44
0.0
 50
0.0
 51
0.0
 71
     0
 72
   100
 73
     1
 74
     1
 75
     0
 76
     0
 77
     0
 78
     0
  0
ENDTAB
  0
TABLE
  2
LTYPE
 70
     2
  0
LTYPE
  2
CONTINUOUS
 70
     0
  3
Solid line
 72
    65
 73
     0
 40
0.0
  0
LTYPE
  2
PHANTOM2
 70
     0
  3
___ _ _ ___ _ _ ___ _ _ ___ _ _
 72
    65
 73
     6
 40
1.25
 49
0.625
 49
-0.125
 49
0.125
 49
-0.125
 49
0.125
 49
-0.125
  0
ENDTAB
  0
TABLE
  2
LAYER
 70
     2
  0
LAYER
  2
0
 70
     0
 62
   255
  6
CONTINUOUS
  0
LAYER
  2
DEFPOINTS
 70
     0
 62
     7
  6
CONTINUOUS
  0
ENDTAB
  0
TABLE
  2
STYLE
 70
     1
  0
STYLE
  2
STANDARD
 70
     0
 40
0.0
 41
0.8
 50
0.0
 71
     0
 42
0.2
  3
txt
  4

  0
ENDTAB
  0
TABLE
  2
VIEW
 70
     0
  0
ENDTAB
  0
TABLE
  2
UCS
 70
     0
  0
ENDTAB
  0
TABLE
  2
APPID
 70
     9
  0
APPID
  2
ACAD
 70
     0
  0
APPID
  2
ACAD_MLEADERVER
 70
     0
  0
APPID
  2
ACAD_EXEMPT_FROM_CAD_STANDARDS
 70
     0
  0
APPID
  2
ACAD_DSTYLE_DIMJAG
 70
     0
  0
APPID
  2
ACAD_DSTYLE_DIMTALN
 70
     0
  0
APPID
  2
ACAD_NAV_VCDISPLAY
 70
     0
  0
APPID
  2
ACAECLAYERSTANDARD
 70
     0
  0
APPID
  2
ACCMTRANSPARENCY
 70
     0
  0
APPID
  2
ACDBATTR
 70
     0
  0
ENDTAB
  0
TABLE
  2
DIMSTYLE
 70
     1
  0
DIMSTYLE
  2
STANDARD
 70
     0
  3

  4

  5

  6

  7

 40
1.0
 41
0.1875
 42
0.0625
 43
0.38
 44
0.125
 45
0.0
 46
0.0
 47
0.01
 48
0.01
140
0.15625
141
0.09
142
0.0
143
25.3999999999999986
144
1.0
145
0.0
146
1.0
147
0.09
 71
     1
 72
     0
 73
     1
 74
     1
 75
     0
 76
     0
 77
     0
 78
     4
170
     0
171
     2
172
     0
173
     0
174
     0
175
     0
176
     0
177
     0
178
     0
  0
ENDTAB
  0
ENDSEC
  0
SECTION
  2
BLOCKS
  0
BLOCK
  8
0
  2
$MODEL_SPACE
 70
     0
 10
0.0
 20
0.0
 30
0.0
  3
$MODEL_SPACE
  1

  0
ENDBLK
  5
21
  8
0
  0
BLOCK
 67
     1
  8
0
  2
$PAPER_SPACE
 70
     0
 10
0.0
 20
0.0
 30
0.0
  3
$PAPER_SPACE
  1

  0
ENDBLK
  5
1D
 67
     1
  8
0
  0
BLOCK
  8
0
  2
_FILLED
 70
     0
 10
0.0
 20
0.0
 30
0.0
  3
_FILLED
  1

  0
SOLID
  5
75BB
  8
0
  6
BYBLOCK
 62
     0
 10
0.0
 20
0.0
 30
0.0
 11
-1.0
 21
0.1666666667
 31
0.0
 12
-1.0
 22
-0.1666666667
 32
0.0
 13
-1.0
 23
-0.1666666667
 33
0.0
  0
ENDBLK
  5
75BC
  8
0
  6
BYBLOCK
 62
     0
  0
ENDSEC
  0
SECTION
  2
ENTITIES
  0
ATTDEF
  5
816B
  8
DEFPOINTS
 10
31.8227603811925093
 20
-86.249021702339661
 30
0.0
 40
0.001
  1
K-8277T
  3

  2
MODELNUMBER
 70
     0
1001
ACDBATTR
1070
     0
1070
     1
  0
ATTDEF
  5
816C
  8
DEFPOINTS
 10
31.8227603811925093
 20
-86.2506883690063262
 30
0.0
 40
0.001
  1
BIOVE
  3

  2
TRADENAME
 70
     0
1001
ACDBATTR
1070
     0
1070
     1
  0
ATTDEF
  5
816D
  8
DEFPOINTS
 10
31.8227603811925093
 20
-86.2523550356729913
 30
0.0
 40
0.001
  1
BATH
  3

  2
PRODUCT
 70
     0
1001
ACDBATTR
1070
     0
1070
     1
  0
LINE
  5
8806
  8
0
 10
64.5774453308941361
 20
-67.119067786855922
 30
0.0
 11
-0.9343656931049864
 21
-67.119067786855922
 31
0.0
  0
ARC
  5
8807
  8
0
 10
-0.9343625414558403
 20
-67.7490104444924555
 30
0.0
 40
0.6299426576444139
 50
90.0002866549717453
 51
119.3269697039634991
  0
ARC
  5
8808
  8
0
 10
-0.8566381227630017
 20
-67.8873733513039355
 30
0.0
 40
0.7886416784784518
 50
119.3265336119798974
 51
175.6626399683285911
  0
LINE
  5
8809
  8
0
 10
-1.643021156113796
 20
-67.8277292242559326
 30
0.0
 11
65.286106747895019
 21
-67.8277292041559292
 31
0.0
  0
ARC
  5
880A
  8
0
 10
64.5009098303942494
 20
-67.8866216729474843
 30
0.0
 40
0.7874023889556492
 50
4.2893492440769094
 51
60.9222579233161809
  0
ARC
  5
880B
  8
0
 10
64.5774440594359049
 20
-67.7489910116611327
 30
0.0
 40
0.6299232248064975
 50
60.9222579233161809
 51
89.999884379477578
  0
ARC
  5
880C
  8
0
 10
0.4198680731061977
 20
-71.4250089897312819
 30
0.0
 40
3.597369840966071
 50
69.2465321865676344
 51
89.5945402033619018
  0
ARC
  5
880D
  8
0
 10
1.0623311011930769
 20
-69.8394789387374715
 30
0.0
 40
1.8874654844775429
 50
43.4200032213584706
 51
70.4288946258015471
  0
ARC
  5
880E
  8
0
 10
-2.514989571304425
 20
-73.4024612630328761
 30
0.0
 40
6.9359832760338076
 50
26.7380373827409699
 51
44.486335791775538
  0
ARC
  5
880F
  8
0
 10
-339.4676157655339921
 20
-234.6269466435944082
 30
0.0
 40
380.472260080885178
 50
23.6280659990676014
 51
25.5913883019602508
  0
ARC
  5
8810
  8
0
 10
12.4647110071732996
 20
-80.6534636303751853
 30
0.0
 40
3.6686126670955459
 50
203.8096315179780902
 51
225.178560051977712
  0
ARC
  5
8811
  8
0
 10
12.0889392060682397
 20
-80.8847567821975275
 30
0.0
 40
3.2413262311029838
 50
227.0083882398560036
 51
270.5084808907236038
  0
LINE
  5
8812
  8
0
 10
12.1177045152855296
 20
-84.1259553712108357
 30
0.0
 11
14.2183805161850607
 21
-84.1883060484110359
 31
0.0
  0
LINE
  5
8813
  8
0
 10
14.2175993987950093
 20
-84.1366108108559132
 30
0.0
 11
14.2228020176363703
 21
-84.4809260545559226
 31
0.0
  0
ARC
  5
8814
  8
0
 10
15.14591164774302
 20
-79.9563143269584202
 30
0.0
 40
4.2302046665415096
 50
265.2623757140584075
 51
268.7305393932865059
  0
ARC
  5
8815
  8
0
 10
15.7234273174197003
 20
-59.8329643833040521
 30
0.0
 40
24.3617652681615695
 50
268.4211440929400965
 51
270.7858949022416937
  0
ARC
  5
8816
  8
0
 10
19.13757194331302
 20
-45.9160852565200699
 30
0.0
 40
38.3742006799500004
 50
266.2701060984200012
 51
268.9358899397972777
  0
ARC
  5
8817
  8
0
 10
141.9467441811997901
 20
4005.554805590631986
 30
0.0
 40
4091.7033593823521187
 50
268.2700713946335895
 51
268.6870596728329019
  0
ARC
  5
8818
  8
0
 10
48.4743276439296906
 20
-89.5453855865700774
 30
0.0
 40
4.4799084311857129
 50
86.7363150163923535
 51
93.6000388466989648
  0
ARC
  5
8819
  8
0
 10
49.3895484264493021
 20
-74.8541873578149932
 30
0.0
 40
10.2398589366633299
 50
266.3060184251718283
 51
267.0513879641378026
  0
ARC
  5
881A
  8
0
 10
48.9794001772621996
 20
-82.6723670741907455
 30
0.0
 40
2.4109432505292681
 50
267.2281021352520156
 51
270.2034845083861114
  0
ARC
  5
881B
  8
0
 10
48.8146378579258027
 20
-58.9637190491455172
 30
0.0
 40
26.1201511401201785
 50
270.3801986795003245
 51
272.5764336851702865
  0
ARC
  5
881C
  8
0
 10
52.3199943413638309
 20
-62.3834159352285624
 30
0.0
 40
22.7487285055228803
 50
265.6233933233547759
 51
268.1479472531510169
  0
ARC
  5
881D
  8
0
 10
51.6766111149225225
 20
-82.2804213595747029
 30
0.0
 40
2.8413236813745071
 50
268.1479472531507895
 51
273.383317388193575
  0
ARC
  5
881E
  8
0
 10
51.9778047346981822
 20
-89.2120578426775523
 30
0.0
 40
4.097440810793648
 50
84.5663305583947249
 51
91.8672541517055379
  0
ARC
  5
881F
  8
0
 10
55.0731807160602216
 20
214.3297051133953914
 30
0.0
 40
299.4749721729543239
 50
269.4820157731717813
 51
270.0739465466716069
  0
ARC
  5
8820
  8
0
 10
55.0186674947171213
 20
-93.0937922581231163
 30
0.0
 40
7.9609996454461989
 50
76.8677003177613614
 51
86.8243368065451051
  0
ARC
  5
8821
  8
0
 10
56.8498624812210096
 20
-81.3232536347485109
 30
0.0
 40
4.0177974532827889
 50
269.6798047628910808
 51
288.3201014431547833
  0
LINE
  5
8822
  8
0
 10
58.9475240706950174
 20
-85.4261544009559231
 30
0.0
 11
59.3637882121950184
 21
-85.4261544009559231
 31
0.0
  0
ARC
  5
8823
  8
0
 10
59.3637882121950184
 20
-85.3867843222221268
 30
0.0
 40
0.039370078733795
 50
269.9999999999996021
 51
354.4999999842490865
  0
LINE
  5
8824
  8
0
 10
59.4029770388950169
 20
-85.3905577770559319
 30
0.0
 11
59.6395831965133496
 21
-82.9333088856644025
 31
0.0
  0
ARC
  5
8825
  8
0
 10
54.6969993992659482
 20
-81.4014694888496422
 30
0.0
 40
5.1745208986384688
 50
332.9704307807764962
 51
342.7803879349070257
  0
ARC
  5
8826
  8
0
 10
56.876493993234817
 20
-82.4951793640463649
 30
0.0
 40
2.7360980058045521
 50
290.8350682216175755
 51
332.6256114272250102
  0
LINE
  5
8827
  8
0
 10
57.8496667641887825
 20
-85.0523588757821756
 30
0.0
 11
57.8520973827950229
 21
-85.0635988937559233
 31
0.0
  0
ARC
  5
8828
  8
0
 10
57.9290704521510378
 20
-85.2845287862092363
 30
0.0
 40
0.2339548459617176
 50
74.7412134498509317
 51
109.2085899445939958
  0
ARC
  5
8829
  8
0
 10
57.9271108840839872
 20
-85.2917120575820462
 30
0.0
 40
0.2414006027818698
 50
39.7317983424175907
 51
74.7412134498509317
  0
ARC
  5
882A
  8
0
 10
57.9360862670419579
 20
-85.2842521326534779
 30
0.0
 40
0.2297297853648261
 50
5.1556669838860598
 51
39.7317983424175907
  0
LINE
  5
882B
  8
0
 10
58.1648866180950108
 20
-85.2636081591559361
 30
0.0
 11
58.1771104725290797
 21
-85.3905577760523187
 31
0.0
  0
ARC
  5
882C
  8
0
 10
58.2162992992950166
 20
-85.3867843222559344
 30
0.0
 40
0.0393700786999991
 50
185.4999985037617023
 51
270.0
  0
LINE
  5
882D
  8
0
 10
58.2162992992950166
 20
-85.4261544009559231
 30
0.0
 11
58.5931933620950218
 21
-85.4261544009559231
 31
0.0
  0
ARC
  5
882E
  8
0
 10
58.5931933620950218
 20
-85.3867843222559344
 30
0.0
 40
0.0393700787000095
 50
270.0000000000006253
 51
359.9999999999852776
  0
LINE
  5
882F
  8
0
 10
58.6325634407950176
 20
-85.3867843222559344
 30
0.0
 11
58.6325634407950886
 21
-85.0915132601403741
 31
0.0
  0
ARC
  5
8830
  8
0
 10
58.7703587165066779
 20
-85.0915132601403883
 30
0.0
 40
0.1377952757115821
 50
0.0037659207952776
 51
179.9999999999861018
  0
LINE
  5
8831
  8
0
 10
58.9081539919205994
 20
-85.0915042031714819
 30
0.0
 11
58.9081734000087707
 21
-85.3867843216158917
 31
0.0
  0
ARC
  5
8832
  8
0
 10
58.9475460732875476
 20
-85.3867817337399515
 30
0.0
 40
0.0393726733638245
 50
180.0037659207935974
 51
269.9679814539314862
  0
ARC
  5
8833
  8
0
 10
63.0217722977669865
 20
-67.3529001474042701
 30
0.0
 40
0.6445216825938485
 50
291.9441939699295858
 51
312.5476343381110951
  0
ARC
  5
8834
  8
0
 10
64.3787806215907636
 20
-70.7210550563195568
 30
0.0
 40
2.9867231564905499
 50
111.9441939699295006
 51
134.1368007859130955
  0
ARC
  5
8835
  8
0
 10
65.1327832241187394
 20
-71.4981260512801811
 30
0.0
 40
4.0694785563053264
 50
134.1368007859124987
 51
150.0982474500005139
  0
ARC
  5
8836
  8
0
 10
59.9315396941627085
 20
-68.5070666669384138
 30
0.0
 40
1.930468985012715
 50
298.820664299095597
 51
330.0982474500003718
  0
ARC
  5
8837
  8
0
 10
63.662789319430189
 20
-69.0062333807314161
 30
0.0
 40
1.429669347286691
 50
162.551365588058502
 51
170.9970740936159075
  0
LINE
  5
8838
  8
0
 10
62.2507329970950209
 20
-68.7825117118559319
 30
0.0
 11
60.0734811907827222
 21
-82.5245966599616168
 31
0.0
  0
ARC
  5
8839
  8
0
 10
56.2137263471511091
 20
-82.0068978410041751
 30
0.0
 40
3.8943188775558268
 50
328.4559618106667926
 51
352.360660239726883
  0
LINE
  5
883A
  8
0
 10
14.2228020176363703
 20
-84.4809260545559226
 30
0.0
 11
16.0626094436916702
 21
-84.4809260545559226
 31
0.0
  0
LINE
  5
883B
  8
0
 10
16.6364701937930199
 20
-84.4809260545559226
 30
0.0
 11
18.4754701937950188
 21
-84.4809260545559226
 31
0.0
  0
LINE
  5
883C
  8
0
 10
18.4754701937950188
 20
-84.4809260545559226
 30
0.0
 11
18.4788849027745989
 21
-84.2852975070456836
 31
0.0
  0
LINE
  5
883D
  8
0
 10
16.0563748523950096
 20
-84.1237465581559292
 30
0.0
 11
16.6424203743950088
 21
-84.1400404358559229
 31
0.0
  0
LINE
  5
883E
  8
0
 10
16.6424203743950088
 20
-84.1400404358559229
 30
0.0
 11
16.6172172571950192
 21
-85.5839260545559171
 31
0.0
  0
LINE
  5
883F
  8
0
 10
16.6172172571950192
 20
-85.5839260545559171
 30
0.0
 11
16.0818623802950107
 21
-85.5839260545559171
 31
0.0
  0
LINE
  5
8840
  8
0
 10
16.0818623802950107
 20
-85.5839260545559171
 30
0.0
 11
16.0563748523950096
 21
-84.1237465581559292
 31
0.0
  0
LINE
  5
8841
  8
0
 10
48.1504637767950214
 20
-85.076662112355919
 30
0.0
 11
48.19302883469215
 21
-85.0743174220558132
 31
0.0
  0
LINE
  5
8842
  8
0
 10
48.1504634942950105
 20
-85.076654023855923
 30
0.0
 11
48.1626603423950073
 21
-85.4259260545559442
 31
0.0
  0
LINE
  5
8843
  8
0
 10
48.1626603423950073
 20
-85.4259260545559442
 30
0.0
 11
50.0016603423754802
 21
-85.4259260545559442
 31
0.0
  0
LINE
  5
8844
  8
0
 10
50.5714192951378365
 20
-85.4259260545559442
 30
0.0
 11
52.4104192950950107
 21
-85.4259260545559442
 31
0.0
  0
LINE
  5
8845
  8
0
 10
52.4104192950950107
 20
-85.4259260545559442
 30
0.0
 11
52.4204793390950172
 21
-85.1378440881559442
 31
0.0
  0
LINE
  5
8846
  8
0
 10
52.4204793390950172
 20
-85.1378440881559442
 30
0.0
 11
52.3658050563956081
 21
-85.1330289204559847
 31
0.0
  0
LINE
  5
8847
  8
0
 10
50.5425398187950208
 20
-86.2529260545559282
 30
0.0
 11
50.0305398187950203
 21
-86.2529260545559282
 31
0.0
  0
LINE
  5
8848
  8
0
 10
50.0305398187950203
 20
-86.2529260545559282
 30
0.0
 11
49.9855469300991615
 21
-84.9644983001559666
 31
0.0
  0
LINE
  5
8849
  8
0
 10
49.9855469300991615
 20
-84.9644983001559666
 30
0.0
 11
50.5872426235950101
 21
-84.9728052126559135
 31
0.0
  0
LINE
  5
884A
  8
0
 10
50.5872426235950101
 20
-84.9728052126559135
 30
0.0
 11
50.5425398187950208
 21
-86.2529260545559282
 31
0.0
  0
LINE
  5
884B
  8
0
 10
52.4140515015267923
 20
-85.3219132717848225
 30
0.0
 11
56.8274092931706392
 21
-85.3409883484836058
 31
0.0
  0
ARC
  5
884C
  8
0
 10
57.0634314321940934
 20
-85.9388108300403815
 30
0.0
 40
0.6046145445307199
 50
96.9036403228303982
 51
148.5133664388046952
  0
LINE
  5
884D
  8
0
 10
56.5478391034214809
 20
-85.6230208714145249
 30
0.0
 11
53.5519598942950168
 21
-85.6230047946559267
 31
0.0
  0
ARC
  5
884E
  8
0
 10
53.0088243213360499
 20
-85.9648251736465454
 30
0.0
 40
0.6417456054440386
 50
32.1841086018636275
 51
85.9530789404881261
  0
ARC
  5
884F
  8
0
 10
59.7587984477929908
 20
-68.0154759811276222
 30
0.0
 40
0.1992409733717758
 50
109.5568069979348991
 51
150.7299699863152114
  0
ARC
  5
8850
  8
0
 10
63.2859367104457675
 20
-70.3748262685924999
 30
0.0
 40
4.4421455399453702
 50
146.4229368563296134
 51
162.4242678370530939
  0
ARC
  5
8851
  8
0
 10
121.6997640609350952
 20
-81.0360053919701642
 30
0.0
 40
63.7880035271274792
 50
169.1543883493835096
 51
172.0156320731888968
  0
LINE
  5
8852
  8
0
 10
58.5301212715019687
 20
-72.1756654531052959
 30
0.0
 11
57.1898410567774107
 21
-80.9340919316840939
 31
0.0
  0
ARC
  5
8853
  8
0
 10
53.8768424790772116
 20
-80.1965451854999287
 30
0.0
 40
3.3941029416696238
 50
273.1752507032140898
 51
347.4493602607839193
  0
ARC
  5
8854
  8
0
 10
14.2512809254122601
 20
-84.2300980159965036
 30
0.0
 40
0.0993695263159937
 50
85.3066672807582052
 51
109.813053619800499
  0
ARC
  5
8855
  8
0
 10
14.2511234986531097
 20
-86.2216561458035073
 30
0.0
 40
2.0906108902372389
 50
84.3649291055045012
 51
89.7728538531509486
  0
ARC
  5
8856
  8
0
 10
16.6346931160081795
 20
-62.0643983089458331
 30
0.0
 40
22.1839541999389382
 50
264.3649291055044728
 51
265.2470116297336062
  0
ARC
  5
8857
  8
0
 10
6.8713604070962218
 20
-67.9817793375418944
 30
0.0
 40
0.1589806854918968
 50
31.7126377962580293
 51
75.6931885323458147
  0
ARC
  5
8858
  8
0
 10
-9.9882678700469185
 20
-78.3996359347127196
 30
0.0
 40
19.9776285132994289
 50
28.1719851431845711
 51
31.7126377962580293
  0
LINE
  5
8859
  8
0
 10
7.6226989169950228
 20
-68.9678020811559236
 30
0.0
 11
11.6761648728961003
 21
-77.9177966217583275
 31
0.0
  0
ARC
  5
885A
  8
0
 10
-199.8245449644188909
 20
-174.4711186371062013
 30
0.0
 40
232.4975145112042014
 50
23.5261597586827413
 51
24.5374258634700695
  0
ARC
  5
885B
  8
0
 10
14.7592305898953402
 20
-81.0509180454293556
 30
0.0
 40
1.5399410589106539
 50
203.5261597586826952
 51
263.061316628660677
  0
ARC
  5
885C
  8
0
 10
15.1906820978992307
 20
-78.6771354747262421
 30
0.0
 40
3.9509958708143111
 50
261.0085838632388118
 51
268.6385725106558766
  0
LINE
  5
885D
  8
0
 10
15.0968097693950103
 20
-82.6270160244559264
 30
0.0
 11
54.0648425761950122
 21
-83.5854374443559038
 31
0.0
  0
ARC
  5
885E
  8
0
 10
0.5228716623904788
 20
-73.6077895046528141
 30
0.0
 40
5.8796494065019971
 50
62.2985324429805516
 51
79.439541107410605
  0
ARC
  5
885F
  8
0
 10
0.4222671392643989
 20
-73.7994009586561788
 30
0.0
 40
6.096066178908182
 50
45.5943146387587035
 51
62.2985324429805516
  0
ARC
  5
8860
  8
0
 10
6.94003942516877
 20
-67.1449920663457362
 30
0.0
 40
3.218573549871643
 50
225.5943146387587035
 51
239.0521088604380964
  0
ARC
  5
8861
  8
0
 10
4.9196065079732838
 20
-70.5144947705764054
 30
0.0
 40
0.7102554928209623
 50
26.254293567905961
 51
59.0521088604381177
  0
ARC
  5
8862
  8
0
 10
7.1769868644741663
 20
-69.4173795243336258
 30
0.0
 40
1.7996274531008181
 50
205.7885326579979051
 51
213.0202460610194919
  0
ARC
  5
8863
  8
0
 10
5.9382870142653266
 20
-70.1418424873890132
 30
0.0
 40
0.3723998211536538
 50
223.4733950113669891
 51
241.9661267142656129
  0
ARC
  5
8864
  8
0
 10
5.8064509337571764
 20
-70.4082619477364204
 30
0.0
 40
0.0757954574718737
 50
235.2626566882063912
 51
352.042374663106898
  0
ARC
  5
8865
  8
0
 10
4.8997698491686128
 20
-70.293441083923355
 30
0.0
 40
0.9897121629966298
 50
352.7258751176984788
 51
14.3227943253929304
  0
ARC
  5
8866
  8
0
 10
-0.5948978517251434
 20
-72.0909090960510355
 30
0.0
 40
6.769061419206003
 50
17.5604624546076096
 51
31.0332918311292403
  0
ARC
  5
8867
  8
0
 10
3.0247195038739099
 20
-69.8996735655548491
 30
0.0
 40
2.537892932896487
 50
30.7723979326137709
 51
54.7263611959296128
  0
ARC
  5
8868
  8
0
 10
62.9783836027323289
 20
-69.8213417468142836
 30
0.0
 40
2.3165886885134142
 50
120.6181036509128006
 51
149.4482668913682915
  0
ARC
  5
8869
  8
0
 10
63.6937582415105865
 20
-70.2436001148498832
 30
0.0
 40
3.1472889973993579
 50
149.4482668913682915
 51
163.9137350248578002
  0
ARC
  5
886A
  8
0
 10
63.3392724417936321
 20
-70.141375097217832
 30
0.0
 40
2.7783579246623931
 50
163.9137350248578002
 51
180.8821419087626055
  0
ARC
  5
886B
  8
0
 10
62.0013975653772889
 20
-70.1619750221925784
 30
0.0
 40
1.4403244639989481
 50
180.8821419087626055
 51
188.8400525267327907
  0
ARC
  5
886C
  8
0
 10
60.7963204622407787
 20
-70.3493935037973159
 30
0.0
 40
0.2207603977232529
 50
188.8400525267327907
 51
210.7721812359843909
  0
ARC
  5
886D
  8
0
 10
60.6448488517552065
 20
-70.4395890562940536
 30
0.0
 40
0.0444683489142212
 50
210.7721812359824014
 51
305.5010084641832009
  0
ARC
  5
886E
  8
0
 10
60.4349565103374999
 20
-70.2427857432454203
 30
0.0
 40
0.3314414187994938
 50
315.3313420302079066
 51
340.950791296767477
  0
ARC
  5
886F
  8
0
 10
60.9515307500676897
 20
-70.3839550178790461
 30
0.0
 40
0.2059430683844841
 50
115.7189544713090044
 51
170.7811248627893974
  0
ENDSEC
  0
EOF
