  0
SECTION
  2
HEADER
  9
$ACADVER
  1
AC1009
  9
$INSBASE
 10
95.7468817109376857
 20
-86.2460930900201248
 30
0.0
  9
$EXTMIN
 10
80.9792248103013037
 20
-86.2489772025354853
 30
-0.0015258207003583
  9
$EXTMAX
 10
110.5140542017916943
 20
-67.1114306940733911
 30
0.0000000349246037
  9
$LIMMIN
 10
0.0
 20
0.0
  9
$LIMMAX
 10
11.6929133858000007
 20
8.2677165353999982
  9
$ORTHOMODE
 70
     0
  9
$REGENMODE
 70
     1
  9
$FILLMODE
 70
     1
  9
$QTEXTMODE
 70
     0
  9
$MIRRTEXT
 70
     0
  9
$DRAGMODE
 70
     2
  9
$LTSCALE
 40
0.6431102362
  9
$OSMODE
 70
  4095
  9
$ATTMODE
 70
     1
  9
$TEXTSIZE
 40
0.2
  9
$TRACEWID
 40
0.05
  9
$TEXTSTYLE
  7
STANDARD
  9
$CLAYER
  8
0
  9
$CELTYPE
  6
BYLAYER
  9
$CECOLOR
 62
   256
  9
$DIMSCALE
 40
1.0
  9
$DIMASZ
 40
0.1875
  9
$DIMEXO
 40
0.0625
  9
$DIMDLI
 40
0.4443307087
  9
$DIMRND
 40
0.0
  9
$DIMDLE
 40
0.0
  9
$DIMEXE
 40
0.125
  9
$DIMTP
 40
0.01
  9
$DIMTM
 40
0.01
  9
$DIMTXT
 40
1.0
  9
$DIMCEN
 40
0.1052362205
  9
$DIMTSZ
 40
0.0
  9
$DIMTOL
 70
     1
  9
$DIMLIM
 70
     0
  9
$DIMTIH
 70
     1
  9
$DIMTOH
 70
     1
  9
$DIMSE1
 70
     0
  9
$DIMSE2
 70
     0
  9
$DIMTAD
 70
     0
  9
$DIMZIN
 70
     0
  9
$DIMBLK
  1

  9
$DIMASO
 70
     1
  9
$DIMSHO
 70
     1
  9
$DIMPOST
  1
\X
  9
$DIMAPOST
  1

  9
$DIMALT
 70
     1
  9
$DIMALTD
 70
     2
  9
$DIMALTF
 40
25.3999999999999986
  9
$DIMLFAC
 40
1.0
  9
$DIMTOFL
 70
     0
  9
$DIMTVP
 40
0.0
  9
$DIMTIX
 70
     0
  9
$DIMSOXD
 70
     0
  9
$DIMSAH
 70
     0
  9
$DIMBLK1
  1

  9
$DIMBLK2
  1

  9
$DIMSTYLE
  2
STANDARD
  9
$DIMCLRD
 70
     0
  9
$DIMCLRE
 70
     0
  9
$DIMCLRT
 70
     0
  9
$DIMTFAC
 40
1.0
  9
$DIMGAP
 40
0.09
  9
$LUNITS
 70
     2
  9
$LUPREC
 70
     4
  9
$SKETCHINC
 40
0.1
  9
$FILLETRAD
 40
0.0
  9
$AUNITS
 70
     0
  9
$AUPREC
 70
     0
  9
$MENU
  1
.
  9
$ELEVATION
 40
0.0
  9
$PELEVATION
 40
0.0
  9
$THICKNESS
 40
0.0
  9
$LIMCHECK
 70
     0
  9
$BLIPMODE
 70
     0
  9
$CHAMFERA
 40
0.0
  9
$CHAMFERB
 40
0.0
  9
$SKPOLY
 70
     0
  9
$TDCREATE
 40
2458172.4620254631154239
  9
$TDUPDATE
 40
2459111.3467245372012258
  9
$TDINDWG
 40
0.1506540856
  9
$TDUSRTIMER
 40
0.1506540856
  9
$USRTIMER
 70
     1
  9
$ANGBASE
 50
0.0
  9
$ANGDIR
 70
     0
  9
$PDMODE
 70
     0
  9
$PDSIZE
 40
0.3125
  9
$PLINEWID
 40
0.0
  9
$COORDS
 70
     1
  9
$SPLFRAME
 70
     0
  9
$SPLINETYPE
 70
     6
  9
$SPLINESEGS
 70
     8
  9
$ATTDIA
 70
     1
  9
$ATTREQ
 70
     1
  9
$HANDLING
 70
     1
  9
$HANDSEED
  5
8D9E
  9
$SURFTAB1
 70
     6
  9
$SURFTAB2
 70
     6
  9
$SURFTYPE
 70
     6
  9
$SURFU
 70
     6
  9
$SURFV
 70
     6
  9
$UCSNAME
  2

  9
$UCSORG
 10
0.0
 20
0.0
 30
0.0
  9
$UCSXDIR
 10
1.0
 20
0.0
 30
0.0
  9
$UCSYDIR
 10
0.0
 20
1.0
 30
0.0
  9
$PUCSNAME
  2

  9
$PUCSORG
 10
0.0
 20
0.0
 30
0.0
  9
$PUCSXDIR
 10
1.0
 20
0.0
 30
0.0
  9
$PUCSYDIR
 10
0.0
 20
1.0
 30
0.0
  9
$USERI1
 70
     0
  9
$USERI2
 70
     0
  9
$USERI3
 70
     0
  9
$USERI4
 70
     0
  9
$USERI5
 70
     0
  9
$USERR1
 40
0.0
  9
$USERR2
 40
0.0
  9
$USERR3
 40
0.0
  9
$USERR4
 40
0.0
  9
$USERR5
 40
0.0
  9
$WORLDVIEW
 70
     1
  9
$SHADEDGE
 70
     3
  9
$SHADEDIF
 70
    70
  9
$TILEMODE
 70
     1
  9
$MAXACTVP
 70
    64
  9
$PLIMCHECK
 70
     0
  9
$PEXTMIN
 10
1.0000000000000000E+20
 20
1.0000000000000000E+20
 30
1.0000000000000000E+20
  9
$PEXTMAX
 10
-1.0000000000000000E+20
 20
-1.0000000000000000E+20
 30
-1.0000000000000000E+20
  9
$PLIMMIN
 10
0.0
 20
0.0
  9
$PLIMMAX
 10
12.0
 20
9.0
  9
$UNITMODE
 70
     0
  9
$VISRETAIN
 70
     1
  9
$PLINEGEN
 70
     0
  9
$PSLTSCALE
 70
     1
  0
ENDSEC
  0
SECTION
  2
TABLES
  0
TABLE
  2
VPORT
 70
     1
  0
VPORT
  2
*ACTIVE
 70
     0
 10
0.0
 20
0.0
 11
1.0
 21
1.0
 12
-28.8645190940261109
 22
-81.9924781186822571
 13
0.0
 23
0.0
 14
1.0
 24
1.0
 15
0.0
 25
0.0
 16
0.0
 26
0.0
 36
30.6214257250603907
 17
124.6111586000725993
 27
5.3122741703778242
 37
0.0
 40
19.2968048705297406
 41
2.6486111111111108
 42
50.0
 43
0.0
 44
0.0
 50
0.0
 51
0.0
 71
     0
 72
   100
 73
     1
 74
     1
 75
     0
 76
     0
 77
     0
 78
     0
  0
ENDTAB
  0
TABLE
  2
LTYPE
 70
     2
  0
LTYPE
  2
CONTINUOUS
 70
     0
  3
Solid line
 72
    65
 73
     0
 40
0.0
  0
LTYPE
  2
PHANTOM2
 70
     0
  3
___ _ _ ___ _ _ ___ _ _ ___ _ _
 72
    65
 73
     6
 40
1.25
 49
0.625
 49
-0.125
 49
0.125
 49
-0.125
 49
0.125
 49
-0.125
  0
ENDTAB
  0
TABLE
  2
LAYER
 70
     2
  0
LAYER
  2
0
 70
     0
 62
   255
  6
CONTINUOUS
  0
LAYER
  2
DEFPOINTS
 70
     0
 62
     7
  6
CONTINUOUS
  0
ENDTAB
  0
TABLE
  2
STYLE
 70
     1
  0
STYLE
  2
STANDARD
 70
     0
 40
0.0
 41
0.8
 50
0.0
 71
     0
 42
0.2
  3
txt
  4

  0
ENDTAB
  0
TABLE
  2
VIEW
 70
     0
  0
ENDTAB
  0
TABLE
  2
UCS
 70
     0
  0
ENDTAB
  0
TABLE
  2
APPID
 70
     9
  0
APPID
  2
ACAD
 70
     0
  0
APPID
  2
ACAD_MLEADERVER
 70
     0
  0
APPID
  2
ACAD_EXEMPT_FROM_CAD_STANDARDS
 70
     0
  0
APPID
  2
ACAD_DSTYLE_DIMJAG
 70
     0
  0
APPID
  2
ACAD_DSTYLE_DIMTALN
 70
     0
  0
APPID
  2
ACAD_NAV_VCDISPLAY
 70
     0
  0
APPID
  2
ACAECLAYERSTANDARD
 70
     0
  0
APPID
  2
ACCMTRANSPARENCY
 70
     0
  0
APPID
  2
ACDBATTR
 70
     0
  0
ENDTAB
  0
TABLE
  2
DIMSTYLE
 70
     1
  0
DIMSTYLE
  2
STANDARD
 70
     0
  3

  4

  5

  6

  7

 40
1.0
 41
0.1875
 42
0.0625
 43
0.38
 44
0.125
 45
0.0
 46
0.0
 47
0.01
 48
0.01
140
0.15625
141
0.09
142
0.0
143
25.3999999999999986
144
1.0
145
0.0
146
1.0
147
0.09
 71
     1
 72
     0
 73
     1
 74
     1
 75
     0
 76
     0
 77
     0
 78
     4
170
     0
171
     2
172
     0
173
     0
174
     0
175
     0
176
     0
177
     0
178
     0
  0
ENDTAB
  0
ENDSEC
  0
SECTION
  2
BLOCKS
  0
BLOCK
  8
0
  2
$MODEL_SPACE
 70
     0
 10
0.0
 20
0.0
 30
0.0
  3
$MODEL_SPACE
  1

  0
ENDBLK
  5
21
  8
0
  0
BLOCK
 67
     1
  8
0
  2
$PAPER_SPACE
 70
     0
 10
0.0
 20
0.0
 30
0.0
  3
$PAPER_SPACE
  1

  0
ENDBLK
  5
1D
 67
     1
  8
0
  0
BLOCK
  8
0
  2
_FILLED
 70
     0
 10
0.0
 20
0.0
 30
0.0
  3
_FILLED
  1

  0
SOLID
  5
75BB
  8
0
  6
BYBLOCK
 62
     0
 10
0.0
 20
0.0
 30
0.0
 11
-1.0
 21
0.1666666667
 31
0.0
 12
-1.0
 22
-0.1666666667
 32
0.0
 13
-1.0
 23
-0.1666666667
 33
0.0
  0
ENDBLK
  5
75BC
  8
0
  6
BYBLOCK
 62
     0
  0
ENDSEC
  0
SECTION
  2
ENTITIES
  0
ATTDEF
  5
6869
  8
DEFPOINTS
 10
95.7477619247738971
 20
-86.2419165362985467
 30
0.0
 40
0.001
  1
K-8277T
  3

  2
MODELNUMBER
 70
     0
1001
ACDBATTR
1070
     0
1070
     1
  0
ATTDEF
  5
686A
  8
DEFPOINTS
 10
95.7477619247738971
 20
-86.2435832029651976
 30
0.0
 40
0.001
  1
BIOVE
  3

  2
TRADENAME
 70
     0
1001
ACDBATTR
1070
     0
1070
     1
  0
ATTDEF
  5
686B
  8
DEFPOINTS
 10
95.7477619247738971
 20
-86.245249869631877
 30
0.0
 40
0.001
  1
BATH
  3

  2
PRODUCT
 70
     0
1001
ACDBATTR
1070
     0
1070
     1
  0
LINE
  5
8ADB
  8
0
 10
81.6844976978620849
 20
-67.1122348223201186
 30
0.0
 11
109.8020202797309963
 21
-67.1122348223201186
 31
0.0
  0
ARC
  5
8ADC
  8
0
 10
81.6881408785465624
 20
-67.7135957174648979
 30
0.0
 40
0.6013719306509344
 50
89.6528934201643324
 51
119.7776743527685994
  0
ARC
  5
8ADD
  8
0
 10
81.7940797205242092
 20
-67.8987426127356457
 30
0.0
 40
0.8146848722835301
 50
119.7776743527685994
 51
174.5167950436519106
  0
LINE
  5
8ADE
  8
0
 10
80.9831229128310639
 20
-67.820896259720115
 30
0.0
 11
110.5106814261310006
 21
-67.820896259720115
 31
0.0
  0
ARC
  5
8ADF
  8
0
 10
109.8019231661698996
 20
-67.7429080344172831
 30
0.0
 40
0.6306732195741301
 50
59.23350637746546
 51
89.991177368826925
  0
ARC
  5
8AE0
  8
0
 10
109.7174580228738989
 20
-67.8847882106620091
 30
0.0
 40
0.7957924033270901
 50
4.6050761505036126
 51
59.23350637746546
  0
LINE
  5
8AE1
  8
0
 10
83.2053701559245553
 20
-67.820896259720115
 30
0.0
 11
85.4206721892228416
 21
-83.5816260437547243
 31
0.0
  0
ARC
  5
8AE2
  8
0
 10
87.2117813893965348
 20
-83.3298707058119703
 30
0.0
 40
1.808715819892561
 50
188.0009836134109946
 51
247.1796354583237019
  0
ARC
  5
8AE3
  8
0
 10
87.2169453745419929
 20
-83.3175982827290369
 30
0.0
 40
1.822030440086496
 50
247.1796354583237019
 51
256.6750224442646982
  0
ARC
  5
8AE4
  8
0
 10
87.2076093157861152
 20
-83.3570158283848741
 30
0.0
 40
1.7815223557251989
 50
256.6750224442646982
 51
262.3367876210631948
  0
ARC
  5
8AE5
  8
0
 10
87.2218885405965523
 20
-83.2508912697210519
 30
0.0
 40
1.8886032513731881
 50
262.3367876210631948
 51
268.5552886674026922
  0
ARC
  5
8AE6
  8
0
 10
81.9480571454344044
 20
-292.3613428039968767
 30
0.0
 40
207.2883415548203061
 50
88.0447113307662619
 51
88.5552886674026638
  0
ARC
  5
8AE7
  8
0
 10
98.7356914015799134
 20
199.3753419035417949
 30
0.0
 40
284.7348202486454056
 50
268.0447113307662903
 51
268.5598130035393183
  0
LINE
  5
8AE8
  8
0
 10
91.842745434298223
 20
-85.2775666483695431
 30
0.0
 11
93.4738625076216749
 21
-85.3258616372607861
 31
0.0
  0
LINE
  5
8AE9
  8
0
 10
93.4738625076216749
 20
-85.3258616372607861
 30
0.0
 11
94.8698270122310277
 21
-85.3344420575201212
 31
0.0
  0
LINE
  5
8AEA
  8
0
 10
94.8698270122310277
 20
-85.3344420575201212
 30
0.0
 11
96.6239782435996517
 21
-85.3344420633201253
 31
0.0
  0
ARC
  5
8AEB
  8
0
 10
96.8282641800445134
 20
-15.8557713563397602
 30
0.0
 40
69.4789710340678681
 50
269.831535518405019
 51
272.328440871946782
  0
ARC
  5
8AEC
  8
0
 10
75.5493339660938403
 20
783.8507991781184501
 30
0.0
 40
869.4614552324630949
 50
271.605825464021791
 51
271.7745096692798938
  0
ARC
  5
8AED
  8
0
 10
104.2832147763742938
 20
-83.3315048035002945
 30
0.0
 40
1.8067474484845309
 50
292.8056259184781993
 51
342.0045154757905834
  0
ARC
  5
8AEE
  8
0
 10
43.3674717650885526
 20
-73.1117192974295733
 30
0.0
 40
63.5546675919793813
 50
350.2362656334071858
 51
352.836642459904283
  0
LINE
  5
8AEF
  8
0
 10
106.4260731218389964
 20
-81.0369049518748739
 30
0.0
 11
108.2889523995602019
 21
-67.820896259720115
 31
0.0
  0
LINE
  5
8AF0
  8
0
 10
86.510283224958016
 20
-84.9970099448735965
 30
0.0
 11
86.5539021695310282
 21
-86.2460930900201248
 31
0.0
  0
LINE
  5
8AF1
  8
0
 10
86.5539021695310282
 20
-86.2460930900201248
 30
0.0
 11
86.8459021695310156
 21
-86.2460930900201248
 31
0.0
  0
LINE
  5
8AF2
  8
0
 10
86.8459021695310156
 20
-86.2460930900201248
 30
0.0
 11
86.8459021695310156
 21
-85.4190930900201266
 31
0.0
  0
LINE
  5
8AF3
  8
0
 10
89.0206527745306033
 20
-85.1936934578329783
 30
0.0
 11
89.0104013725310352
 21
-85.4190930900201266
 31
0.0
  0
LINE
  5
8AF4
  8
0
 10
89.0104013725310352
 20
-85.4190930900201266
 30
0.0
 11
86.7899021695310324
 21
-85.4190930900201266
 31
0.0
  0
LINE
  5
8AF5
  8
0
 10
86.7899021695310324
 20
-85.4190930900201266
 30
0.0
 11
86.7899021695310324
 21
-86.2460930900201248
 31
0.0
  0
ARC
  5
8AF6
  8
0
 10
93.6509126727369221
 20
-86.4038629633135287
 30
0.0
 40
1.077034357329743
 50
75.1148314267855142
 51
88.718644183798915
  0
ARC
  5
8AF7
  8
0
 10
93.7454504167310034
 20
-85.9247334622201748
 30
0.0
 40
0.5905503031000433
 50
31.5000658038030892
 51
72.0363544404297471
  0
LINE
  5
8AF8
  8
0
 10
94.2489769698443212
 20
-85.6161711981608846
 30
0.0
 11
97.2447864520310361
 21
-85.6161718301201233
 31
0.0
  0
ARC
  5
8AF9
  8
0
 10
97.7485068982609562
 20
-85.9250041305885759
 30
0.0
 40
0.59085673201098
 50
109.8224679047217052
 51
148.4874313142273081
  0
ARC
  5
8AFA
  8
0
 10
97.7980139601170464
 20
-86.0625383394767454
 30
0.0
 40
0.7370299319743177
 50
95.5215389745831658
 51
109.8174048072292948
  0
ARC
  5
8AFB
  8
0
 10
104.2768589645201018
 20
-83.3175982827290369
 30
0.0
 40
1.822030440086496
 50
283.3249775557353018
 51
292.8203645416774066
  0
ARC
  5
8AFC
  8
0
 10
104.2861950232759938
 20
-83.3570158283848741
 30
0.0
 40
1.7815223557251989
 50
277.6632123789368052
 51
283.3249775557353018
  0
ARC
  5
8AFD
  8
0
 10
104.2719157984654998
 20
-83.2508912697210519
 30
0.0
 40
1.8886032513731881
 50
271.444711332596512
 51
277.6632123789368052
  0
ARC
  5
8AFE
  8
0
 10
109.5457471936277045
 20
-292.3613428039968767
 30
0.0
 40
207.2883415548203061
 50
91.4447113325965262
 51
91.9552886692337239
  0
LINE
  5
8AFF
  8
0
 10
104.9835211141040929
 20
-84.9970099448735965
 30
0.0
 11
104.939902169531095
 21
-86.2460930900201248
 31
0.0
  0
LINE
  5
8B00
  8
0
 10
104.939902169531095
 20
-86.2460930900201248
 30
0.0
 11
104.6479021695310934
 21
-86.2460930900201248
 31
0.0
  0
LINE
  5
8B01
  8
0
 10
104.6479021695310934
 20
-86.2460930900201248
 30
0.0
 11
104.6479021695310934
 21
-85.4190930900201266
 31
0.0
  0
LINE
  5
8B02
  8
0
 10
102.4731515645315056
 20
-85.1936934578329783
 30
0.0
 11
102.4834029665310027
 21
-85.4190930900201266
 31
0.0
  0
LINE
  5
8B03
  8
0
 10
102.4834029665310027
 20
-85.4190930900201266
 30
0.0
 11
104.7039021695310055
 21
-85.4190930900201266
 31
0.0
  0
LINE
  5
8B04
  8
0
 10
104.7039021695310055
 20
-85.4190930900201266
 30
0.0
 11
104.7039021695310055
 21
-86.2460930900201248
 31
0.0
  0
LINE
  5
8B05
  8
0
 10
91.7930875708310339
 20
-85.4193214364201339
 30
0.0
 11
91.6298506264310362
 21
-85.4193214364201339
 31
0.0
  0
ARC
  5
8B06
  8
0
 10
91.6298506264310362
 20
-85.3801232653111555
 30
0.0
 40
0.0391981711089629
 50
185.7347193473993059
 51
270.0
  0
LINE
  5
8B07
  8
0
 10
91.5908486342194266
 20
-85.3840400524911161
 30
0.0
 11
91.5633794840188244
 21
-85.1105118946003643
 31
0.0
  0
ARC
  5
8B08
  8
0
 10
91.4080347456021229
 20
-85.1261124381983052
 30
0.0
 40
0.1561261179761437
 50
5.7347193474009188
 51
36.196404026000188
  0
ARC
  5
8B09
  8
0
 10
91.6083238575563144
 20
-84.5783446519699709
 30
0.0
 40
0.4615852002721056
 50
244.423674825026211
 51
260.737504555113901
  0
ARC
  5
8B0A
  8
0
 10
91.4806928855500843
 20
-84.8495280258591009
 30
0.0
 40
0.1618865892302444
 50
224.8592551943812907
 51
243.7339042325091043
  0
ARC
  5
8B0B
  8
0
 10
91.4102846976207104
 20
-84.9183145228741836
 30
0.0
 40
0.0634650155777059
 50
186.854470553813286
 51
225.6762448250680109
  0
LINE
  5
8B0C
  8
0
 10
91.3472732986310518
 20
-84.9258889403201209
 30
0.0
 11
91.2339779944310152
 21
-83.7461989487201208
 31
0.0
  0
ARC
  5
8B0D
  8
0
 10
93.0515862201639692
 20
-83.5736856197266036
 30
0.0
 40
1.825776687038291
 50
161.7313539500034096
 51
185.4218310550376998
  0
ARC
  5
8B0E
  8
0
 10
91.4507463049294955
 20
-83.0452301026844282
 30
0.0
 40
0.1399671878064705
 50
129.8799132121964988
 51
161.7313539500034096
  0
ARC
  5
8B0F
  8
0
 10
91.3907335554115434
 20
-82.9734045045269966
 30
0.0
 40
0.0463699300721898
 50
68.78010129055167
 51
129.8799132121993978
  0
ARC
  5
8B10
  8
0
 10
91.3669380809752454
 20
-83.0346897619225075
 30
0.0
 40
0.1121126663834013
 50
58.5129841339116723
 51
68.7801012905465399
  0
ARC
  5
8B11
  8
0
 10
93.2779817540962171
 20
-80.1488355407077648
 30
0.0
 40
3.3492081910974738
 50
236.4192433548300016
 51
247.8953006650081079
  0
ARC
  5
8B12
  8
0
 10
91.8569724321297656
 20
-83.5044536103156361
 30
0.0
 40
0.2993721772850196
 50
46.2114681780704615
 51
57.53428793452413
  0
ARC
  5
8B13
  8
0
 10
91.5676589813881066
 20
-83.6470739198666848
 30
0.0
 40
0.6125218642665662
 50
16.0231398421236513
 51
35.8504554476027408
  0
ARC
  5
8B14
  8
0
 10
90.6577574249726865
 20
-83.9083817326126535
 30
0.0
 40
1.559201649288559
 50
357.4912116071138826
 51
16.0231398421236513
  0
LINE
  5
8B15
  8
0
 10
92.2154646094310237
 20
-83.9766320852201318
 30
0.0
 11
92.1028425545458731
 21
-84.9777950512942368
 31
0.0
  0
ARC
  5
8B16
  8
0
 10
92.0220635270274556
 20
-84.9512671913535655
 30
0.0
 40
0.0850234005427621
 50
282.9019146127521935
 51
341.819802338164493
  0
ARC
  5
8B17
  8
0
 10
91.9141821878730951
 20
-84.6689937079612207
 30
0.0
 40
0.3865613332583369
 50
276.0396434444168108
 51
289.1589571254179987
  0
ARC
  5
8B18
  8
0
 10
91.8754054526554995
 20
-84.3820650930335887
 30
0.0
 40
0.6760290975851887
 50
272.2573519186653925
 51
276.749205168536605
  0
ARC
  5
8B19
  8
0
 10
91.7931067671654546
 20
-85.380014416497076
 30
0.0
 40
0.0393070246104989
 50
269.9720185132546248
 51
354.3476570733777749
  0
LINE
  5
8B1A
  8
0
 10
91.8322226746234946
 20
-85.3838858461379999
 30
0.0
 11
91.8532795201200685
 21
-85.1711330141877454
 31
0.0
  0
ARC
  5
8B1B
  8
0
 10
92.0568527259343625
 20
-85.1912813219812648
 30
0.0
 40
0.2045678479928981
 50
139.1841292793725131
 51
174.3476570733795086
  0
LINE
  5
8B1C
  8
0
 10
91.3486957173047784
 20
-82.9494360985510752
 30
0.0
 11
91.5625393446024844
 21
-85.103669318940149
 31
0.0
  0
LINE
  5
8B1D
  8
0
 10
92.0176738587310155
 20
-83.2518694619201227
 30
0.0
 11
91.8532795201200685
 21
-85.1711330141877454
 31
0.0
  0
LINE
  5
8B1E
  8
0
 10
99.7007167682310751
 20
-85.4193214364201339
 30
0.0
 11
99.8639537126310728
 21
-85.4193214364201339
 31
0.0
  0
ARC
  5
8B1F
  8
0
 10
99.8639537126310728
 20
-85.3801232653111555
 30
0.0
 40
0.0391981711089629
 50
270.0
 51
354.2652806526007225
  0
LINE
  5
8B20
  8
0
 10
99.9029557048426966
 20
-85.3840400524911161
 30
0.0
 11
99.9304248550432987
 21
-85.1105118946003643
 31
0.0
  0
ARC
  5
8B21
  8
0
 10
100.0857695934600002
 20
-85.1261124381983052
 30
0.0
 40
0.1561261179761437
 50
143.8035959740003875
 51
174.2652806525991025
  0
ARC
  5
8B22
  8
0
 10
99.8854804815058088
 20
-84.5783446519699709
 30
0.0
 40
0.4615852002721056
 50
279.2624954448859853
 51
295.5763251749738174
  0
ARC
  5
8B23
  8
0
 10
100.0131114535119963
 20
-84.8495280258591009
 30
0.0
 40
0.1618865892302444
 50
296.2660957674921178
 51
315.1407448056186809
  0
ARC
  5
8B24
  8
0
 10
100.0835196414413986
 20
-84.9183145228741836
 30
0.0
 40
0.0634650155777059
 50
314.3237551749318754
 51
353.1455294461857761
  0
LINE
  5
8B25
  8
0
 10
100.1465310404310003
 20
-84.9258889403201209
 30
0.0
 11
100.2598263446310938
 21
-83.7461989487201208
 31
0.0
  0
ARC
  5
8B26
  8
0
 10
98.442218118898154
 20
-83.5736856197266036
 30
0.0
 40
1.825776687038291
 50
354.5781689449622149
 51
18.268646049996569
  0
ARC
  5
8B27
  8
0
 10
100.0430580341325992
 20
-83.0452301026844282
 30
0.0
 40
0.1399671878064705
 50
18.2686460499975993
 51
50.120086787804631
  0
ARC
  5
8B28
  8
0
 10
100.1030707836504945
 20
-82.9734045045269966
 30
0.0
 40
0.0463699300721898
 50
50.1200867878005596
 51
111.2198987094489979
  0
ARC
  5
8B29
  8
0
 10
100.1268662580869062
 20
-83.0346897619225075
 30
0.0
 40
0.1121126663834013
 50
111.219898709452707
 51
121.4870158660882993
  0
ARC
  5
8B2A
  8
0
 10
98.2158225849659061
 20
-80.1488355407077648
 30
0.0
 40
3.3492081910974738
 50
292.1046993349920058
 51
303.5807566451700268
  0
ARC
  5
8B2B
  8
0
 10
99.6368319069323434
 20
-83.5044536103156361
 30
0.0
 40
0.2993721772850196
 50
122.4657120654752021
 51
133.7885318219300927
  0
ARC
  5
8B2C
  8
0
 10
99.9261453576740166
 20
-83.6470739198666848
 30
0.0
 40
0.6125218642665662
 50
144.1495445523972023
 51
163.9768601578763025
  0
ARC
  5
8B2D
  8
0
 10
100.836046914089394
 20
-83.9083817326126535
 30
0.0
 40
1.559201649288559
 50
163.9768601578763025
 51
182.508788392886089
  0
LINE
  5
8B2E
  8
0
 10
99.2783397296310852
 20
-83.9766320852201318
 30
0.0
 11
99.3909617845162217
 21
-84.9777950512942368
 31
0.0
  0
ARC
  5
8B2F
  8
0
 10
99.4717408120346533
 20
-84.9512671913535655
 30
0.0
 40
0.0850234005427621
 50
198.1801976618361891
 51
257.0980853872478065
  0
ARC
  5
8B30
  8
0
 10
99.5796221511890138
 20
-84.6689937079612207
 30
0.0
 40
0.3865613332583369
 50
250.8410428745818876
 51
263.9603565555822797
  0
ARC
  5
8B31
  8
0
 10
99.6183988864065952
 20
-84.3820650930335887
 30
0.0
 40
0.6760290975851887
 50
263.2507948314635087
 51
267.7426480813346075
  0
ARC
  5
8B32
  8
0
 10
99.7006975718966544
 20
-85.380014416497076
 30
0.0
 40
0.0393070246104989
 50
185.6523429266221115
 51
270.0279814867453752
  0
LINE
  5
8B33
  8
0
 10
99.6615816644386143
 20
-85.3838858461379999
 30
0.0
 11
99.6405248189420263
 21
-85.1711330141877454
 31
0.0
  0
ARC
  5
8B34
  8
0
 10
99.4369516131277464
 20
-85.1912813219812648
 30
0.0
 40
0.2045678479928981
 50
5.6523429266205056
 51
40.8158707206275295
  0
LINE
  5
8B35
  8
0
 10
100.1451086217573021
 20
-82.9494360985510752
 30
0.0
 11
99.9312649944596245
 21
-85.103669318940149
 31
0.0
  0
LINE
  5
8B36
  8
0
 10
99.4761304803310793
 20
-83.2518694619201227
 30
0.0
 11
99.6405248189420263
 21
-85.1711330141877454
 31
0.0
  0
ARC
  5
8B37
  8
0
 10
83.8138503522494602
 20
-67.5043219452499557
 30
0.0
 40
0.5042654263209801
 50
218.8874825409884011
 51
242.4490718250110035
  0
ARC
  5
8B38
  8
0
 10
82.3637522860060187
 20
-69.864657446918514
 30
0.0
 40
2.2674391237191691
 50
33.3711351537962173
 51
57.5430568451288593
  0
ARC
  5
8B39
  8
0
 10
80.873538823213039
 20
-70.9577928150740149
 30
0.0
 40
4.1142995997780112
 50
21.5519273769285711
 51
34.6691199954546505
  0
ARC
  5
8B3A
  8
0
 10
86.5506870335995586
 20
-68.7146598399533843
 30
0.0
 40
1.9899332588752581
 50
201.5760055534150865
 51
221.1262557135771942
  0
ARC
  5
8B3B
  8
0
 10
85.5688667136149945
 20
-69.5837293937965597
 30
0.0
 40
0.678818395583782
 50
220.3772411051766937
 51
237.1039225157126111
  0
ARC
  5
8B3C
  8
0
 10
85.3395228460532991
 20
-69.9388854964404914
 30
0.0
 40
0.2560487260590256
 50
237.0320679022734112
 51
264.1799341905519896
  0
ARC
  5
8B3D
  8
0
 10
85.3220359466221936
 20
-70.1104431933947438
 30
0.0
 40
0.0836021110271231
 50
264.1799341905511938
 51
312.4208056980600077
  0
ARC
  5
8B3E
  8
0
 10
85.3288474171285714
 20
-70.1270876896526261
 30
0.0
 40
0.0670075646884267
 50
317.7294441238274771
 51
11.6878574181945201
  0
ARC
  5
8B3F
  8
0
 10
84.548375698131025
 20
-70.3721323829170018
 30
0.0
 40
0.8847327270222407
 50
16.9964958439631104
 51
22.882748227285699
  0
ARC
  5
8B40
  8
0
 10
81.9580714685993144
 20
-69.8894665246959619
 30
0.0
 40
3.4082317174479591
 50
357.6686701560100232
 51
18.4560612940556901
  0
ARC
  5
8B41
  8
0
 10
83.6285184625541973
 20
-69.3669590367733804
 30
0.0
 40
1.6586194482674019
 50
19.6027453794307114
 51
52.9364588613927296
  0
ARC
  5
8B42
  8
0
 10
83.9271946010390337
 20
-68.9594918365553156
 30
0.0
 40
1.1534843757511899
 50
52.5764971406808428
 51
80.7842675470874241
  0
ARC
  5
8B43
  8
0
 10
107.6799539868126061
 20
-67.5043219452499557
 30
0.0
 40
0.5042654263209801
 50
297.5509281749891102
 51
321.1125174590115989
  0
ARC
  5
8B44
  8
0
 10
109.130052053056005
 20
-69.864657446918514
 30
0.0
 40
2.2674391237191691
 50
122.4569431548704017
 51
146.6288648462038111
  0
ARC
  5
8B45
  8
0
 10
110.6202655158489989
 20
-70.9577928150740149
 30
0.0
 40
4.1142995997780112
 50
145.3308800045448947
 51
158.4480726230706011
  0
ARC
  5
8B46
  8
0
 10
104.9431173054624935
 20
-68.7146598399533843
 30
0.0
 40
1.9899332588752581
 50
318.8737442864227205
 51
338.4239944465849135
  0
ARC
  5
8B47
  8
0
 10
105.9249376254471002
 20
-69.5837293937965597
 30
0.0
 40
0.678818395583782
 50
302.8960774842872752
 51
319.6227588948232778
  0
ARC
  5
8B48
  8
0
 10
106.1542814930087957
 20
-69.9388854964404914
 30
0.0
 40
0.2560487260590256
 50
275.8200658094488062
 51
302.9679320977255088
  0
ARC
  5
8B49
  8
0
 10
106.1717683924399012
 20
-70.1104431933947438
 30
0.0
 40
0.0836021110271231
 50
227.579194301940106
 51
275.8200658094488062
  0
ARC
  5
8B4A
  8
0
 10
106.164956921933495
 20
-70.1270876896526261
 30
0.0
 40
0.0670075646884267
 50
168.312142581804693
 51
222.2705558761724944
  0
ARC
  5
8B4B
  8
0
 10
106.9454286409309987
 20
-70.3721323829170018
 30
0.0
 40
0.8847327270222407
 50
157.1172517727142974
 51
163.003504156037593
  0
ARC
  5
8B4C
  8
0
 10
109.5357328704626951
 20
-69.8894665246959619
 30
0.0
 40
3.4082317174479591
 50
161.5439387059442993
 51
182.3313298439900052
  0
ARC
  5
8B4D
  8
0
 10
107.865285876507798
 20
-69.3669590367733804
 30
0.0
 40
1.6586194482674019
 50
127.0635411386079028
 51
160.3972546205692993
  0
ARC
  5
8B4E
  8
0
 10
107.5666097380230042
 20
-68.9594918365553156
 30
0.0
 40
1.1534843757511899
 50
99.2157324529125759
 51
127.4235028593180061
  0
ENDSEC
  0
EOF
