  0
SECTION
  2
HEADER
  9
$ACADVER
  1
AC1009
  9
$INSBASE
 10
438.2750885089093913
 20
129.295589423175187
 30
0.0
  9
$EXTMIN
 10
428.4024695988663893
 20
108.6340768055428043
 30
0.0
  9
$EXTMAX
 10
446.0230864768806782
 20
129.300657812956814
 30
0.0
  9
$LIMMIN
 10
0.0
 20
0.0
  9
$LIMMAX
 10
11.6929133858000007
 20
8.2677165353999982
  9
$ORTHOMODE
 70
     0
  9
$REGENMODE
 70
     1
  9
$FILLMODE
 70
     1
  9
$QTEXTMODE
 70
     0
  9
$MIRRTEXT
 70
     0
  9
$DRAGMODE
 70
     2
  9
$LTSCALE
 40
0.6431102362
  9
$OSMODE
 70
  4095
  9
$ATTMODE
 70
     1
  9
$TEXTSIZE
 40
0.2
  9
$TRACEWID
 40
0.05
  9
$TEXTSTYLE
  7
STANDARD
  9
$CLAYER
  8
0
  9
$CELTYPE
  6
BYLAYER
  9
$CECOLOR
 62
   256
  9
$DIMSCALE
 40
1.0
  9
$DIMASZ
 40
0.1875
  9
$DIMEXO
 40
0.0625
  9
$DIMDLI
 40
0.4443307087
  9
$DIMRND
 40
0.0
  9
$DIMDLE
 40
0.0
  9
$DIMEXE
 40
0.125
  9
$DIMTP
 40
0.01
  9
$DIMTM
 40
0.01
  9
$DIMTXT
 40
1.0
  9
$DIMCEN
 40
0.1052362205
  9
$DIMTSZ
 40
0.0
  9
$DIMTOL
 70
     1
  9
$DIMLIM
 70
     0
  9
$DIMTIH
 70
     0
  9
$DIMTOH
 70
     1
  9
$DIMSE1
 70
     0
  9
$DIMSE2
 70
     0
  9
$DIMTAD
 70
     0
  9
$DIMZIN
 70
     0
  9
$DIMBLK
  1

  9
$DIMASO
 70
     1
  9
$DIMSHO
 70
     1
  9
$DIMPOST
  1
\X
  9
$DIMAPOST
  1

  9
$DIMALT
 70
     1
  9
$DIMALTD
 70
     2
  9
$DIMALTF
 40
25.3999999999999986
  9
$DIMLFAC
 40
1.0
  9
$DIMTOFL
 70
     0
  9
$DIMTVP
 40
0.0
  9
$DIMTIX
 70
     0
  9
$DIMSOXD
 70
     0
  9
$DIMSAH
 70
     0
  9
$DIMBLK1
  1

  9
$DIMBLK2
  1

  9
$DIMSTYLE
  2
STANDARD
  9
$DIMCLRD
 70
     0
  9
$DIMCLRE
 70
     0
  9
$DIMCLRT
 70
     0
  9
$DIMTFAC
 40
1.0
  9
$DIMGAP
 40
0.09
  9
$LUNITS
 70
     2
  9
$LUPREC
 70
     4
  9
$SKETCHINC
 40
0.1
  9
$FILLETRAD
 40
0.0
  9
$AUNITS
 70
     0
  9
$AUPREC
 70
     0
  9
$MENU
  1
.
  9
$ELEVATION
 40
0.0
  9
$PELEVATION
 40
0.0
  9
$THICKNESS
 40
0.0
  9
$LIMCHECK
 70
     0
  9
$BLIPMODE
 70
     0
  9
$CHAMFERA
 40
0.0
  9
$CHAMFERB
 40
0.0
  9
$SKPOLY
 70
     0
  9
$TDCREATE
 40
2458172.5207638889551163
  9
$TDUPDATE
 40
2459844.5296180560253561
  9
$TDINDWG
 40
0.3040747917
  9
$TDUSRTIMER
 40
0.3040747917
  9
$USRTIMER
 70
     1
  9
$ANGBASE
 50
0.0
  9
$ANGDIR
 70
     0
  9
$PDMODE
 70
     0
  9
$PDSIZE
 40
0.3125
  9
$PLINEWID
 40
0.0
  9
$COORDS
 70
     1
  9
$SPLFRAME
 70
     0
  9
$SPLINETYPE
 70
     6
  9
$SPLINESEGS
 70
     8
  9
$ATTDIA
 70
     1
  9
$ATTREQ
 70
     1
  9
$HANDLING
 70
     1
  9
$HANDSEED
  5
C719
  9
$SURFTAB1
 70
     6
  9
$SURFTAB2
 70
     6
  9
$SURFTYPE
 70
     6
  9
$SURFU
 70
     6
  9
$SURFV
 70
     6
  9
$UCSNAME
  2

  9
$UCSORG
 10
0.0
 20
0.0
 30
0.0
  9
$UCSXDIR
 10
1.0
 20
0.0
 30
0.0
  9
$UCSYDIR
 10
0.0
 20
1.0
 30
0.0
  9
$PUCSNAME
  2

  9
$PUCSORG
 10
0.0
 20
0.0
 30
0.0
  9
$PUCSXDIR
 10
1.0
 20
0.0
 30
0.0
  9
$PUCSYDIR
 10
0.0
 20
1.0
 30
0.0
  9
$USERI1
 70
     0
  9
$USERI2
 70
     0
  9
$USERI3
 70
     0
  9
$USERI4
 70
     0
  9
$USERI5
 70
     0
  9
$USERR1
 40
0.0
  9
$USERR2
 40
0.0
  9
$USERR3
 40
0.0
  9
$USERR4
 40
0.0
  9
$USERR5
 40
0.0
  9
$WORLDVIEW
 70
     1
  9
$SHADEDGE
 70
     3
  9
$SHADEDIF
 70
    70
  9
$TILEMODE
 70
     1
  9
$MAXACTVP
 70
    64
  9
$PLIMCHECK
 70
     0
  9
$PEXTMIN
 10
1.0000000000000000E+20
 20
1.0000000000000000E+20
 30
1.0000000000000000E+20
  9
$PEXTMAX
 10
-1.0000000000000000E+20
 20
-1.0000000000000000E+20
 30
-1.0000000000000000E+20
  9
$PLIMMIN
 10
0.0
 20
0.0
  9
$PLIMMAX
 10
12.0
 20
9.0
  9
$UNITMODE
 70
     0
  9
$VISRETAIN
 70
     1
  9
$PLINEGEN
 70
     0
  9
$PSLTSCALE
 70
     1
  0
ENDSEC
  0
SECTION
  2
TABLES
  0
TABLE
  2
VPORT
 70
     1
  0
VPORT
  2
*ACTIVE
 70
     0
 10
0.0
 20
0.0
 11
1.0
 21
1.0
 12
-65.1938962678924554
 22
35.4243626855125129
 13
0.0
 23
0.0
 14
1.0
 24
1.0
 15
0.0
 25
0.0
 16
0.0
 26
0.0
 36
25.7967328817476016
 17
503.5405462211870145
 27
93.8464159794164061
 37
0.0
 40
0.1244204741636647
 41
2.5251322751322749
 42
50.0
 43
0.0
 44
0.0
 50
0.0
 51
0.0
 71
     0
 72
   100
 73
     1
 74
     1
 75
     0
 76
     0
 77
     0
 78
     0
  0
ENDTAB
  0
TABLE
  2
LTYPE
 70
     2
  0
LTYPE
  2
CONTINUOUS
 70
     0
  3
Solid line
 72
    65
 73
     0
 40
0.0
  0
LTYPE
  2
PHANTOM2
 70
     0
  3
___ _ _ ___ _ _ ___ _ _ ___ _ _
 72
    65
 73
     6
 40
1.25
 49
0.625
 49
-0.125
 49
0.125
 49
-0.125
 49
0.125
 49
-0.125
  0
ENDTAB
  0
TABLE
  2
LAYER
 70
     2
  0
LAYER
  2
0
 70
     0
 62
   255
  6
CONTINUOUS
  0
LAYER
  2
DEFPOINTS
 70
     0
 62
     7
  6
CONTINUOUS
  0
ENDTAB
  0
TABLE
  2
STYLE
 70
     1
  0
STYLE
  2
STANDARD
 70
     0
 40
0.0
 41
0.8
 50
0.0
 71
     0
 42
0.2
  3
txt
  4

  0
ENDTAB
  0
TABLE
  2
VIEW
 70
     0
  0
ENDTAB
  0
TABLE
  2
UCS
 70
     0
  0
ENDTAB
  0
TABLE
  2
APPID
 70
    10
  0
APPID
  2
ACAD
 70
     0
  0
APPID
  2
ACAD_MLEADERVER
 70
     0
  0
APPID
  2
ACAD_EXEMPT_FROM_CAD_STANDARDS
 70
     0
  0
APPID
  2
ACAD_DSTYLE_DIMJAG
 70
     0
  0
APPID
  2
ACAD_DSTYLE_DIMTALN
 70
     0
  0
APPID
  2
ACAD_NAV_VCDISPLAY
 70
     0
  0
APPID
  2
ACAECLAYERSTANDARD
 70
     0
  0
APPID
  2
ACCMTRANSPARENCY
 70
     0
  0
APPID
  2
DCO15
 70
     0
  0
APPID
  2
ACDBATTR
 70
     0
  0
ENDTAB
  0
TABLE
  2
DIMSTYLE
 70
     1
  0
DIMSTYLE
  2
STANDARD
 70
     0
  3

  4

  5

  6

  7

 40
1.0
 41
0.1875
 42
0.0625
 43
0.38
 44
0.125
 45
0.0
 46
0.0
 47
0.01
 48
0.01
140
0.15625
141
0.09
142
0.0
143
25.3999999999999986
144
1.0
145
0.0
146
1.0
147
0.09
 71
     1
 72
     0
 73
     1
 74
     1
 75
     0
 76
     0
 77
     0
 78
     4
170
     0
171
     2
172
     0
173
     0
174
     0
175
     0
176
     0
177
     0
178
     0
  0
ENDTAB
  0
ENDSEC
  0
SECTION
  2
BLOCKS
  0
BLOCK
  8
0
  2
$MODEL_SPACE
 70
     0
 10
0.0
 20
0.0
 30
0.0
  3
$MODEL_SPACE
  1

  0
ENDBLK
  5
21
  8
0
  0
BLOCK
 67
     1
  8
0
  2
$PAPER_SPACE
 70
     0
 10
0.0
 20
0.0
 30
0.0
  3
$PAPER_SPACE
  1

  0
ENDBLK
  5
1D
 67
     1
  8
0
  0
BLOCK
  8
0
  2
_FILLED
 70
     0
 10
0.0
 20
0.0
 30
0.0
  3
_FILLED
  1

  0
SOLID
  5
8C29
  8
0
  6
BYBLOCK
 62
     0
 10
0.0
 20
0.0
 30
0.0
 11
-1.0
 21
0.1666666667
 31
0.0
 12
-1.0
 22
-0.1666666667
 32
0.0
 13
-1.0
 23
-0.1666666667
 33
0.0
  0
ENDBLK
  5
8C2A
  8
0
  6
BYBLOCK
 62
     0
  0
ENDSEC
  0
SECTION
  2
ENTITIES
  0
ATTDEF
  5
BBA9
  8
DEFPOINTS
 10
438.2754414750702949
 20
129.2996578129566956
 30
0.0
 40
0.001
  1
K-8297KR-HC
  3

  2
MODELNUMBER
 70
     0
1001
ACDBATTR
1070
     0
1070
     1
  0
ATTDEF
  5
BBAA
  8
DEFPOINTS
 10
438.2754414750702949
 20
129.297991146290002
 30
0.0
 40
0.001
  1
C3-150
  3

  2
TRADENAME
 70
     0
1001
ACDBATTR
1070
     0
1070
     1
  0
ATTDEF
  5
BBAB
  8
DEFPOINTS
 10
438.2754414750702949
 20
129.2963244796233084
 30
0.0
 40
0.001
  1
TOILET SEAT
  3

  2
PRODUCT
 70
     0
1001
ACDBATTR
1070
     0
1070
     1
  0
ARC
  5
C38E
  8
0
 10
438.2657468633149733
 20
117.2607013998827057
 30
0.0
 40
8.6266245943398818
 50
269.1120742325384754
 51
270.0620447741234216
  0
ARC
  5
C38F
  8
0
 10
438.2367355153165249
 20
115.3820300809696988
 30
0.0
 40
6.7477292889333409
 50
264.7042375048816893
 51
269.1111812351823005
  0
ARC
  5
C390
  8
0
 10
438.1296402898398128
 20
114.2266495596483935
 30
0.0
 40
5.5873959159888553
 50
254.4627455822216859
 51
264.7042375048816893
  0
ARC
  5
C391
  8
0
 10
438.0812730196976759
 20
113.7926912414408065
 30
0.0
 40
5.1568103456805101
 50
232.8703698545147063
 51
253.688945773018304
  0
ARC
  5
C392
  8
0
 10
439.8383076901678237
 20
115.9360601521954948
 30
0.0
 40
7.9269629292293899
 50
213.530487213294208
 51
232.0965700453105001
  0
ARC
  5
C393
  8
0
 10
446.2900434678423949
 20
119.9468321218310933
 30
0.0
 40
15.5221168368817999
 50
189.396526190671409
 51
212.7166669076084986
  0
ARC
  5
C394
  8
0
 10
461.0827179207797144
 20
122.6321772572067061
 30
0.0
 40
30.5556273797182385
 50
179.3745002787090925
 51
189.8356304479258938
  0
ARC
  5
C395
  8
0
 10
441.5748553270595949
 20
122.8920183209609007
 30
0.0
 40
11.04619002964799
 50
173.0040783602647991
 51
179.6175702367343092
  0
ARC
  5
C396
  8
0
 10
435.8762763434867225
 20
123.5931604498356933
 30
0.0
 40
5.3046400954017843
 50
159.0587560452401874
 51
173.0239796628918043
  0
ARC
  5
C397
  8
0
 10
435.1079030225077986
 20
123.8326006692119989
 30
0.0
 40
4.5017302785745841
 50
140.2309814697640888
 51
158.4096392325529052
  0
ARC
  5
C398
  8
0
 10
435.9961989890214795
 20
123.0200722128038962
 30
0.0
 40
5.7045482997361159
 50
123.6258028285738959
 51
139.665546053223494
  0
ARC
  5
C399
  8
0
 10
437.6466431056884971
 20
122.4180859928774936
 30
0.0
 40
7.1954558306174317
 50
128.8424163057617875
 51
131.9439821811724869
  0
LINE
  5
C39A
  8
0
 10
433.0898920871709947
 20
128.0619720993751116
 30
0.0
 11
433.1337928844549765
 21
128.0224385416628934
 31
0.0
  0
LINE
  5
C39B
  8
0
 10
433.1337928844549765
 20
128.0224385416628934
 30
0.0
 11
433.1477661094867813
 21
128.0259468756503907
 31
0.0
  0
LINE
  5
C39C
  8
0
 10
433.1477661094867813
 20
128.0259468756503907
 30
0.0
 11
433.5737105937711249
 21
128.3301836941751048
 31
0.0
  0
LINE
  5
C39D
  8
0
 10
433.5737105937711249
 20
128.3301836941751048
 30
0.0
 11
433.5795574147709885
 21
128.3409978968751091
 31
0.0
  0
LINE
  5
C39E
  8
0
 10
433.5795574147709885
 20
128.3409978968751091
 30
0.0
 11
433.5356586250445048
 21
128.3805208970140086
 31
0.0
  0
LINE
  5
C39F
  8
0
 10
433.5356586250445048
 20
128.3805208970140086
 30
0.0
 11
433.5298238326295746
 21
128.3696973660069887
 31
0.0
  0
LINE
  5
C3A0
  8
0
 10
433.5298238326295746
 20
128.3696973660069887
 30
0.0
 11
433.1038442078710773
 21
128.0654874760751056
 31
0.0
  0
LINE
  5
C3A1
  8
0
 10
433.1038442078710773
 20
128.0654874760751056
 30
0.0
 11
433.0898920871709947
 21
128.0619720993751116
 31
0.0
  0
LINE
  5
C3A2
  8
0
 10
433.0898920871709947
 20
128.0619720993751116
 30
0.0
 11
433.1889681693161833
 21
128.1514013943105965
 31
0.0
  0
ARC
  5
C3A3
  8
0
 10
433.4311998349709825
 20
128.0800172743751091
 30
0.0
 40
0.252530933600008
 50
86.4199075567322126
 51
163.5800924523541937
  0
LINE
  5
C3A4
  8
0
 10
433.4469688131916882
 20
128.3320553900456957
 30
0.0
 11
433.4570179963615146
 21
128.3177036692426043
 31
0.0
  0
LINE
  5
C3A5
  8
0
 10
433.4469688131711109
 20
128.3320553900751122
 30
0.0
 11
433.1889681697909964
 21
128.1514013947391959
 31
0.0
  0
LINE
  5
C3A6
  8
0
 10
433.1889681697909964
 20
128.1514013947391959
 30
0.0
 11
433.2006954955360811
 21
128.1346530366980119
 31
0.0
  0
ARC
  5
C3A7
  8
0
 10
436.4059028145567254
 20
123.6921260907572986
 30
0.0
 40
5.4406100198972451
 50
90.3659970907232264
 51
121.298083669968193
  0
ARC
  5
C3A8
  8
0
 10
437.7814064937659282
 20
100.7517686842107025
 30
0.0
 40
28.4158729764118405
 50
89.5439409681913219
 51
92.8447127500042342
  0
LINE
  5
C3A9
  8
0
 10
438.0075868299709896
 20
129.1667414884751111
 30
0.0
 11
438.0075868431711115
 21
129.2257638201751035
 31
0.0
  0
LINE
  5
C3AA
  8
0
 10
438.0075868431711115
 20
129.2257638201751035
 30
0.0
 11
438.0667230101710743
 21
129.2257875889750949
 31
0.0
  0
LINE
  5
C3AB
  8
0
 10
438.0667230101710743
 20
129.2257875889750949
 30
0.0
 11
438.0785065302711132
 21
129.2198348445751037
 31
0.0
  0
ARC
  5
C3AC
  8
0
 10
438.0909965685614793
 20
129.2733289593587926
 30
0.0
 40
0.054932880617909
 50
256.8577724472389718
 51
267.2778741471630042
  0
ARC
  5
C3AD
  8
0
 10
438.2520597758468739
 20
132.980961058623393
 30
0.0
 40
3.7660612493594972
 50
267.5091550834612235
 51
270.3503461333745008
  0
ARC
  5
C3AE
  8
0
 10
438.2750885089711232
 20
129.043058489575202
 30
0.0
 40
0.2525309335999998
 50
51.4199075721571219
 51
128.5800924558303109
  0
LINE
  5
C3AF
  8
0
 10
438.1176081939710798
 20
129.2404713128981939
 30
0.0
 11
438.1176081939710798
 21
129.2173005922610969
 31
0.0
  0
LINE
  5
C3B0
  8
0
 10
438.1176081939710798
 20
129.2404713128981939
 30
0.0
 11
438.4325688238747034
 21
129.240471312975103
 31
0.0
  0
LINE
  5
C3B1
  8
0
 10
438.4325688238747034
 20
129.240471312975103
 30
0.0
 11
438.4325688238747034
 21
129.2173005922576863
 31
0.0
  0
ARC
  5
C3B2
  8
0
 10
5912.6656441138320588
 20
10944.9050326683991443
 30
0.0
 40
12122.3791240613700211
 50
243.1526000607206015
 51
243.1526633485958087
  0
ARC
  5
C3B3
  8
0
 10
438.0587471914021194
 20
129.412080823976595
 30
0.0
 40
0.2544265879247484
 50
261.1339491034274829
 51
268.8131475148175014
  0
ARC
  5
C3B4
  8
0
 10
438.2578069555971751
 20
135.4000340133580096
 30
0.0
 40
6.2456684547487678
 50
268.1252096461897168
 51
270.159789212525709
  0
ARC
  5
C3B5
  8
0
 10
438.1442865679555894
 20
114.5461944783188954
 30
0.0
 40
14.1993820930523498
 50
89.4721949786442536
 51
99.1862889611391978
  0
ARC
  5
C3B6
  8
0
 10
436.9587418294130998
 20
120.9032880703222048
 30
0.0
 40
7.736117385658611
 50
98.0348208562021028
 51
115.8651122230815957
  0
ARC
  5
C3B7
  8
0
 10
433.6129399347445883
 20
127.8011790359445001
 30
0.0
 40
0.0696271490023218
 50
114.7136441500603041
 51
153.4110030238221896
  0
LINE
  5
C3B8
  8
0
 10
433.5506765385691779
 20
127.8323432682453955
 30
0.0
 11
433.5511521782710815
 21
125.9634581936750948
 31
0.0
  0
ARC
  5
C3B9
  8
0
 10
433.5732640838256771
 20
125.9634163492668932
 30
0.0
 40
0.0221119450483422
 50
179.8915741088109996
 51
215.7796009416265122
  0
ARC
  5
C3BA
  8
0
 10
433.5636599276219272
 20
125.9584947956596039
 30
0.0
 40
0.0115573427811168
 50
223.8500006817893961
 51
274.0328011820822098
  0
ARC
  5
C3BB
  8
0
 10
433.563584471223578
 20
126.0055896601716938
 30
0.0
 40
0.0586303197345731
 50
270.8680708461266136
 51
280.2376218901379161
  0
ARC
  5
C3BC
  8
0
 10
435.1167712377513226
 20
117.0632126021919959
 30
0.0
 40
9.0176310623427298
 50
99.0908018024591826
 51
99.8508120722133867
  0
ARC
  5
C3BD
  8
0
 10
438.4324585433282095
 20
86.6749627256080686
 30
0.0
 40
39.5775367397128406
 50
90.2278227321123438
 51
96.8792186655963548
  0
ARC
  5
C3BE
  8
0
 10
438.123194628412989
 20
85.3492281612198269
 30
0.0
 40
40.7318747121805202
 50
89.786336903903603
 51
92.5265080806868383
  0
ARC
  5
C3BF
  8
0
 10
437.4771990305151235
 20
99.9895254286680171
 30
0.0
 40
26.077332263105081
 50
92.526508116733325
 51
98.3324624635557996
  0
ARC
  5
C3C0
  8
0
 10
433.8039219458078151
 20
124.8465913532889999
 30
0.0
 40
0.9508903897047049
 50
96.3861911101388102
 51
104.0359373021051965
  0
ARC
  5
C3C1
  8
0
 10
433.4775032378188939
 20
126.1493104740219025
 30
0.0
 40
0.3921016250821796
 50
280.7558500024514956
 51
284.1417378225526136
  0
ARC
  5
C3C2
  8
0
 10
433.5346887132632219
 20
125.8295700370065049
 30
0.0
 40
0.0673968446040333
 50
250.8179254673254945
 51
283.7245804248104832
  0
ARC
  5
C3C3
  8
0
 10
433.5296452429971055
 20
125.7984803529672035
 30
0.0
 40
0.0367824035957197
 50
196.3763713045860015
 51
242.2944009938985062
  0
ARC
  5
C3C4
  8
0
 10
433.6067358727856913
 20
125.8283984946771028
 30
0.0
 40
0.119384365771361
 50
179.5241586545693053
 51
199.7228812190685971
  0
ARC
  5
C3C5
  8
0
 10
435.4069831937521258
 20
125.882730641914705
 30
0.0
 40
1.920368514966406
 50
180.4072607631200071
 51
181.5916676739961133
  0
LINE
  5
C3C6
  8
0
 10
433.4866631911710897
 20
125.8690806982750985
 30
0.0
 11
433.4865453514264004
 21
127.7905843655546931
 31
0.0
  0
ARC
  5
C3C7
  8
0
 10
433.2467019897118234
 20
127.7906336510180978
 30
0.0
 40
0.239843366778507
 50
359.9882262734046776
 51
2.8223579123120879
  0
ARC
  5
C3C8
  8
0
 10
433.4628110198826789
 20
127.8012876791427033
 30
0.0
 40
0.0234718778141788
 50
2.8223579123104612
 51
38.0603335062208004
  0
ARC
  5
C3C9
  8
0
 10
433.4711010959533724
 20
127.8092994169631993
 30
0.0
 40
0.0120649868521407
 50
32.3646769782103618
 51
93.4490223248128871
  0
ARC
  5
C3CA
  8
0
 10
433.4719552673875
 20
127.8026748730668061
 30
0.0
 40
0.0187344229945191
 50
94.8378847182589766
 51
127.4461565101731964
  0
ARC
  5
C3CB
  8
0
 10
436.6100247716869944
 20
123.4604008095952992
 30
0.0
 40
5.3762289034403992
 50
125.8603869140013956
 51
141.4375781471532036
  0
ARC
  5
C3CC
  8
0
 10
437.3875651832689186
 20
122.7637506757337036
 30
0.0
 40
6.4187600976028101
 50
140.9016501841396973
 51
179.7260635162959943
  0
ARC
  5
C3CD
  8
0
 10
465.369350363262015
 20
122.6638950560550967
 30
0.0
 40
34.4007196110820814
 50
179.7825728799649028
 51
189.1034167543639057
  0
ARC
  5
C3CE
  8
0
 10
444.3990529721132816
 20
119.0129708320225035
 30
0.0
 40
13.1200593782968902
 50
187.8496188640220907
 51
211.6289215103263928
  0
ARC
  5
C3CF
  8
0
 10
439.5587600638439767
 20
116.1818338940548045
 30
0.0
 40
7.515124815355354
 50
212.6027096470820936
 51
225.947878688461401
  0
ARC
  5
C3D0
  8
0
 10
438.7063575692798167
 20
115.3007506817793058
 30
0.0
 40
6.2891975582585822
 50
225.947878688461401
 51
247.4623578546365934
  0
ARC
  5
C3D1
  8
0
 10
438.0433856162497932
 20
113.7031642740805069
 30
0.0
 40
4.5595114189349131
 50
247.4623578546365934
 51
263.7466244392305157
  0
ARC
  5
C3D2
  8
0
 10
438.2292065137169175
 20
115.3989595832813961
 30
0.0
 40
6.2654572377237798
 50
263.7466244392305157
 51
268.4059590709447889
  0
ARC
  5
C3D3
  8
0
 10
437.4409399790798147
 20
72.4871258791885822
 30
0.0
 40
36.653943712110518
 50
88.6959843412608677
 51
89.0402155848300936
  0
ARC
  5
C3D4
  8
0
 10
432.6731262663113853
 20
122.1882639457139987
 30
0.0
 40
3.7179908252879219
 50
118.2732637525609931
 51
119.276187526875006
  0
ARC
  5
C3D5
  8
0
 10
408.6752645943780067
 20
164.9936258579054993
 30
0.0
 40
45.3553866135937724
 50
298.9719821657636203
 51
299.2761875268749918
  0
ARC
  5
C3D6
  8
0
 10
440.0697823193539762
 20
108.2910423934751947
 30
0.0
 40
19.4581822954279495
 50
118.9719821657636061
 51
123.6673167536017957
  0
ARC
  5
C3D7
  8
0
 10
431.6133141347481228
 20
120.9866642184641989
 30
0.0
 40
4.2039806552113079
 50
123.6673167536017957
 51
129.9975389570599873
  0
ARC
  5
C3D8
  8
0
 10
429.8031058094109085
 20
123.1441746903811065
 30
0.0
 40
1.3876522621520899
 50
129.9975389570624884
 51
147.3183953654607024
  0
ARC
  5
C3D9
  8
0
 10
429.942860453124581
 20
123.1024062469160043
 30
0.0
 40
1.5283668528305461
 50
148.829627452413888
 51
176.5441418722249978
  0
ARC
  5
C3DA
  8
0
 10
435.6435474031445096
 20
122.7317565990632033
 30
0.0
 40
7.2410778042780386
 50
176.3357166094222066
 51
185.3914458005639005
  0
ARC
  5
C3DB
  8
0
 10
454.3613272654292246
 20
123.7151807783581035
 30
0.0
 40
25.9801533538120601
 50
183.6717884508084921
 51
188.6051603074018033
  0
ARC
  5
C3DC
  8
0
 10
431.4148176288471745
 20
120.3742113129611937
 30
0.0
 40
2.7950888168803312
 50
191.2709109710069981
 51
206.633617925121797
  0
ARC
  5
C3DD
  8
0
 10
431.0929069835975724
 20
120.2491462469286034
 30
0.0
 40
2.451486655426955
 50
207.3935220867510907
 51
227.4566456965586099
  0
ARC
  5
C3DE
  8
0
 10
433.6421744018931008
 20
123.1992479775045979
 30
0.0
 40
6.349771533709184
 50
228.5078422081346048
 51
241.2918012742690053
  0
ARC
  5
C3DF
  8
0
 10
440.9607958034698072
 20
135.6188324767763902
 30
0.0
 40
20.7631493894573005
 50
240.0409265880992962
 51
241.2562319350805922
  0
LINE
  5
C3E0
  8
0
 10
433.4865571581584049
 20
127.5723236235754001
 30
0.0
 11
433.550678946771086
 21
127.5712043735750996
 31
0.0
  0
LINE
  5
C3E1
  8
0
 10
433.5508412116565182
 20
127.1853092340922018
 30
0.0
 11
433.4865825384492837
 21
127.184209996692104
 31
0.0
  0
ARC
  5
C3E2
  8
0
 10
400.7169915887145066
 20
125.8458848943599975
 30
0.0
 40
32.8276211168975109
 50
3.4169098600424359
 51
3.8496438654546661
  0
ARC
  5
C3E3
  8
0
 10
433.4163943686015728
 20
128.0462358285323035
 30
0.0
 40
0.054270870168048
 50
3.8496438654514171
 51
60.8036016381354329
  0
ARC
  5
C3E4
  8
0
 10
433.4186595076153026
 20
128.0473239539259964
 30
0.0
 40
0.0522360760964629
 50
62.3904887286192533
 51
116.4346877943808067
  0
ARC
  5
C3E5
  8
0
 10
433.6512816308795095
 20
127.4584396448931045
 30
0.0
 40
0.685226054160628
 50
111.9266323632324998
 51
115.3361687023760993
  0
ARC
  5
C3E6
  8
0
 10
434.5752332314280011
 20
125.5525925580497955
 30
0.0
 40
2.8032077834281188
 50
115.7350015879622021
 51
120.8835577957047036
  0
ARC
  5
C3E7
  8
0
 10
436.011166904513118
 20
123.0581466289109045
 30
0.0
 40
5.681232583947267
 50
120.3989556058980952
 51
123.9641366205221971
  0
ARC
  5
C3E8
  8
0
 10
-11199.6350368885305215
 20
128.0839222725554123
 30
0.0
 40
11633.1857161375592113
 50
359.9987609227745793
 51
0.0004130265826007
  0
LINE
  5
C3E9
  8
0
 10
433.4428679588049249
 20
128.0936117334898086
 30
0.0
 11
433.550678946771086
 21
128.1677821131436019
 31
0.0
  0
ARC
  5
C3EA
  8
0
 10
433.6051226487198846
 20
128.149614030115913
 30
0.0
 40
0.0573950862251783
 50
112.8056657074105971
 51
161.5459376198423058
  0
ARC
  5
C3EB
  8
0
 10
436.83848765731301
 20
121.1376085676759971
 30
0.0
 40
7.7789467808607151
 50
97.0599343158215362
 51
114.7409158724738063
  0
LINE
  5
C3EC
  8
0
 10
435.882396517971074
 20
128.8575763624751005
 30
0.0
 11
435.8764293646920009
 21
128.5633214862675118
 31
0.0
  0
LINE
  5
C3ED
  8
0
 10
431.2097062862608823
 20
118.5984029218973035
 30
0.0
 11
430.9121577182710894
 21
118.6532492651751056
 31
0.0
  0
ARC
  5
C3EE
  8
0
 10
455.2811428267372094
 20
121.7496577978384948
 30
0.0
 40
24.5649176879914712
 50
187.2413975365269039
 51
190.6976234206246943
  0
LINE
  5
C3EF
  8
0
 10
431.143151199671081
 20
117.1897738925751042
 30
0.0
 11
431.401928102747604
 21
117.2211256095479968
 31
0.0
  0
ARC
  5
C3F0
  8
0
 10
438.2844301546268753
 20
117.2607013999357974
 30
0.0
 40
8.6266245943929736
 50
269.9379552258798753
 51
270.8879257674582846
  0
ARC
  5
C3F1
  8
0
 10
438.3134415026257216
 20
115.3820300809696988
 30
0.0
 40
6.7477292889333409
 50
270.8888187648176995
 51
275.2957624951183107
  0
ARC
  5
C3F2
  8
0
 10
438.4205367281023769
 20
114.2266495596483935
 30
0.0
 40
5.5873959159888553
 50
275.2957624951183107
 51
285.537254417778172
  0
ARC
  5
C3F3
  8
0
 10
438.4689039982445138
 20
113.7926912414408065
 30
0.0
 40
5.1568103456805101
 50
286.3110542269815824
 51
307.12963014548518
  0
ARC
  5
C3F4
  8
0
 10
436.7118693277744228
 20
115.9360601521954948
 30
0.0
 40
7.9269629292293899
 50
307.9034299546893862
 51
326.4695127867057067
  0
ARC
  5
C3F5
  8
0
 10
430.2601335500996811
 20
119.9468321218310933
 30
0.0
 40
15.5221168368817999
 50
327.2833330923913877
 51
350.603473809328591
  0
ARC
  5
C3F6
  8
0
 10
415.4674590971624184
 20
122.6321772572067061
 30
0.0
 40
30.5556273797182385
 50
350.1643695520725146
 51
0.6254997212908533
  0
ARC
  5
C3F7
  8
0
 10
434.9753216908824811
 20
122.8920183209609007
 30
0.0
 40
11.04619002964799
 50
0.3824297632656987
 51
6.9959216397335267
  0
ARC
  5
C3F8
  8
0
 10
440.673900674455524
 20
123.5931604498356933
 30
0.0
 40
5.3046400954017843
 50
6.9760203371081468
 51
20.941243954759809
  0
ARC
  5
C3F9
  8
0
 10
441.4422739954342774
 20
123.8326006692119989
 30
0.0
 40
4.5017302785745841
 50
21.5903607674470486
 51
39.7690185302359325
  0
ARC
  5
C3FA
  8
0
 10
440.5539780289207101
 20
123.0200722128038962
 30
0.0
 40
5.7045482997361159
 50
40.3344539467765131
 51
56.374197171426033
  0
ARC
  5
C3FB
  8
0
 10
438.9035339122535788
 20
122.4180859928774936
 30
0.0
 40
7.1954558306174317
 50
48.0560178188275273
 51
51.1575836942381983
  0
LINE
  5
C3FC
  8
0
 10
443.4602849307710812
 20
128.0619720993751116
 30
0.0
 11
443.4163841334872131
 21
128.0224385416628934
 31
0.0
  0
LINE
  5
C3FD
  8
0
 10
443.4163841334872131
 20
128.0224385416628934
 30
0.0
 11
443.4024109084554084
 21
128.0259468756503907
 31
0.0
  0
LINE
  5
C3FE
  8
0
 10
443.4024109084554084
 20
128.0259468756503907
 30
0.0
 11
442.9764664241711216
 21
128.3301836941751048
 31
0.0
  0
LINE
  5
C3FF
  8
0
 10
442.9764664241711216
 20
128.3301836941751048
 30
0.0
 11
442.9706196031710874
 21
128.3409978968751091
 31
0.0
  0
LINE
  5
C400
  8
0
 10
442.9706196031710874
 20
128.3409978968751091
 30
0.0
 11
443.0145183928977985
 21
128.3805208970140086
 31
0.0
  0
LINE
  5
C401
  8
0
 10
443.0145183928977985
 20
128.3805208970140086
 30
0.0
 11
443.0203531853126151
 21
128.3696973660069887
 31
0.0
  0
LINE
  5
C402
  8
0
 10
443.0203531853126151
 20
128.3696973660069887
 30
0.0
 11
443.4463328100711124
 21
128.0654874760751056
 31
0.0
  0
LINE
  5
C403
  8
0
 10
443.4463328100711124
 20
128.0654874760751056
 30
0.0
 11
443.4602849307710812
 21
128.0619720993751116
 31
0.0
  0
LINE
  5
C404
  8
0
 10
443.4602849307710812
 20
128.0619720993751116
 30
0.0
 11
443.3612088486258926
 21
128.1514013943105965
 31
0.0
  0
ARC
  5
C405
  8
0
 10
443.1189771829710935
 20
128.0800172743751091
 30
0.0
 40
0.252530933600008
 50
16.419907547645721
 51
93.5800924432677732
  0
LINE
  5
C406
  8
0
 10
443.1032082047503877
 20
128.3320553900456957
 30
0.0
 11
443.093159021580675
 21
128.3177036692426043
 31
0.0
  0
LINE
  5
C407
  8
0
 10
443.1032082047710787
 20
128.3320553900751122
 30
0.0
 11
443.3612088481511933
 21
128.1514013947391959
 31
0.0
  0
LINE
  5
C408
  8
0
 10
443.3612088481511933
 20
128.1514013947391959
 30
0.0
 11
443.3494815224061085
 21
128.1346530366980119
 31
0.0
  0
ARC
  5
C409
  8
0
 10
440.1442742033855211
 20
123.6921260907572986
 30
0.0
 40
5.4406100198972451
 50
58.7019163300317999
 51
89.634002909276802
  0
ARC
  5
C40A
  8
0
 10
438.7687705241763183
 20
100.7517686842107025
 30
0.0
 40
28.4158729764118405
 50
87.1552872499957658
 51
90.4560590318086781
  0
LINE
  5
C40B
  8
0
 10
438.5425901879710864
 20
129.1667414884751111
 30
0.0
 11
438.5425901747710782
 21
129.2257638201751035
 31
0.0
  0
LINE
  5
C40C
  8
0
 10
438.5425901747710782
 20
129.2257638201751035
 30
0.0
 11
438.4834540077711154
 21
129.2257875889750949
 31
0.0
  0
LINE
  5
C40D
  8
0
 10
438.4834540077711154
 20
129.2257875889750949
 30
0.0
 11
438.4716704876710764
 21
129.2198348445751037
 31
0.0
  0
ARC
  5
C40E
  8
0
 10
438.4591804493807103
 20
129.2733289593587926
 30
0.0
 40
0.054932880617909
 50
272.7221258528369958
 51
283.1422275527610282
  0
ARC
  5
C40F
  8
0
 10
438.2981172420953158
 20
132.980961058623393
 30
0.0
 40
3.7660612493594972
 50
269.6496538666253855
 51
272.4908449165387765
  0
ARC
  5
C410
  8
0
 10
438.2750885089711232
 20
129.043058489575202
 30
0.0
 40
0.2525309335999998
 50
51.4199075441696607
 51
128.5800924278429136
  0
LINE
  5
C411
  8
0
 10
438.4325688239711099
 20
129.2404713128981939
 30
0.0
 11
438.4325688239711099
 21
129.2173005922610969
 31
0.0
  0
LINE
  5
C412
  8
0
 10
438.4325688239711099
 20
129.2404713128981939
 30
0.0
 11
438.1176081940674862
 21
129.240471312975103
 31
0.0
  0
LINE
  5
C413
  8
0
 10
438.1176081940674862
 20
129.240471312975103
 30
0.0
 11
438.1176081940674862
 21
129.2173005922576863
 31
0.0
  0
ARC
  5
C414
  8
0
 10
-5036.1154670958885617
 20
10944.9050326683991443
 30
0.0
 40
12122.3791240613700211
 50
296.847336651404305
 51
296.8473999392793985
  0
ARC
  5
C415
  8
0
 10
438.4914298265401271
 20
129.412080823976595
 30
0.0
 40
0.2544265879247484
 50
271.1868524851824986
 51
278.8660508965725171
  0
ARC
  5
C416
  8
0
 10
438.2923700623450145
 20
135.4000340133580096
 30
0.0
 40
6.2456684547487678
 50
269.840210787474291
 51
271.8747903538102832
  0
ARC
  5
C417
  8
0
 10
438.4058904499866003
 20
114.546194478318796
 30
0.0
 40
14.1993820930524404
 50
80.8137110388608022
 51
90.5278050213524921
  0
ARC
  5
C418
  8
0
 10
439.5914351885290898
 20
120.9032880703222048
 30
0.0
 40
7.736117385658611
 50
64.13488777691839
 51
81.9651791437979256
  0
ARC
  5
C419
  8
0
 10
442.9372370831976014
 20
127.8011790359445001
 30
0.0
 40
0.0696271490023218
 50
26.5889969761777607
 51
65.2863558499397101
  0
LINE
  5
C41A
  8
0
 10
442.9995004793730118
 20
127.8323432682453955
 30
0.0
 11
442.9990248396711081
 21
125.9634581936750948
 31
0.0
  0
ARC
  5
C41B
  8
0
 10
442.9769129341165126
 20
125.9634163492668932
 30
0.0
 40
0.0221119450483422
 50
324.2203990583734026
 51
0.1084258911890292
  0
ARC
  5
C41C
  8
0
 10
442.9865170903203193
 20
125.9584947956596039
 30
0.0
 40
0.0115573427811168
 50
265.9671988179144932
 51
316.1499993182105754
  0
ARC
  5
C41D
  8
0
 10
442.9865925467184979
 20
126.0055896601716938
 30
0.0
 40
0.0586303197345731
 50
259.7623781098620839
 51
269.1319291538733864
  0
ARC
  5
C41E
  8
0
 10
441.4334057801909239
 20
117.0632126021919959
 30
0.0
 40
9.0176310623427298
 50
80.1491879277866275
 51
80.9091981975408174
  0
ARC
  5
C41F
  8
0
 10
437.9497258262484252
 20
83.9697793317462526
 30
0.0
 40
42.2836590740227578
 50
83.3338403260287919
 51
89.5591182762614721
  0
ARC
  5
C420
  8
0
 10
438.426982389529087
 20
85.3492281612140857
 30
0.0
 40
40.7318747121862401
 50
87.4734919193131333
 51
90.213663096096397
  0
ARC
  5
C421
  8
0
 10
439.072977987427123
 20
99.9895254286680171
 30
0.0
 40
26.077332263105081
 50
81.6675375364442147
 51
87.4734918832666608
  0
ARC
  5
C422
  8
0
 10
442.7462550721344883
 20
124.8465913532889999
 30
0.0
 40
0.9508903897047049
 50
75.9640626978947324
 51
83.6138088898611755
  0
ARC
  5
C423
  8
0
 10
443.0726737801232957
 20
126.1493104740219025
 30
0.0
 40
0.3921016250821796
 50
255.8582621774473864
 51
259.2441499975485044
  0
ARC
  5
C424
  8
0
 10
443.0154883046789109
 20
125.8295700370065049
 30
0.0
 40
0.0673968446040333
 50
256.2754195751894031
 51
289.1820745326743918
  0
ARC
  5
C425
  8
0
 10
443.0205317749450273
 20
125.7984803529672035
 30
0.0
 40
0.0367824035957197
 50
297.7055990061014086
 51
343.6236286954140269
  0
ARC
  5
C426
  8
0
 10
442.9434411451563847
 20
125.8283984946771028
 30
0.0
 40
0.119384365771361
 50
340.2771187809314029
 51
0.4758413454307088
  0
ARC
  5
C427
  8
0
 10
441.143193824190007
 20
125.882730641914705
 30
0.0
 40
1.920368514966406
 50
358.4083323260039151
 51
359.5927392368799929
  0
LINE
  5
C428
  8
0
 10
443.0635138267711
 20
125.8690806982750985
 30
0.0
 11
443.0636316665156755
 21
127.7905843655546931
 31
0.0
  0
ARC
  5
C429
  8
0
 10
443.3034750282303094
 20
127.7906336510180978
 30
0.0
 40
0.239843366778507
 50
177.1776420876879001
 51
180.0117737265952087
  0
ARC
  5
C42A
  8
0
 10
443.0873659980596244
 20
127.8012876791427033
 30
0.0
 40
0.0234718778141788
 50
141.9396664937792139
 51
177.1776420876894917
  0
ARC
  5
C42B
  8
0
 10
443.0790759219888173
 20
127.8092994169631993
 30
0.0
 40
0.0120649868521407
 50
86.5509776751871129
 51
147.6353230217895884
  0
ARC
  5
C42C
  8
0
 10
443.0782217505545759
 20
127.8026748730668061
 30
0.0
 40
0.0187344229945191
 50
52.5538434898267681
 51
85.1621152817410518
  0
ARC
  5
C42D
  8
0
 10
439.9401522462551952
 20
123.4604008095952992
 30
0.0
 40
5.3762289034403992
 50
38.5624218528467466
 51
54.1396130859985334
  0
ARC
  5
C42E
  8
0
 10
439.1626118346733278
 20
122.7637506757337036
 30
0.0
 40
6.4187600976028101
 50
0.2739364837039202
 51
39.0983498158602387
  0
ARC
  5
C42F
  8
0
 10
411.1808266546801747
 20
122.6638950560550967
 30
0.0
 40
34.4007196110820814
 50
350.8965832456361227
 51
0.2174271200350939
  0
ARC
  5
C430
  8
0
 10
432.151124045828908
 20
119.0129708320225035
 30
0.0
 40
13.1200593782968902
 50
328.3710784896736072
 51
352.1503811359777956
  0
ARC
  5
C431
  8
0
 10
436.991416954098213
 20
116.1818338940548045
 30
0.0
 40
7.515124815355354
 50
314.052121311538599
 51
327.397290352917878
  0
ARC
  5
C432
  8
0
 10
437.8438194486623729
 20
115.3007506817793058
 30
0.0
 40
6.2891975582585822
 50
292.5376421453634066
 51
314.052121311538599
  0
ARC
  5
C433
  8
0
 10
438.5067914016922828
 20
113.7031642740805069
 30
0.0
 40
4.5595114189349131
 50
276.2533755607694843
 51
292.5376421453634066
  0
ARC
  5
C434
  8
0
 10
438.3209705042252722
 20
115.3989595832813961
 30
0.0
 40
6.2654572377237798
 50
271.5940409290550974
 51
276.2533755607694843
  0
ARC
  5
C435
  8
0
 10
439.109236992340584
 20
72.4871282337714575
 30
0.0
 40
36.6539413570787289
 50
90.959784404111204
 51
91.3040156697991847
  0
LINE
  5
C436
  8
0
 10
443.0636198597837847
 20
127.5723236235754001
 30
0.0
 11
442.99949807117099
 21
127.5712043735750996
 31
0.0
  0
LINE
  5
C437
  8
0
 10
442.9993358062857283
 20
127.1853092340922018
 30
0.0
 11
443.063594479492906
 21
127.184209996692104
 31
0.0
  0
ARC
  5
C438
  8
0
 10
475.833185429227683
 20
125.8458848943599975
 30
0.0
 40
32.8276211168975109
 50
176.1503561345452908
 51
176.5830901399575055
  0
ARC
  5
C439
  8
0
 10
443.1337826493406169
 20
128.0462358285323035
 30
0.0
 40
0.054270870168048
 50
119.196398361864496
 51
176.1503561345485878
  0
ARC
  5
C43A
  8
0
 10
443.1315175103268871
 20
128.0473239539259964
 30
0.0
 40
0.0522360760964629
 50
63.5653122056191933
 51
117.6095112713806969
  0
ARC
  5
C43B
  8
0
 10
442.8988953870626801
 20
127.4584396448931045
 30
0.0
 40
0.685226054160628
 50
64.6638312976238581
 51
68.0733676367674576
  0
ARC
  5
C43C
  8
0
 10
441.9749437865141886
 20
125.5525925580497955
 30
0.0
 40
2.8032077834281188
 50
59.1164422042952609
 51
64.2649984120377979
  0
ARC
  5
C43D
  8
0
 10
440.5390101134290717
 20
123.0581466289109045
 30
0.0
 40
5.681232583947267
 50
56.0358633794778171
 51
59.6010443941018409
  0
ARC
  5
C43E
  8
0
 10
12076.1852139064703806
 20
128.0839222725554123
 30
0.0
 40
11633.1857161375592113
 50
179.9995869734173937
 51
180.0012390772253923
  0
LINE
  5
C43F
  8
0
 10
443.1073090591373216
 20
128.0936117334898086
 30
0.0
 11
442.99949807117099
 21
128.1677821131436019
 31
0.0
  0
ARC
  5
C440
  8
0
 10
442.9450543691713165
 20
128.1496140300779132
 30
0.0
 40
0.057395086285623
 50
18.4540624000036786
 51
67.1941186855492987
  0
ARC
  5
C441
  8
0
 10
439.7116892993155943
 20
121.1376082657751994
 30
0.0
 40
7.7789470880084481
 50
65.2590830604248424
 51
82.9400655092995294
  0
LINE
  5
C442
  8
0
 10
440.6677804999711157
 20
128.8575763624751005
 30
0.0
 11
440.6737476532501887
 21
128.5633214862675118
 31
0.0
  0
LINE
  5
C443
  8
0
 10
445.3404707316813074
 20
118.5984029218973035
 30
0.0
 11
445.6380192996711003
 21
118.6532492651751056
 31
0.0
  0
ARC
  5
C444
  8
0
 10
421.2690341912049803
 20
121.7496577978384948
 30
0.0
 40
24.5649176879914712
 50
349.3023765793752773
 51
352.7586024634730961
  0
LINE
  5
C445
  8
0
 10
445.4070258182711086
 20
117.1897738925751042
 30
0.0
 11
445.1482489151945856
 21
117.2211256095479968
 31
0.0
  0
ENDSEC
  0
EOF
