  0
SECTION
  2
HEADER
  9
$ACADVER
  1
AC1009
  9
$INSBASE
 10
470.3932929726739758
 20
96.4577966165999499
 30
0.0
  9
$EXTMIN
 10
449.7158861979211792
 20
96.4510130871621953
 30
-0.0000000000000058
  9
$EXTMAX
 10
470.4240772535861197
 20
102.1972497287277974
 30
0.0000000000000104
  9
$LIMMIN
 10
0.0
 20
0.0
  9
$LIMMAX
 10
11.6929133858000007
 20
8.2677165353999982
  9
$ORTHOMODE
 70
     0
  9
$REGENMODE
 70
     1
  9
$FILLMODE
 70
     1
  9
$QTEXTMODE
 70
     0
  9
$MIRRTEXT
 70
     0
  9
$DRAGMODE
 70
     2
  9
$LTSCALE
 40
0.6431102362
  9
$OSMODE
 70
  4095
  9
$ATTMODE
 70
     1
  9
$TEXTSIZE
 40
0.2
  9
$TRACEWID
 40
0.05
  9
$TEXTSTYLE
  7
STANDARD
  9
$CLAYER
  8
0
  9
$CELTYPE
  6
BYLAYER
  9
$CECOLOR
 62
   256
  9
$DIMSCALE
 40
1.0
  9
$DIMASZ
 40
0.1875
  9
$DIMEXO
 40
0.0625
  9
$DIMDLI
 40
0.4443307087
  9
$DIMRND
 40
0.0
  9
$DIMDLE
 40
0.0
  9
$DIMEXE
 40
0.125
  9
$DIMTP
 40
0.01
  9
$DIMTM
 40
0.01
  9
$DIMTXT
 40
1.0
  9
$DIMCEN
 40
0.1052362205
  9
$DIMTSZ
 40
0.0
  9
$DIMTOL
 70
     1
  9
$DIMLIM
 70
     0
  9
$DIMTIH
 70
     0
  9
$DIMTOH
 70
     1
  9
$DIMSE1
 70
     0
  9
$DIMSE2
 70
     0
  9
$DIMTAD
 70
     0
  9
$DIMZIN
 70
     0
  9
$DIMBLK
  1

  9
$DIMASO
 70
     1
  9
$DIMSHO
 70
     1
  9
$DIMPOST
  1
\X
  9
$DIMAPOST
  1

  9
$DIMALT
 70
     1
  9
$DIMALTD
 70
     2
  9
$DIMALTF
 40
25.3999999999999986
  9
$DIMLFAC
 40
1.0
  9
$DIMTOFL
 70
     0
  9
$DIMTVP
 40
0.0
  9
$DIMTIX
 70
     0
  9
$DIMSOXD
 70
     0
  9
$DIMSAH
 70
     0
  9
$DIMBLK1
  1

  9
$DIMBLK2
  1

  9
$DIMSTYLE
  2
STANDARD
  9
$DIMCLRD
 70
     0
  9
$DIMCLRE
 70
     0
  9
$DIMCLRT
 70
     0
  9
$DIMTFAC
 40
1.0
  9
$DIMGAP
 40
0.09
  9
$LUNITS
 70
     2
  9
$LUPREC
 70
     4
  9
$SKETCHINC
 40
0.1
  9
$FILLETRAD
 40
0.0
  9
$AUNITS
 70
     0
  9
$AUPREC
 70
     0
  9
$MENU
  1
.
  9
$ELEVATION
 40
0.0
  9
$PELEVATION
 40
0.0
  9
$THICKNESS
 40
0.0
  9
$LIMCHECK
 70
     0
  9
$BLIPMODE
 70
     0
  9
$CHAMFERA
 40
0.0
  9
$CHAMFERB
 40
0.0
  9
$SKPOLY
 70
     0
  9
$TDCREATE
 40
2458172.5207638889551163
  9
$TDUPDATE
 40
2459776.7999537037685513
  9
$TDINDWG
 40
0.3022345139
  9
$TDUSRTIMER
 40
0.3022345139
  9
$USRTIMER
 70
     1
  9
$ANGBASE
 50
0.0
  9
$ANGDIR
 70
     0
  9
$PDMODE
 70
     0
  9
$PDSIZE
 40
0.3125
  9
$PLINEWID
 40
0.0
  9
$COORDS
 70
     1
  9
$SPLFRAME
 70
     0
  9
$SPLINETYPE
 70
     6
  9
$SPLINESEGS
 70
     8
  9
$ATTDIA
 70
     1
  9
$ATTREQ
 70
     1
  9
$HANDLING
 70
     1
  9
$HANDSEED
  5
CAD0
  9
$SURFTAB1
 70
     6
  9
$SURFTAB2
 70
     6
  9
$SURFTYPE
 70
     6
  9
$SURFU
 70
     6
  9
$SURFV
 70
     6
  9
$UCSNAME
  2

  9
$UCSORG
 10
0.0
 20
0.0
 30
0.0
  9
$UCSXDIR
 10
1.0
 20
0.0
 30
0.0
  9
$UCSYDIR
 10
0.0
 20
1.0
 30
0.0
  9
$PUCSNAME
  2

  9
$PUCSORG
 10
0.0
 20
0.0
 30
0.0
  9
$PUCSXDIR
 10
1.0
 20
0.0
 30
0.0
  9
$PUCSYDIR
 10
0.0
 20
1.0
 30
0.0
  9
$USERI1
 70
     0
  9
$USERI2
 70
     0
  9
$USERI3
 70
     0
  9
$USERI4
 70
     0
  9
$USERI5
 70
     0
  9
$USERR1
 40
0.0
  9
$USERR2
 40
0.0
  9
$USERR3
 40
0.0
  9
$USERR4
 40
0.0
  9
$USERR5
 40
0.0
  9
$WORLDVIEW
 70
     1
  9
$SHADEDGE
 70
     3
  9
$SHADEDIF
 70
    70
  9
$TILEMODE
 70
     1
  9
$MAXACTVP
 70
    64
  9
$PLIMCHECK
 70
     0
  9
$PEXTMIN
 10
1.0000000000000000E+20
 20
1.0000000000000000E+20
 30
1.0000000000000000E+20
  9
$PEXTMAX
 10
-1.0000000000000000E+20
 20
-1.0000000000000000E+20
 30
-1.0000000000000000E+20
  9
$PLIMMIN
 10
0.0
 20
0.0
  9
$PLIMMAX
 10
12.0
 20
9.0
  9
$UNITMODE
 70
     0
  9
$VISRETAIN
 70
     1
  9
$PLINEGEN
 70
     0
  9
$PSLTSCALE
 70
     1
  0
ENDSEC
  0
SECTION
  2
TABLES
  0
TABLE
  2
VPORT
 70
     1
  0
VPORT
  2
*ACTIVE
 70
     0
 10
0.0
 20
0.0
 11
1.0
 21
1.0
 12
-43.4705644954333295
 22
5.4777154285285983
 13
0.0
 23
0.0
 14
1.0
 24
1.0
 15
0.0
 25
0.0
 16
0.0
 26
0.0
 36
25.7967328817476016
 17
503.5405462211870145
 27
93.8464159794164061
 37
0.0
 40
9.0984358603259121
 41
2.2831541218637992
 42
50.0
 43
0.0
 44
0.0
 50
0.0
 51
0.0
 71
     0
 72
   100
 73
     1
 74
     1
 75
     0
 76
     0
 77
     0
 78
     0
  0
ENDTAB
  0
TABLE
  2
LTYPE
 70
     2
  0
LTYPE
  2
CONTINUOUS
 70
     0
  3
Solid line
 72
    65
 73
     0
 40
0.0
  0
LTYPE
  2
PHANTOM2
 70
     0
  3
___ _ _ ___ _ _ ___ _ _ ___ _ _
 72
    65
 73
     6
 40
1.25
 49
0.625
 49
-0.125
 49
0.125
 49
-0.125
 49
0.125
 49
-0.125
  0
ENDTAB
  0
TABLE
  2
LAYER
 70
     2
  0
LAYER
  2
0
 70
     0
 62
   255
  6
CONTINUOUS
  0
LAYER
  2
DEFPOINTS
 70
     0
 62
     7
  6
CONTINUOUS
  0
ENDTAB
  0
TABLE
  2
STYLE
 70
     1
  0
STYLE
  2
STANDARD
 70
     0
 40
0.0
 41
0.8
 50
0.0
 71
     0
 42
0.2
  3
txt
  4

  0
ENDTAB
  0
TABLE
  2
VIEW
 70
     0
  0
ENDTAB
  0
TABLE
  2
UCS
 70
     0
  0
ENDTAB
  0
TABLE
  2
APPID
 70
    10
  0
APPID
  2
ACAD
 70
     0
  0
APPID
  2
ACAD_MLEADERVER
 70
     0
  0
APPID
  2
ACAD_EXEMPT_FROM_CAD_STANDARDS
 70
     0
  0
APPID
  2
ACAD_DSTYLE_DIMJAG
 70
     0
  0
APPID
  2
ACAD_DSTYLE_DIMTALN
 70
     0
  0
APPID
  2
ACAD_NAV_VCDISPLAY
 70
     0
  0
APPID
  2
ACAECLAYERSTANDARD
 70
     0
  0
APPID
  2
ACCMTRANSPARENCY
 70
     0
  0
APPID
  2
DCO15
 70
     0
  0
APPID
  2
ACDBATTR
 70
     0
  0
ENDTAB
  0
TABLE
  2
DIMSTYLE
 70
     1
  0
DIMSTYLE
  2
STANDARD
 70
     0
  3

  4

  5

  6

  7

 40
1.0
 41
0.1875
 42
0.0625
 43
0.38
 44
0.125
 45
0.0
 46
0.0
 47
0.01
 48
0.01
140
0.15625
141
0.09
142
0.0
143
25.3999999999999986
144
1.0
145
0.0
146
1.0
147
0.09
 71
     1
 72
     0
 73
     1
 74
     1
 75
     0
 76
     0
 77
     0
 78
     4
170
     0
171
     2
172
     0
173
     0
174
     0
175
     0
176
     0
177
     0
178
     0
  0
ENDTAB
  0
ENDSEC
  0
SECTION
  2
BLOCKS
  0
BLOCK
  8
0
  2
$MODEL_SPACE
 70
     0
 10
0.0
 20
0.0
 30
0.0
  3
$MODEL_SPACE
  1

  0
ENDBLK
  5
21
  8
0
  0
BLOCK
 67
     1
  8
0
  2
$PAPER_SPACE
 70
     0
 10
0.0
 20
0.0
 30
0.0
  3
$PAPER_SPACE
  1

  0
ENDBLK
  5
1D
 67
     1
  8
0
  0
BLOCK
  8
0
  2
_FILLED
 70
     0
 10
0.0
 20
0.0
 30
0.0
  3
_FILLED
  1

  0
SOLID
  5
8C29
  8
0
  6
BYBLOCK
 62
     0
 10
0.0
 20
0.0
 30
0.0
 11
-1.0
 21
0.1666666667
 31
0.0
 12
-1.0
 22
-0.1666666667
 32
0.0
 13
-1.0
 23
-0.1666666667
 33
0.0
  0
ENDBLK
  5
8C2A
  8
0
  6
BYBLOCK
 62
     0
  0
ENDSEC
  0
SECTION
  2
ENTITIES
  0
ATTDEF
  5
AF70
  8
DEFPOINTS
 10
470.39397111855601
 20
96.4616460917596044
 30
0.0
 40
0.001
  1
K-8297T-XP
  3

  2
MODELNUMBER
 70
     0
1001
ACDBATTR
1070
     0
1070
     1
  0
ATTDEF
  5
AF71
  8
DEFPOINTS
 10
470.39397111855601
 20
96.4599794250929534
 30
0.0
 40
0.001
  1
C3-150
  3

  2
TRADENAME
 70
     0
1001
ACDBATTR
1070
     0
1070
     1
  0
ATTDEF
  5
AF72
  8
DEFPOINTS
 10
470.39397111855601
 20
96.4583127584262883
 30
0.0
 40
0.001
  1
TOILET SEAT
  3

  2
PRODUCT
 70
     0
1001
ACDBATTR
1070
     0
1070
     1
  0
ARC
  5
C526
  8
0
 10
450.4771611117558905
 20
141.9884067090034989
 30
0.0
 40
43.2231584964953797
 50
269.7952394433814902
 51
272.5512132871642166
  0
ARC
  5
C527
  8
0
 10
451.443972289266128
 20
120.2909081234559068
 30
0.0
 40
21.5041306932410698
 50
272.5510905960712194
 51
281.2581917821850084
  0
ARC
  5
C528
  8
0
 10
449.4348275235917072
 20
127.9537361005454983
 30
0.0
 40
29.4155789452827996
 50
282.1823975329058953
 51
288.7573098401006746
  0
ARC
  5
C529
  8
0
 10
268.5657106806086745
 20
674.1458660838849255
 30
0.0
 40
604.7750762379797607
 50
288.3432312156185162
 51
288.5680221952796956
  0
ARC
  5
C52A
  8
0
 10
468.6244201464496086
 20
79.3558524958128118
 30
0.0
 40
22.7599843859480018
 50
103.412438561583798
 51
109.1866854367732032
  0
ARC
  5
C52B
  8
0
 10
469.1632643429553013
 20
76.3382795684373434
 30
0.0
 40
25.8208429693650388
 50
97.1582345387619171
 51
103.022326755654106
  0
ARC
  5
C52C
  8
0
 10
469.8262066951667748
 20
73.031760586717084
 30
0.0
 40
29.1852341939677693
 50
92.5366601483607241
 51
97.6406907916098135
  0
ARC
  5
C52D
  8
0
 10
468.844986952570423
 20
90.5265020955777686
 30
0.0
 40
11.6660265418692202
 50
90.6985027569581774
 51
91.5250426555404033
  0
ARC
  5
C52E
  8
0
 10
468.9215792890328203
 20
84.2442073338275605
 30
0.0
 40
17.9487881846119208
 50
89.8028006351784853
 51
90.6985027569581774
  0
ARC
  5
C52F
  8
0
 10
469.4191264940531028
 20
229.1928756878629088
 30
0.0
 40
127.000734101877697
 50
269.8034033308143194
 51
270.1905980100224269
  0
ARC
  5
C530
  8
0
 10
469.8417493131568108
 20
102.1564682087126954
 30
0.0
 40
0.0363763727359003
 50
32.0029835485905707
 51
90.2326052916960606
  0
LINE
  5
C531
  8
0
 10
469.8725972229761965
 20
102.1757463557498937
 30
0.0
 11
470.1409740916762985
 21
101.7185625460498954
 31
0.0
  0
ARC
  5
C532
  8
0
 10
470.0221266414574757
 20
101.6666808702473048
 30
0.0
 40
0.1296781581747239
 50
358.1927520160555787
 51
23.5831982137368286
  0
ARC
  5
C533
  8
0
 10
-57451.8871635848408914
 20
-1428.3989940979729454
 30
0.0
 40
57942.2443406995007535
 50
1.5089401733465859
 51
1.513166496449168
  0
LINE
  5
C534
  8
0
 10
465.489106781865928
 20
97.3900689933499564
 30
0.0
 11
460.5357446635762813
 21
97.3900689933499564
 31
0.0
  0
ARC
  5
C535
  8
0
 10
460.5357446635762813
 20
97.3390194779958904
 30
0.0
 40
0.0510495153540549
 50
90.0
 51
150.1566185259412975
  0
ARC
  5
C536
  8
0
 10
467.8763550074878026
 20
93.5634479498814784
 30
0.0
 40
8.3056616683993241
 50
152.7652890800611942
 51
153.5000134786990884
  0
ARC
  5
C537
  8
0
 10
450.3207681235119253
 20
98.6330054230427038
 30
0.0
 40
0.1325203292035064
 50
89.448725332753682
 51
132.2113565661271082
  0
ARC
  5
C538
  8
0
 10
-2961.7011187937569048
 20
4269.4563767131739951
 30
0.0
 40
5388.528056575224582
 50
309.2796250530086013
 51
309.2854675143910868
  0
ARC
  5
C539
  8
0
 10
449.9261180805671074
 20
98.2530587783821261
 30
0.0
 40
0.1768625343639301
 50
132.5909426642080859
 51
180.1224908030540064
  0
LINE
  5
C53A
  8
0
 10
449.7492559503763232
 20
98.2526806699499531
 30
0.0
 11
449.7319222683938733
 21
97.6100256135411541
 31
0.0
  0
ARC
  5
C53B
  8
0
 10
449.8215887396312951
 20
97.6056222616140587
 30
0.0
 40
0.0897745263893635
 50
177.1885679074906079
 51
189.0735025306811963
  0
ARC
  5
C53C
  8
0
 10
449.7557773992974717
 20
97.5946647923498745
 30
0.0
 40
0.0230629176541287
 50
187.9758208123934935
 51
225.7311944680845954
  0
ARC
  5
C53D
  8
0
 10
449.7539495513217958
 20
97.59666536759471
 30
0.0
 40
0.0233766588527879
 50
232.3767889305991901
 51
258.4672570080878131
  0
ARC
  5
C53E
  8
0
 10
449.7646138649121781
 20
97.6743687659839992
 30
0.0
 40
0.1017705367728287
 50
261.3318559875611982
 51
269.3970871296543805
  0
ARC
  5
C53F
  8
0
 10
450.6285485857537765
 20
133.6974194154740871
 30
0.0
 40
36.1368820988969972
 50
271.4806959288300732
 51
274.1304805566043115
  0
ARC
  5
C540
  8
0
 10
450.6686788650609969
 20
131.931993847467794
 30
0.0
 40
34.3732619703365998
 50
274.275722033374393
 51
282.8139325131563169
  0
ARC
  5
C541
  8
0
 10
398.4539058516522232
 20
371.1148380189284239
 30
0.0
 40
279.1879987515847006
 50
282.3762027564260961
 51
284.4114953097832768
  0
ARC
  5
C542
  8
0
 10
464.2076256591657852
 20
116.1579025789833963
 30
0.0
 40
15.8903309798285104
 50
283.5824859226414105
 51
285.8903394837379892
  0
ARC
  5
C543
  8
0
 10
468.2690511132755091
 20
101.9637498710748957
 30
0.0
 40
1.126742108921964
 50
284.87779904563331
 51
306.2903284158039128
  0
ARC
  5
C544
  8
0
 10
468.5247041866402924
 20
101.5621469145137041
 30
0.0
 40
0.652490979500181
 50
309.0694029443329782
 51
332.5413582719708074
  0
ARC
  5
C545
  8
0
 10
468.2492095738990088
 20
101.7053076751660967
 30
0.0
 40
0.9629620490703258
 50
332.5413582719708074
 51
348.8329827146960156
  0
ARC
  5
C546
  8
0
 10
469.0654850939225184
 20
101.5441690316482948
 30
0.0
 40
0.1309335717786518
 50
348.8329827146945945
 51
22.0128529260996615
  0
ARC
  5
C547
  8
0
 10
408.513044808218126
 20
73.5552953426899307
 30
0.0
 40
66.8389116474151876
 50
24.8021047123929215
 51
25.3436218701340401
  0
ARC
  5
C548
  8
0
 10
468.8816480512252838
 20
102.1536808617616998
 30
0.0
 40
0.0393214529207866
 50
17.3823529357015794
 51
87.1971583694542147
  0
LINE
  5
C549
  8
0
 10
450.067200097248417
 20
97.5717685375342967
 30
0.0
 11
450.0626424084762789
 21
97.4380322053499555
 31
0.0
  0
ARC
  5
C54A
  8
0
 10
450.0827409142755187
 20
97.4375043974835506
 30
0.0
 40
0.0201054349991218
 50
178.4956984141244902
 51
268.4635997982812228
  0
LINE
  5
C54B
  8
0
 10
450.0822018467762859
 20
97.4174061905303148
 30
0.0
 11
454.2160302063834934
 21
97.4174061905303148
 31
0.0
  0
ARC
  5
C54C
  8
0
 10
454.150450992866979
 20
160.7942800061435094
 30
0.0
 40
63.3769077446462816
 50
270.0592867806657864
 51
271.9280474982980991
  0
ARC
  5
C54D
  8
0
 10
454.976884773508516
 20
136.0665506581568138
 30
0.0
 40
38.6353731771504272
 50
271.9369222346467723
 51
275.4986229833514244
  0
ARC
  5
C54E
  8
0
 10
457.0251643263271717
 20
114.7889941257401034
 30
0.0
 40
17.2594553929549903
 50
275.4986229833514244
 51
285.1672499910304737
  0
ARC
  5
C54F
  8
0
 10
445.4405136344844891
 20
151.1574199870512132
 30
0.0
 40
55.417051479823229
 50
286.8897496469771795
 51
290.8769960767418183
  0
ARC
  5
C550
  8
0
 10
163.2995052383020891
 20
897.6036875543186397
 30
0.0
 40
853.4052773892399273
 50
290.7166727704736218
 51
290.7957725903791015
  0
ARC
  5
C551
  8
0
 10
465.990406745183293
 20
100.4553693224088988
 30
0.0
 40
0.7244211512161312
 50
294.4981322244474882
 51
311.6064878747695843
  0
ARC
  5
C552
  8
0
 10
465.484821255051088
 20
101.0024172594346936
 30
0.0
 40
1.4692501567454621
 50
312.183338134284611
 51
324.4544275535453153
  0
ARC
  5
C553
  8
0
 10
466.1417522100546194
 20
100.5445975587556973
 30
0.0
 40
0.6686485256309079
 50
323.6488847838941183
 51
349.390150870008199
  0
LINE
  5
C554
  8
0
 10
450.1209149339824194
 20
97.4174061905303148
 30
0.0
 11
450.1224680837062238
 21
97.3580950937579246
 31
0.0
  0
ARC
  5
C555
  8
0
 10
450.1421842454790863
 20
97.358611390924537
 30
0.0
 40
0.0197229206208656
 50
181.5000328179426106
 51
270.1585837442772231
  0
LINE
  5
C556
  8
0
 10
450.1422388346762773
 20
97.3388885458499544
 30
0.0
 11
454.1741751999762755
 21
97.3389185938499537
 31
0.0
  0
ARC
  5
C557
  8
0
 10
454.2371096644981208
 20
156.1600954382383009
 30
0.0
 40
58.8212105120732218
 50
269.9386976252354771
 51
271.9994048597811229
  0
ARC
  5
C558
  8
0
 10
454.883127528109128
 20
137.6550532495811012
 30
0.0
 40
40.3048953958280833
 50
271.9994048597811229
 51
274.9001256764249774
  0
ARC
  5
C559
  8
0
 10
457.0895470682118003
 20
114.3272016334062045
 30
0.0
 40
16.8750880261332483
 50
274.2016602503675813
 51
280.9970753143105071
  0
ARC
  5
C55A
  8
0
 10
457.4482004499747063
 20
112.9119607684357049
 30
0.0
 40
15.4176376023437207
 50
280.691978646186783
 51
288.6243524457628951
  0
ARC
  5
C55B
  8
0
 10
436.5539115529409742
 20
176.22160077167959
 30
0.0
 40
82.0858377884095347
 50
288.3321776731056048
 51
291.2040153226701023
  0
ARC
  5
C55C
  8
0
 10
466.0039237179129827
 20
100.4274584400896941
 30
0.0
 40
0.7724586686247755
 50
288.0705186107405211
 51
306.509772270464623
  0
ARC
  5
C55D
  8
0
 10
465.6259956354197129
 20
100.8817614432081058
 30
0.0
 40
1.3628702467024321
 50
307.9169964083300215
 51
325.9234487744699891
  0
ARC
  5
C55E
  8
0
 10
466.1268158670818025
 20
100.5497670917679045
 30
0.0
 40
0.7620502865535163
 50
325.5007398511542078
 51
351.8908317214182944
  0
ARC
  5
C55F
  8
0
 10
466.1484632632581224
 20
100.5320717921139959
 30
0.0
 40
0.8884919143220479
 50
339.1285734736238737
 51
356.7251794998257992
  0
ARC
  5
C560
  8
0
 10
465.9310731726613994
 20
100.6149607977431941
 30
0.0
 40
1.121148396595574
 50
322.0080321326781245
 51
339.1285734736238737
  0
ARC
  5
C561
  8
0
 10
466.0917099245224904
 20
100.4894938735531014
 30
0.0
 40
0.9173197550501837
 50
294.2142629423564131
 51
322.0080321326781245
  0
ARC
  5
C562
  8
0
 10
432.401539384178875
 20
186.9254925499033106
 30
0.0
 40
93.6857985343343387
 50
289.9243733405044736
 51
291.3229287797050802
  0
ARC
  5
C563
  8
0
 10
424.0876640389299155
 20
212.5123485328608979
 30
0.0
 40
120.5776898953258041
 50
287.5205264658843021
 51
289.4951689709886864
  0
ARC
  5
C564
  8
0
 10
460.396639420818417
 20
97.4776690132929957
 30
0.0
 40
0.0515484431067889
 50
100.4716633814247047
 51
150.5200400431897094
  0
ARC
  5
C565
  8
0
 10
460.4123092945566782
 20
97.4751614848489965
 30
0.0
 40
0.0666531879691665
 50
155.2779239132310067
 51
178.6050356879703997
  0
LINE
  5
C566
  8
0
 10
460.3456758603762751
 20
97.4767841110499518
 30
0.0
 11
460.3230927593525053
 21
97.2543066366880566
 31
0.0
  0
ARC
  5
C567
  8
0
 10
460.9337130274209926
 20
97.2264996007943552
 30
0.0
 40
0.6112530924427143
 50
177.392608949701895
 51
188.8221245851985941
  0
ARC
  5
C568
  8
0
 10
460.6704120401689124
 20
97.1940141210954067
 30
0.0
 40
0.3461839932032353
 50
190.1927574537403132
 51
196.3488558659774981
  0
ARC
  5
C569
  8
0
 10
460.3888722070045105
 20
97.1127508294486148
 30
0.0
 40
0.0531688613331794
 50
197.7194887345204108
 51
206.9540042620255917
  0
ARC
  5
C56A
  8
0
 10
460.3512020193198282
 20
97.0935949863240921
 30
0.0
 40
0.0109078939281666
 50
206.9540042620110114
 51
234.0993734533757049
  0
ARC
  5
C56B
  8
0
 10
460.3503009877975956
 20
97.0923502887512768
 30
0.0
 40
0.0093712970871739
 50
234.0993734533599877
 51
268.458128055232919
  0
LINE
  5
C56C
  8
0
 10
460.3500488296763251
 20
97.082982384749954
 30
0.0
 11
469.8657339175695142
 21
97.0829823792499553
 31
0.0
  0
ARC
  5
C56D
  8
0
 10
469.8657339175762786
 20
97.0947934028499589
 30
0.0
 40
0.0118110236000078
 50
269.9999999668415853
 51
334.6649417692507882
  0
ARC
  5
C56E
  8
0
 10
469.8657339175745733
 20
97.0947934028507831
 30
0.0
 40
0.011811023601916
 50
334.6649417692507882
 51
0.0003274413609393
  0
LINE
  5
C56F
  8
0
 10
469.8775449411763248
 20
97.0947934703499556
 30
0.0
 11
469.8775433886956989
 21
97.3664469461455155
 31
0.0
  0
ARC
  5
C570
  8
0
 10
469.8657322974808039
 20
97.3664468786459736
 30
0.0
 40
0.0118110912151021
 50
0.0003274413772238
 51
89.9921408912003358
  0
LINE
  5
C571
  8
0
 10
469.8657339175766197
 20
97.3782579697499528
 30
0.0
 11
469.1321312420280947
 21
97.3782579665314927
 31
0.0
  0
ARC
  5
C572
  8
0
 10
460.3374720636629718
 20
97.252023874233231
 30
0.0
 40
0.0149870597320508
 50
110.6060232719018046
 51
160.1251688355200997
  0
ARC
  5
C573
  8
0
 10
460.3487428770436054
 20
97.2220479297980518
 30
0.0
 40
0.0470118700990123
 50
91.8955267120935559
 51
110.6060232719015062
  0
ARC
  5
C574
  8
0
 10
460.381007560749822
 20
96.2471443831209541
 30
0.0
 40
1.022449174664632
 50
91.0321022624893033
 51
91.8955267120902732
  0
LINE
  5
C575
  8
0
 10
460.3625905840436872
 20
97.2694276754335192
 30
0.0
 11
460.4433321127763179
 21
97.2694142741499519
 31
0.0
  0
ARC
  5
C576
  8
0
 10
460.5440744039793799
 20
97.3402285233495519
 30
0.0
 40
0.0522176905215848
 50
110.8927617194568001
 51
129.8204876125892042
  0
ARC
  5
C577
  8
0
 10
460.5367286134984965
 20
97.3506731156311673
 30
0.0
 40
0.0395054096620538
 50
131.3385571287666096
 51
169.6978559231976078
  0
LINE
  5
C578
  8
0
 10
460.4978600963722783
 20
97.3577382248993217
 30
0.0
 11
460.4866907107763154
 21
97.2472167146499658
 31
0.0
  0
LINE
  5
C579
  8
0
 10
460.4866907107763154
 20
97.2472167146499658
 30
0.0
 11
465.4916011917006244
 21
97.2471643502047556
 31
0.0
  0
LINE
  5
C57A
  8
0
 10
466.1060082635186745
 20
97.247157921900893
 30
0.0
 11
469.0666117678762816
 21
97.2471269462499492
 31
0.0
  0
ARC
  5
C57B
  8
0
 10
469.1761726858713928
 20
82.3716297491431533
 30
0.0
 40
14.8759006603258808
 50
90.2467040559376272
 51
90.4219868830936662
  0
ARC
  5
C57C
  8
0
 10
469.1120705205452168
 20
97.2589441031500854
 30
0.0
 40
0.0115516993836355
 50
270.2467040559441216
 51
295.4911934169393817
  0
ARC
  5
C57D
  8
0
 10
469.103397004022213
 20
97.2729456030862281
 30
0.0
 40
0.02798118454057
 50
299.1862959079222151
 51
343.7801396822471816
  0
ARC
  5
C57E
  8
0
 10
469.0974136746431782
 20
97.2763644013074043
 30
0.0
 40
0.0347187278379248
 50
341.119862133753486
 51
359.5643278516640748
  0
LINE
  5
C57F
  8
0
 10
469.1321313987763233
 20
97.2761004056499559
 30
0.0
 11
469.1321312419763103
 21
97.3900689933499564
 31
0.0
  0
LINE
  5
C580
  8
0
 10
469.7850252561763114
 20
97.0829823792499553
 30
0.0
 11
469.7850252561763114
 21
97.0436123004499507
 31
0.0
  0
LINE
  5
C581
  8
0
 10
469.7850252561763114
 20
97.0436123004499507
 30
0.0
 11
469.5291197443763167
 21
97.0436123004499507
 31
0.0
  0
LINE
  5
C582
  8
0
 10
469.5291197443763167
 20
97.0436123004499507
 30
0.0
 11
469.5291197443763167
 21
97.0829823792499553
 31
0.0
  0
LINE
  5
C583
  8
0
 10
468.7909307679761923
 20
97.0829823798711828
 30
0.0
 11
468.7909307679761923
 21
97.0436123004499507
 31
0.0
  0
LINE
  5
C584
  8
0
 10
468.7909307679761923
 20
97.0436123004499507
 30
0.0
 11
466.8224268309763261
 21
97.0436123004499507
 31
0.0
  0
LINE
  5
C585
  8
0
 10
466.8224268309763261
 20
97.0436123004499507
 30
0.0
 11
466.8224268309763261
 21
97.0829823792499553
 31
0.0
  0
LINE
  5
C586
  8
0
 10
464.0074662010762836
 20
97.0829823792499553
 30
0.0
 11
464.0074662010762836
 21
96.575108363450056
 31
0.0
  0
ARC
  5
C587
  8
0
 10
464.0196552302056716
 20
96.5752649384669724
 30
0.0
 40
0.0121900347356153
 50
180.7359564215385035
 51
268.2230080179782021
  0
LINE
  5
C588
  8
0
 10
464.0192772246762729
 20
96.5630807660012209
 30
0.0
 11
464.0350252561763114
 21
96.5630807660012209
 31
0.0
  0
ARC
  5
C589
  8
0
 10
464.0346472506473106
 20
96.5752649384665318
 30
0.0
 40
0.0121900347351625
 50
271.7769919799819718
 51
359.2640435800598766
  0
LINE
  5
C58A
  8
0
 10
464.046836279776187
 20
96.5751083634499565
 30
0.0
 11
464.0468362797658983
 21
97.0829823792499553
 31
0.0
  0
ARC
  5
C58B
  8
0
 10
465.8772504557088041
 20
97.0613726779044015
 30
0.0
 40
0.0216136999943357
 50
91.1021390673035256
 51
128.216678983941506
  0
ARC
  5
C58C
  8
0
 10
104.7572094598664023
 20
526.7701021342658123
 30
0.0
 40
561.2780286545762465
 50
309.9789323218648747
 51
310.0432033304510924
  0
ARC
  5
C58D
  8
0
 10
465.3242543057864964
 20
96.7313876330162969
 30
0.0
 40
0.0814780183933442
 50
270.3911246580735224
 51
314.7832498502021963
  0
LINE
  5
C58E
  8
0
 10
465.3248105040763107
 20
96.6499115130499433
 30
0.0
 11
464.8656440388763258
 21
96.6499115130499433
 31
0.0
  0
LINE
  5
C58F
  8
0
 10
465.1688835238762749
 20
97.0829823792499553
 30
0.0
 11
464.9207784906453753
 21
96.7286516705499508
 31
0.0
  0
LINE
  5
C590
  8
0
 10
464.9207784906453753
 20
96.7286516705499508
 30
0.0
 11
464.8656440388763258
 21
96.6499115130499433
 31
0.0
  0
ARC
  5
C591
  8
0
 10
463.6292082917588004
 20
97.5156731425596064
 30
0.0
 40
1.5094093400668891
 50
322.7058019702150773
 51
325.0000000352590064
  0
ARC
  5
C592
  8
0
 10
464.5261760825762849
 20
96.8514974041499386
 30
0.0
 40
0.3937007873999834
 50
287.4999999007001747
 51
320.5070297555949992
  0
ARC
  5
C593
  8
0
 10
464.5566562188245143
 20
97.0236119361216254
 30
0.0
 40
0.5666669055297314
 50
253.0573047309704862
 51
266.858461363481922
  0
ARC
  5
C594
  8
0
 10
464.5186454055065042
 20
96.9006534694220534
 30
0.0
 40
0.4429114774186423
 50
270.8998670381340048
 51
286.5168830523862766
  0
LINE
  5
C595
  8
0
 10
464.391520923339101
 20
96.4815402471287342
 30
0.0
 11
464.0794736787761963
 21
96.5951161557499489
 31
0.0
  0
LINE
  5
C596
  8
0
 10
464.0794736787761963
 20
96.5951161557499489
 30
0.0
 11
464.046836279776187
 21
96.6069951975499492
 31
0.0
  0
LINE
  5
C597
  8
0
 10
464.0665213191762746
 20
97.0818302756499492
 30
0.0
 11
464.0665213191762746
 21
96.6136140421499476
 31
0.0
  0
ARC
  5
C598
  8
0
 10
464.0862063585763053
 20
96.6136140421499476
 30
0.0
 40
0.0196850394000023
 50
180.0000000000057128
 51
231.7479543957580859
  0
ARC
  5
C599
  8
0
 10
464.0886010436481115
 20
96.6166514626259243
 30
0.0
 40
0.0235529121669004
 50
231.7479543957576027
 51
242.6296713646291039
  0
LINE
  5
C59A
  8
0
 10
464.6878359048762945
 20
97.0829823792499553
 30
0.0
 11
464.6878359048762945
 21
96.9857301677499493
 31
0.0
  0
LINE
  5
C59B
  8
0
 10
464.6878359048762945
 20
96.9857301677499493
 30
0.0
 11
464.711855785376315
 21
96.8779375829499543
 31
0.0
  0
LINE
  5
C59C
  8
0
 10
464.711855785376315
 20
96.8779375829499543
 30
0.0
 11
464.794578405576317
 21
96.9080461544499627
 31
0.0
  0
LINE
  5
C59D
  8
0
 10
464.794578405576317
 20
96.9080461544499627
 30
0.0
 11
464.7945784056773846
 21
97.0829823821810436
 31
0.0
  0
LINE
  5
C59E
  8
0
 10
464.7705585250761828
 20
97.0829823792499553
 30
0.0
 11
464.7705585250761828
 21
97.0158387392499435
 31
0.0
  0
LINE
  5
C59F
  8
0
 10
464.7705585250761828
 20
97.0158387392499435
 30
0.0
 11
464.6878359048762945
 21
96.9857301677499493
 31
0.0
  0
LINE
  5
C5A0
  8
0
 10
464.7705585250761828
 20
97.0158387392499435
 30
0.0
 11
464.794578405576317
 21
96.9080461544499627
 31
0.0
  0
LINE
  5
C5A1
  8
0
 10
464.889247501876298
 20
97.0829823821263176
 30
0.0
 11
464.889247501876298
 21
97.059037993949957
 31
0.0
  0
LINE
  5
C5A2
  8
0
 10
464.889247501876298
 20
97.059037993949957
 30
0.0
 11
464.9132673823763184
 21
96.951245409149962
 31
0.0
  0
LINE
  5
C5A3
  8
0
 10
464.9132673823763184
 20
96.951245409149962
 30
0.0
 11
464.9959900025763204
 21
96.9813539805499545
 31
0.0
  0
LINE
  5
C5A4
  8
0
 10
464.9959900025763204
 20
96.9813539805499545
 30
0.0
 11
464.9959900025763204
 21
97.0829823820646283
 31
0.0
  0
LINE
  5
C5A5
  8
0
 10
464.9733437132462086
 20
97.0829823820777165
 30
0.0
 11
464.9959900025763204
 21
96.9813539805499545
 31
0.0
  0
LINE
  5
C5A6
  8
0
 10
464.889247501876298
 20
97.059037993949957
 30
0.0
 11
464.953192005634719
 21
97.0829823792499553
 31
0.0
  0
LINE
  5
C5A7
  8
0
 10
465.4933529725763037
 20
97.1468048914499605
 30
0.0
 11
466.1042777948762819
 21
97.1473356950499465
 31
0.0
  0
LINE
  5
C5A8
  8
0
 10
466.1042777948762819
 20
97.1473356950499465
 30
0.0
 11
466.1089838306763227
 21
97.4176280485499433
 31
0.0
  0
ARC
  5
C5A9
  8
0
 10
4194.841043832107971
 20
32.4970102961610081
 30
0.0
 40
3729.2971806885921069
 50
178.9974708888682926
 51
179.0025291309860904
  0
ARC
  5
C5AA
  8
0
 10
466.0947081016332163
 20
97.7128492146738949
 30
0.0
 40
0.0394245393530248
 50
1.07766482445783
 51
89.9222733747321143
  0
LINE
  5
C5AB
  8
0
 10
466.1341256675636942
 20
97.7135906992057102
 30
0.0
 11
466.1397714229763096
 21
97.3900689933499564
 31
0.0
  0
LINE
  5
C5AC
  8
0
 10
466.0947615638763182
 20
97.7522737177499437
 30
0.0
 11
465.5028665434762729
 21
97.7522737177499437
 31
0.0
  0
ARC
  5
C5AD
  8
0
 10
465.5028665434762729
 20
97.7130212364421311
 30
0.0
 40
0.0392524813078143
 50
90.0
 51
153.4237319337227063
  0
ARC
  5
C5AE
  8
0
 10
465.5041171190879936
 20
97.7123956425722326
 30
0.0
 40
0.0406508042500392
 50
153.4237319337227063
 51
178.3135945967235045
  0
LINE
  5
C5AF
  8
0
 10
465.463483921806187
 20
97.7135919555870061
 30
0.0
 11
465.4578368074709829
 21
97.3900689933499564
 31
0.0
  0
LINE
  5
C5B0
  8
0
 10
465.4828799520763027
 20
97.7468038316499417
 30
0.0
 11
465.4933529725763037
 21
97.1468048914499605
 31
0.0
  0
LINE
  5
C5B1
  8
0
 10
465.5313072633043134
 20
97.722746158749942
 30
0.0
 11
466.0663148090762888
 21
97.7227457282499472
 31
0.0
  0
ARC
  5
C5B2
  8
0
 10
466.0663147932376091
 20
97.7030620435994024
 30
0.0
 40
0.019683684650573
 50
1.0233959565340811
 51
89.9999538962882468
  0
LINE
  5
C5B3
  8
0
 10
466.0859953380519869
 20
97.7034136075774313
 30
0.0
 11
466.0937308874833889
 21
97.2598107493857071
 31
0.0
  0
ARC
  5
C5B4
  8
0
 10
466.074048727975196
 20
97.2601477361006204
 30
0.0
 40
0.0196850445802565
 50
317.108817862469607
 51
358.9999914067527129
  0
ARC
  5
C5B5
  8
0
 10
466.0738622341078212
 20
97.2603209834183531
 30
0.0
 40
0.0199395924061263
 50
275.1758397832952028
 51
317.1088178624631837
  0
ARC
  5
C5B6
  8
0
 10
465.5312908461190773
 20
97.7030659153784455
 30
0.0
 40
0.0196802502190681
 50
89.9522040862768648
 51
178.9786062283878039
  0
LINE
  5
C5B7
  8
0
 10
465.5116137229172182
 20
97.7034167304039158
 30
0.0
 11
465.5038788314340081
 21
97.2604914249107253
 31
0.0
  0
ARC
  5
C5B8
  8
0
 10
465.5235604580390145
 20
97.2601475102950843
 30
0.0
 40
0.0196846311390438
 50
178.9989216177525861
 51
231.8592486426678931
  0
ARC
  5
C5B9
  8
0
 10
465.5242421939341853
 20
97.2610156879189276
 30
0.0
 40
0.0207884863005035
 50
231.8592486426607877
 51
261.3677184929147757
  0
LINE
  5
C5BA
  8
0
 10
465.4917181696762896
 20
97.2404626941499544
 30
0.0
 11
466.1058921606763192
 21
97.2404626941499544
 31
0.0
  0
LINE
  5
C5BB
  8
0
 10
465.4841588894763049
 20
97.6735335603499522
 30
0.0
 11
465.5110918672573916
 21
97.6735335603499522
 31
0.0
  0
LINE
  5
C5BC
  8
0
 10
465.4851897003762815
 20
97.6144784422499612
 30
0.0
 11
465.5100605761472252
 21
97.6144784422499612
 31
0.0
  0
ARC
  5
C5BD
  8
0
 10
465.6628466855872261
 20
97.7133655335193794
 30
0.0
 40
0.0390442735636578
 50
94.7851683906671525
 51
166.0984573171039926
  0
LINE
  5
C5BE
  8
0
 10
465.9343588338762743
 20
97.7522737177499437
 30
0.0
 11
465.9343588338762743
 21
97.722746158749942
 31
0.0
  0
ARC
  5
C5BF
  8
0
 10
465.9022803950758203
 20
97.7146299195500347
 30
0.0
 40
0.0390134356843548
 50
34.6902597886948811
 51
74.7730765748652715
  0
LINE
  5
C5C0
  8
0
 10
459.9706598053383004
 20
97.6998811852488132
 30
0.0
 11
459.9171683263219848
 21
97.1774161568684747
 31
0.0
  0
ARC
  5
C5C1
  8
0
 10
459.878939311526608
 20
97.1811858577131602
 30
0.0
 40
0.0384144271945106
 50
313.7538954526440875
 51
354.3683627529720752
  0
ARC
  5
C5C2
  8
0
 10
459.8769622308108751
 20
97.1832508620938142
 30
0.0
 40
0.0412732890744285
 50
283.6733283270747279
 51
313.7538954526394832
  0
ARC
  5
C5C3
  8
0
 10
459.875726688393911
 20
97.1969608292898073
 30
0.0
 40
0.0549246799063382
 50
269.5985843523337735
 51
281.5444419286180278
  0
LINE
  5
C5C4
  8
0
 10
459.8753418878766865
 20
97.1420374973499463
 30
0.0
 11
457.6255923420761746
 21
97.1420374973499463
 31
0.0
  0
ARC
  5
C5C5
  8
0
 10
457.6396274879031125
 20
97.3225623128646333
 30
0.0
 40
0.1810768516730926
 50
232.3115524621543102
 51
265.5249245709629804
  0
ARC
  5
C5C6
  8
0
 10
464.0320211953700777
 20
105.5968007472321943
 30
0.0
 40
10.6369708344959104
 50
230.2507150158151035
 51
232.3115524621543102
  0
ARC
  5
C5C7
  8
0
 10
447.443923102811425
 20
93.0952615825224967
 30
0.0
 40
6.0967105693384456
 50
40.9264938661148676
 51
44.1112630529987229
  0
ARC
  5
C5C8
  8
0
 10
452.0646504858780759
 20
97.1027528036802039
 30
0.0
 40
0.0197704818049063
 50
223.4458584284076039
 51
269.8619650273677166
  0
LINE
  5
C5C9
  8
0
 10
452.064602855576311
 20
97.0829823792499553
 30
0.0
 11
453.3898215426763159
 21
97.0829823792499553
 31
0.0
  0
ARC
  5
C5CA
  8
0
 10
453.3896782062163879
 20
97.1029754649653256
 30
0.0
 40
0.0199935995199155
 50
270.410763681634819
 51
315.8935501121605967
  0
ARC
  5
C5CB
  8
0
 10
451.3116721280820229
 20
99.3823714520669057
 30
0.0
 40
3.1043933041028331
 50
312.3765763663898269
 51
318.8337040402134903
  0
ARC
  5
C5CC
  8
0
 10
468.9757915270216131
 20
102.4332402248378031
 30
0.0
 40
0.9400899425299272
 50
279.2866315038684206
 51
283.4178112559487772
  0
ARC
  5
C5CD
  8
0
 10
474.6375851638861718
 20
70.0786066474392015
 30
0.0
 40
31.9062519674551304
 50
99.9446180733943947
 51
101.5743859078349942
  0
ARC
  5
C5CE
  8
0
 10
526.0950492168051369
 20
-177.1219617901957122
 30
0.0
 40
284.4055936195613867
 50
101.7381233764961053
 51
102.3979732442892043
  0
ARC
  5
C5CF
  8
0
 10
496.2271671601918115
 20
-36.5875014940373333
 30
0.0
 40
140.7393205258233877
 50
102.8056925464393032
 51
104.4103318842406054
  0
ARC
  5
C5D0
  8
0
 10
449.7472192039911079
 20
140.7404825969992999
 30
0.0
 40
42.5860724054247513
 50
273.9226201714657805
 51
285.603746829087072
  0
ARC
  5
C5D1
  8
0
 10
451.1845066157799238
 20
137.831192783136089
 30
0.0
 40
39.6045316042078568
 50
267.9231515944429134
 51
272.1358062568262994
  0
ARC
  5
C5D2
  8
0
 10
468.3301188993120832
 20
102.1265076363089008
 30
0.0
 40
1.4751053682352411
 50
254.0558492240566011
 51
264.8877426803019262
  0
ARC
  5
C5D3
  8
0
 10
468.3105078976071809
 20
101.9073003161995956
 30
0.0
 40
1.25502256432412
 50
264.8877426803019262
 51
289.5326592958671199
  0
ARC
  5
C5D4
  8
0
 10
468.4083279752654221
 20
101.5651795536906974
 30
0.0
 40
0.9001586003593457
 50
290.9455584734728859
 51
358.377529882012027
  0
ARC
  5
C5D5
  8
0
 10
469.1035985673883033
 20
101.5404408708453019
 30
0.0
 40
0.204528491958443
 50
359.7904290596176224
 51
15.9791522600319809
  0
LINE
  5
C5D6
  8
0
 10
469.3002244723763283
 20
101.5967450226498983
 30
0.0
 11
468.9900108055762757
 21
102.1755351686499012
 31
0.0
  0
ARC
  5
C5D7
  8
0
 10
468.9583733793866145
 20
102.1623336439124046
 30
0.0
 40
0.034281292239794
 50
22.6495846841457507
 51
63.1509224090977526
  0
LINE
  5
C5D8
  8
0
 10
464.1852946317297892
 20
98.9261194381740552
 30
0.0
 11
464.1546382994372948
 21
98.7862878690834236
 31
0.0
  0
ARC
  5
C5D9
  8
0
 10
485.5974155115760027
 20
25.2224813271726589
 30
0.0
 40
76.6811059991235879
 50
106.2278590440640045
 51
107.6308472176348943
  0
ARC
  5
C5DA
  8
0
 10
467.0898923025530962
 20
98.9678956200837234
 30
0.0
 40
0.1301126298812171
 50
140.3807772498169868
 51
180.3471041044527965
  0
ARC
  5
C5DB
  8
0
 10
467.0783307463727851
 20
98.9774667065239271
 30
0.0
 40
0.1151034567874546
 50
113.551269104269295
 51
140.3807772498176973
  0
ARC
  5
C5DC
  8
0
 10
467.0796151814832911
 20
98.9745199216260829
 30
0.0
 40
0.1183180041564685
 50
90.8502316751823571
 51
113.5512691042695934
  0
LINE
  5
C5DD
  8
0
 10
467.0778594845763223
 20
99.0928248988499547
 30
0.0
 11
468.8806077411039155
 21
99.0928248988499547
 31
0.0
  0
ARC
  5
C5DE
  8
0
 10
468.8769556617693866
 20
99.0194436322026093
 30
0.0
 40
0.073472089790846
 50
31.8228300914773286
 51
87.1508228894076638
  0
ARC
  5
C5DF
  8
0
 10
468.7799989293279168
 20
98.9592744125661739
 30
0.0
 40
0.1875814362853397
 50
2.3927836675230281
 51
31.8228300914773286
  0
LINE
  5
C5E0
  8
0
 10
468.9674168126762765
 20
98.9671059028499656
 30
0.0
 11
468.9986530845433208
 21
97.8923024403807602
 31
0.0
  0
ARC
  5
C5E1
  8
0
 10
468.8307568208900875
 20
97.884577815323766
 30
0.0
 40
0.1680753597186708
 50
329.0541780035721899
 51
2.663816994354729
  0
ARC
  5
C5E2
  8
0
 10
468.9075107929186856
 20
97.8385581003460061
 30
0.0
 40
0.0785824192775796
 50
299.8120119124263283
 51
329.054178003573611
  0
ARC
  5
C5E3
  8
0
 10
468.9155092040999762
 20
97.8245988739664227
 30
0.0
 40
0.0624940824293365
 50
271.0966045122185051
 51
299.8120119124259872
  0
LINE
  5
C5E4
  8
0
 10
468.9167052277762764
 20
97.7621162374499448
 30
0.0
 11
467.0844741734762806
 21
97.7621162392499485
 31
0.0
  0
ARC
  5
C5E5
  8
0
 10
467.0845276424018948
 20
97.8740622600325025
 30
0.0
 40
0.1119460335517647
 50
245.7940996450016939
 51
269.9726337432969103
  0
ARC
  5
C5E6
  8
0
 10
467.0920314471028973
 20
97.8907543850930466
 30
0.0
 40
0.1302472390865825
 50
216.0766008785136023
 51
245.7940996450016939
  0
ARC
  5
C5E7
  8
0
 10
467.0913760442397233
 20
97.8902768669730534
 30
0.0
 40
0.129436328198742
 50
189.3748220713115984
 51
216.0766008785136023
  0
ARC
  5
C5E8
  8
0
 10
467.1156983701022227
 20
97.8942924216345745
 30
0.0
 40
0.154087904509428
 50
180.7400626493497953
 51
189.3748220713115984
  0
LINE
  5
C5E9
  8
0
 10
466.9616233191762831
 20
97.8923021959499664
 30
0.0
 11
466.9597880793763238
 21
98.9671053242499568
 31
0.0
  0
ARC
  5
C5EA
  8
0
 10
468.8102642590945948
 20
99.0196632274262356
 30
0.0
 40
0.0732847748072127
 50
35.471719825919422
 51
86.6785588739551116
  0
ARC
  5
C5EB
  8
0
 10
468.7689909985073768
 20
98.9670030706436421
 30
0.0
 40
0.1387546760076725
 50
0.0422396888713727
 51
43.3152563039171881
  0
LINE
  5
C5EC
  8
0
 10
468.9077456368087837
 20
98.9671053635849916
 30
0.0
 11
468.9390977180763116
 21
97.892302228249946
 31
0.0
  0
ARC
  5
C5ED
  8
0
 10
468.7878733425375799
 20
97.8865796662451686
 30
0.0
 40
0.1513331293955068
 50
330.6881131648819974
 51
2.1892455414452239
  0
ARC
  5
C5EE
  8
0
 10
468.8144280678956761
 20
97.8716706044416753
 30
0.0
 40
0.1208793354988076
 50
310.3684590152216742
 51
330.6881131648819974
  0
ARC
  5
C5EF
  8
0
 10
468.839001936681484
 20
97.8427641810329192
 30
0.0
 40
0.0829391675841969
 50
283.4988405237485267
 51
310.3684590152253122
  0
ARC
  5
C5F0
  8
0
 10
467.1471137060810861
 20
98.863092808698454
 30
0.0
 40
0.0373569883855842
 50
92.0738046627131297
 51
183.1282999059199881
  0
LINE
  5
C5F1
  8
0
 10
467.1457618755762837
 20
98.900425329849952
 30
0.0
 11
468.7421743075763061
 21
98.9004259579499347
 31
0.0
  0
ARC
  5
C5F2
  8
0
 10
468.7400330296919719
 20
98.8752274930473618
 30
0.0
 40
0.0252892804252206
 50
36.8973189128800669
 51
85.1428726763343633
  0
ARC
  5
C5F3
  8
0
 10
468.7225991005269066
 20
98.8621390044155248
 30
0.0
 40
0.047089519433077
 50
358.683390394692708
 51
36.8973189128800669
  0
LINE
  5
C5F4
  8
0
 10
468.7696761878763141
 20
98.8610570214499518
 30
0.0
 11
468.7710868405408178
 21
98.7796906530379459
 31
0.0
  0
LINE
  5
C5F5
  8
0
 10
468.7710868405408178
 20
98.7796906530379459
 30
0.0
 11
467.1112730450761887
 21
98.7800167449499611
 31
0.0
  0
LINE
  5
C5F6
  8
0
 10
467.1112730450761887
 20
98.7800167449499611
 30
0.0
 11
467.1098123856763209
 21
98.8610541627499515
 31
0.0
  0
LINE
  5
C5F7
  8
0
 10
467.1114524342763161
 20
98.7705041324499433
 30
0.0
 11
468.7712665223763224
 21
98.7705247333499443
 31
0.0
  0
LINE
  5
C5F8
  8
0
 10
468.7712665223763224
 20
98.7705247333499443
 30
0.0
 11
468.7748283321463987
 21
98.5670984125094236
 31
0.0
  0
LINE
  5
C5F9
  8
0
 10
468.7748283321463987
 20
98.5670984125094236
 30
0.0
 11
467.1151321762762905
 21
98.567414869849955
 31
0.0
  0
LINE
  5
C5FA
  8
0
 10
467.1151321762762905
 20
98.567414869849955
 30
0.0
 11
467.1114524342763161
 21
98.7705041324499433
 31
0.0
  0
ARC
  5
C5FB
  8
0
 10
467.0636482615512932
 20
98.7250843684888508
 30
0.0
 40
0.0659426594847979
 50
28.8390737995761199
 51
43.5333478082824428
  0
ARC
  5
C5FC
  8
0
 10
467.1114679277861228
 20
98.7514159359618731
 30
0.0
 40
0.0113526244564875
 50
354.3828265496418908
 51
28.839073799577541
  0
LINE
  5
C5FD
  8
0
 10
467.1227660381481996
 20
98.7503047274782944
 30
0.0
 11
467.1255295436762935
 21
98.597681459749964
 31
0.0
  0
ARC
  5
C5FE
  8
0
 10
467.0853127825297975
 20
98.5964878747481208
 30
0.0
 40
0.0402344693300094
 50
344.1935050046577089
 51
1.699970671723714
  0
LINE
  5
C5FF
  8
0
 10
467.1240258707762791
 20
98.5855284349499641
 30
0.0
 11
467.1151339417580175
 21
98.5674177327030065
 31
0.0
  0
LINE
  5
C600
  8
0
 10
467.1231224655355732
 20
98.7306199061499541
 30
0.0
 11
467.926326444190579
 21
98.7306204456501177
 31
0.0
  0
LINE
  5
C601
  8
0
 10
467.926326444190579
 20
98.7306204456501177
 30
0.0
 11
467.9651927257763191
 21
98.6300147136499561
 31
0.0
  0
ARC
  5
C602
  8
0
 10
468.0470604347024732
 20
98.6616420709052449
 30
0.0
 40
0.0877645229679102
 50
201.1226800521810105
 51
217.6511733403193887
  0
ARC
  5
C603
  8
0
 10
468.0026312748490227
 20
98.6273637530511138
 30
0.0
 40
0.0316489875057612
 50
217.6511733403116011
 51
238.8818267381726059
  0
ARC
  5
C604
  8
0
 10
467.9918905036299179
 20
98.6095713351841994
 30
0.0
 40
0.0108659583730574
 50
238.8818267381612941
 51
269.6607524051564724
  0
ARC
  5
C605
  8
0
 10
467.9918605502251125
 20
98.6045125414149624
 30
0.0
 40
0.0058070759266974
 50
269.6607524051433984
 51
323.0097769403811867
  0
ARC
  5
C606
  8
0
 10
467.9848453395866272
 20
98.6097970052200736
 30
0.0
 40
0.0145899420881845
 50
323.009776940376014
 51
344.4283733245557073
  0
ARC
  5
C607
  8
0
 10
467.9368546745529898
 20
98.6168381642722949
 30
0.0
 40
0.0630052791842304
 50
349.9843271832771165
 51
4.6732451004364153
  0
LINE
  5
C608
  8
0
 10
467.9974020613761923
 20
98.7503053161496354
 30
0.0
 11
467.9996504952226815
 21
98.621971400240426
 31
0.0
  0
ARC
  5
C609
  8
0
 10
467.9880065795487099
 20
98.7283321084938734
 30
0.0
 40
0.0238976344740625
 50
66.8490251294847866
 51
102.1714159314281005
  0
ARC
  5
C60A
  8
0
 10
467.9653713232120253
 20
98.8518962810348256
 30
0.0
 40
0.1017370761341427
 50
273.0709934364472815
 51
279.9601374775213003
  0
LINE
  5
C60B
  8
0
 10
467.970821712776285
 20
98.7503053074499491
 30
0.0
 11
467.1227660381481996
 21
98.7503047274782659
 31
0.0
  0
LINE
  5
C60C
  8
0
 10
467.9977469434762725
 20
98.7306204704499635
 30
0.0
 11
468.7006819538763125
 21
98.7306203865499441
 31
0.0
  0
LINE
  5
C60D
  8
0
 10
468.7006819538763125
 20
98.7306203865499441
 30
0.0
 11
468.7447372922762838
 21
98.6165827315499541
 31
0.0
  0
ARC
  5
C60E
  8
0
 10
468.8552029740699254
 20
98.6592581355031939
 30
0.0
 40
0.118422366792332
 50
201.1226798681396133
 51
218.3954036384153881
  0
ARC
  5
C60F
  8
0
 10
468.693688542329312
 20
98.526327749614282
 30
0.0
 40
0.0908070065825202
 50
26.6783545955294414
 51
40.8374116611635287
  0
LINE
  5
C610
  8
0
 10
467.9974020613761923
 20
98.7503053161496354
 30
0.0
 11
468.7428751782762788
 21
98.7503085864499468
 31
0.0
  0
ARC
  5
C611
  8
0
 10
468.7398047891761053
 20
98.779693673546177
 30
0.0
 40
0.0295450610572989
 50
275.9650760967045926
 51
312.3463367427420962
  0
ARC
  5
C612
  8
0
 10
468.7241353983731074
 20
98.8019267673036552
 30
0.0
 40
0.0566341821361919
 50
308.9092024937122005
 51
326.3256865259913866
  0
LINE
  5
C613
  8
0
 10
467.1153037655946036
 20
98.5579023578968929
 30
0.0
 11
468.7751178536946099
 21
98.5579229587968939
 31
0.0
  0
LINE
  5
C614
  8
0
 10
468.7751178536946099
 20
98.5579229587968939
 30
0.0
 11
468.7786796634646862
 21
98.3544966379563732
 31
0.0
  0
LINE
  5
C615
  8
0
 10
468.7786796634646862
 20
98.3544966379563732
 30
0.0
 11
467.118983507594578
 21
98.3548130952969046
 31
0.0
  0
LINE
  5
C616
  8
0
 10
467.118983507594578
 20
98.3548130952969046
 30
0.0
 11
467.1153037655946036
 21
98.5579023578968929
 31
0.0
  0
ARC
  5
C617
  8
0
 10
467.0674995928695807
 20
98.5124825939358004
 30
0.0
 40
0.0659426594847979
 50
28.8390737995761199
 51
43.5333478082824428
  0
ARC
  5
C618
  8
0
 10
467.1153192591042966
 20
98.5388141614088227
 30
0.0
 40
0.0113526244564875
 50
354.3828265496418908
 51
28.8390737995782516
  0
LINE
  5
C619
  8
0
 10
467.1266173694664872
 20
98.5377029529252439
 30
0.0
 11
467.1293808749945242
 21
98.3850796851969136
 31
0.0
  0
ARC
  5
C61A
  8
0
 10
467.089164113848085
 20
98.3838861001950704
 30
0.0
 40
0.0402344693300094
 50
344.1935050046577089
 51
1.699970671723714
  0
LINE
  5
C61B
  8
0
 10
467.1278772020946235
 20
98.3729266603968995
 30
0.0
 11
467.118985273076305
 21
98.3548159581499561
 31
0.0
  0
LINE
  5
C61C
  8
0
 10
467.1269737968539175
 20
98.5180181315968753
 30
0.0
 11
467.9301777755089233
 21
98.5180186710970531
 31
0.0
  0
LINE
  5
C61D
  8
0
 10
467.9301777755089233
 20
98.5180186710970531
 30
0.0
 11
467.9690440570944929
 21
98.4174129390969057
 31
0.0
  0
ARC
  5
C61E
  8
0
 10
468.0509117660208176
 20
98.4490402963521944
 30
0.0
 40
0.0877645229679102
 50
201.1226800521810105
 51
217.6511733403193887
  0
ARC
  5
C61F
  8
0
 10
468.0064826061673102
 20
98.4147619784980492
 30
0.0
 40
0.0316489875057612
 50
217.6511733403116011
 51
238.8818267381726059
  0
ARC
  5
C620
  8
0
 10
467.9957418349482055
 20
98.3969695606311348
 30
0.0
 40
0.0108659583730574
 50
238.8818267381612941
 51
269.6607524051564724
  0
ARC
  5
C621
  8
0
 10
467.9957118815434001
 20
98.391910766861912
 30
0.0
 40
0.0058070759266974
 50
269.6607524051433984
 51
323.0097769403811867
  0
ARC
  5
C622
  8
0
 10
467.9886966709049148
 20
98.3971952306670232
 30
0.0
 40
0.0145899420881845
 50
323.0097769403765824
 51
344.4283733245557073
  0
ARC
  5
C623
  8
0
 10
467.9407060058712773
 20
98.404236389719216
 30
0.0
 40
0.0630052791842304
 50
349.9843271832771165
 51
4.6732451004364153
  0
LINE
  5
C624
  8
0
 10
468.0012533926944798
 20
98.537703541596585
 30
0.0
 11
468.0035018265410258
 21
98.4093696256873613
 31
0.0
  0
ARC
  5
C625
  8
0
 10
467.9918579108669974
 20
98.515730333940823
 30
0.0
 40
0.0238976344740625
 50
66.8490251294847866
 51
102.1714159314281005
  0
ARC
  5
C626
  8
0
 10
467.9692226545301992
 20
98.6392945064817752
 30
0.0
 40
0.1017370761341427
 50
273.0709934364472815
 51
279.9601374775213003
  0
LINE
  5
C627
  8
0
 10
467.9746730440945157
 20
98.5377035328968844
 30
0.0
 11
467.1266173694664872
 21
98.5377029529252013
 31
0.0
  0
LINE
  5
C628
  8
0
 10
468.0015982747946168
 20
98.5180186958968989
 30
0.0
 11
468.7045332851946
 21
98.5180186119968937
 31
0.0
  0
LINE
  5
C629
  8
0
 10
468.7045332851946
 20
98.5180186119968937
 30
0.0
 11
468.7485886235945145
 21
98.4039809569969037
 31
0.0
  0
ARC
  5
C62A
  8
0
 10
468.8590543053882129
 20
98.4466563609501293
 30
0.0
 40
0.118422366792332
 50
201.1226798681396133
 51
218.3954036384153881
  0
ARC
  5
C62B
  8
0
 10
468.6975398736475995
 20
98.3137259750612174
 30
0.0
 40
0.0908070065825202
 50
26.6783545955294414
 51
40.8374116611635287
  0
LINE
  5
C62C
  8
0
 10
468.0012533926944798
 20
98.537703541596585
 30
0.0
 11
468.7467265095945095
 21
98.5377068118968964
 31
0.0
  0
ARC
  5
C62D
  8
0
 10
468.7436561204942791
 20
98.5670918989931266
 30
0.0
 40
0.0295450610572989
 50
275.9650760967045926
 51
312.3463367427420962
  0
ARC
  5
C62E
  8
0
 10
468.7279867296913949
 20
98.5893249927505906
 30
0.0
 40
0.0566341821361919
 50
308.9092024937122005
 51
326.3256865259913866
  0
LINE
  5
C62F
  8
0
 10
467.119156802294583
 20
98.3453034244968904
 30
0.0
 11
468.7789708903944756
 21
98.3453240253968914
 31
0.0
  0
LINE
  5
C630
  8
0
 10
468.7789708903944756
 20
98.3453240253968914
 30
0.0
 11
468.7825327001647224
 21
98.1418977045563707
 31
0.0
  0
LINE
  5
C631
  8
0
 10
468.7825327001647224
 20
98.1418977045563707
 30
0.0
 11
467.1228365442946142
 21
98.1422141618968737
 31
0.0
  0
LINE
  5
C632
  8
0
 10
467.1228365442946142
 20
98.1422141618968737
 30
0.0
 11
467.119156802294583
 21
98.3453034244968904
 31
0.0
  0
ARC
  5
C633
  8
0
 10
467.071352629569617
 20
98.299883660535798
 30
0.0
 40
0.0659426594847979
 50
28.8390737995761199
 51
43.5333478082824428
  0
ARC
  5
C634
  8
0
 10
467.1191722958043897
 20
98.3262152280088344
 30
0.0
 40
0.0113526244564875
 50
354.3828265496418908
 51
28.8390737995782516
  0
LINE
  5
C635
  8
0
 10
467.1304704061665234
 20
98.3251040195252557
 30
0.0
 11
467.1332339116946173
 21
98.1724807517969111
 31
0.0
  0
ARC
  5
C636
  8
0
 10
467.0930171505481212
 20
98.1712871667950679
 30
0.0
 40
0.0402344693300094
 50
344.1935050046577089
 51
1.699970671723714
  0
LINE
  5
C637
  8
0
 10
467.1317302387944892
 20
98.160327726996897
 30
0.0
 11
467.1228383097762844
 21
98.1422170247499537
 31
0.0
  0
LINE
  5
C638
  8
0
 10
467.1308268335538969
 20
98.305419198196887
 30
0.0
 11
467.9340308122089027
 21
98.3054197376970649
 31
0.0
  0
LINE
  5
C639
  8
0
 10
467.9340308122089027
 20
98.3054197376970649
 30
0.0
 11
467.9728970937944723
 21
98.2048140056969032
 31
0.0
  0
ARC
  5
C63A
  8
0
 10
468.054764802720797
 20
98.2364413629522062
 30
0.0
 40
0.0877645229679102
 50
201.1226800521810105
 51
217.6511733403193887
  0
ARC
  5
C63B
  8
0
 10
468.0103356428672896
 20
98.2021630450980609
 30
0.0
 40
0.0316489875057612
 50
217.6511733403116011
 51
238.8818267381726059
  0
ARC
  5
C63C
  8
0
 10
467.9995948716481848
 20
98.1843706272311465
 30
0.0
 40
0.0108659583730574
 50
238.8818267381612941
 51
269.6607524051564724
  0
ARC
  5
C63D
  8
0
 10
467.9995649182433795
 20
98.1793118334619095
 30
0.0
 40
0.0058070759266974
 50
269.6607524051433984
 51
323.0097769403811867
  0
ARC
  5
C63E
  8
0
 10
467.9925497076047805
 20
98.184596297267035
 30
0.0
 40
0.0145899420881845
 50
323.0097769403765824
 51
344.4283733245557073
  0
ARC
  5
C63F
  8
0
 10
467.9445590425713135
 20
98.1916374563192136
 30
0.0
 40
0.0630052791842304
 50
349.9843271832771165
 51
4.6732451004364153
  0
LINE
  5
C640
  8
0
 10
468.0051064293945728
 20
98.3251046081965825
 30
0.0
 11
468.0073548632410052
 21
98.1967706922873589
 31
0.0
  0
ARC
  5
C641
  8
0
 10
467.9957109475669768
 20
98.3031314005408206
 30
0.0
 40
0.0238976344740625
 50
66.8490251294847866
 51
102.1714159314281005
  0
ARC
  5
C642
  8
0
 10
467.9730756912301786
 20
98.4266955730817727
 30
0.0
 40
0.1017370761341427
 50
273.0709934364472815
 51
279.9601374775213003
  0
LINE
  5
C643
  8
0
 10
467.9785260807944951
 20
98.3251045994968962
 30
0.0
 11
467.1304704061665234
 21
98.3251040195251989
 31
0.0
  0
LINE
  5
C644
  8
0
 10
468.0054513114945962
 20
98.3054197624969106
 30
0.0
 11
468.7083863218945226
 21
98.3054196785968912
 31
0.0
  0
LINE
  5
C645
  8
0
 10
468.7083863218945226
 20
98.3054196785968912
 30
0.0
 11
468.7524416602946076
 21
98.1913820235968871
 31
0.0
  0
ARC
  5
C646
  8
0
 10
468.8629073420881923
 20
98.234057427550141
 30
0.0
 40
0.118422366792332
 50
201.1226798681396133
 51
218.3954036384153881
  0
ARC
  5
C647
  8
0
 10
468.7013929103475789
 20
98.1011270416612149
 30
0.0
 40
0.0908070065825202
 50
26.6783545955294414
 51
40.8374116611635287
  0
LINE
  5
C648
  8
0
 10
468.0051064293945728
 20
98.3251046081965825
 30
0.0
 11
468.7505795462944889
 21
98.3251078784968939
 31
0.0
  0
ARC
  5
C649
  8
0
 10
468.7475091571943722
 20
98.3544929655931242
 30
0.0
 40
0.0295450610572989
 50
275.9650760967045926
 51
312.3463367427420962
  0
ARC
  5
C64A
  8
0
 10
468.7318397663913174
 20
98.3767260593506165
 30
0.0
 40
0.0566341821361919
 50
308.9092024937122005
 51
326.3256865259913866
  0
LINE
  5
C64B
  8
0
 10
467.1230116167365054
 20
98.1327074467099152
 30
0.0
 11
468.7828257048366254
 21
98.1327280476099162
 31
0.0
  0
LINE
  5
C64C
  8
0
 10
468.7828257048366254
 20
98.1327280476099162
 30
0.0
 11
468.7863875146067016
 21
97.9293017267693955
 31
0.0
  0
LINE
  5
C64D
  8
0
 10
468.7863875146067016
 20
97.9293017267693955
 30
0.0
 11
467.1266913587364797
 21
97.9296181841099269
 31
0.0
  0
LINE
  5
C64E
  8
0
 10
467.1266913587364797
 20
97.9296181841099269
 30
0.0
 11
467.1230116167365054
 21
98.1327074467099152
 31
0.0
  0
ARC
  5
C64F
  8
0
 10
467.0752074440115962
 20
98.0872876827488227
 30
0.0
 40
0.0659426594847979
 50
28.8390737995761199
 51
43.5333478082824428
  0
ARC
  5
C650
  8
0
 10
467.1230271102464258
 20
98.1136192502218449
 30
0.0
 40
0.0113526244564875
 50
354.3828265496418908
 51
28.8390737995782516
  0
LINE
  5
C651
  8
0
 10
467.1343252206086163
 20
98.1125080417382662
 30
0.0
 11
467.1370887261365965
 21
97.9598847740099075
 31
0.0
  0
ARC
  5
C652
  8
0
 10
467.0968719649901004
 20
97.9586911890081069
 30
0.0
 40
0.0402344693300094
 50
344.1935050046577089
 51
1.699970671723714
  0
LINE
  5
C653
  8
0
 10
467.1355850532365821
 20
97.9477317492099218
 30
0.0
 11
467.1266931242183205
 21
97.9296210469629642
 31
0.0
  0
LINE
  5
C654
  8
0
 10
467.1346816479958761
 20
98.092823220409926
 30
0.0
 11
467.9378856266508819
 21
98.0928237599101038
 31
0.0
  0
LINE
  5
C655
  8
0
 10
467.9378856266508819
 20
98.0928237599101038
 30
0.0
 11
467.9767519082366221
 21
97.9922180279099138
 31
0.0
  0
ARC
  5
C656
  8
0
 10
468.0586196171627762
 20
98.0238453851652167
 30
0.0
 40
0.0877645229679102
 50
201.1226800521810105
 51
217.6511733403193887
  0
ARC
  5
C657
  8
0
 10
468.014190457309212
 20
97.9895670673110715
 30
0.0
 40
0.0316489875057612
 50
217.6511733403116011
 51
238.8818267381726059
  0
ARC
  5
C658
  8
0
 10
468.0034496860902209
 20
97.9717746494441855
 30
0.0
 40
0.0108659583730574
 50
238.8818267381612941
 51
269.6607524051564724
  0
ARC
  5
C659
  8
0
 10
468.0034197326854155
 20
97.9667158556749342
 30
0.0
 40
0.0058070759266974
 50
269.6607524051433984
 51
323.0097769403811867
  0
ARC
  5
C65A
  8
0
 10
467.9964045220468734
 20
97.9720003194800455
 30
0.0
 40
0.0145899420881845
 50
323.0097769403765824
 51
344.4283733245557073
  0
ARC
  5
C65B
  8
0
 10
467.9484138570132927
 20
97.9790414785322241
 30
0.0
 40
0.0630052791842304
 50
349.9843271832771165
 51
4.6732451004364153
  0
LINE
  5
C65C
  8
0
 10
468.0089612438366089
 20
98.112508630409593
 30
0.0
 11
468.0112096776829844
 21
97.9841747145003836
 31
0.0
  0
ARC
  5
C65D
  8
0
 10
467.9995657620088991
 20
98.0905354227538453
 30
0.0
 40
0.0238976344740625
 50
66.8490251294847866
 51
102.1714159314281005
  0
ARC
  5
C65E
  8
0
 10
467.9769305056722146
 20
98.2140995952947833
 30
0.0
 40
0.1017370761341427
 50
273.0709934364472815
 51
279.9601374775213003
  0
LINE
  5
C65F
  8
0
 10
467.982380895236588
 20
98.1125086217099351
 30
0.0
 11
467.1343252206086163
 21
98.1125080417382236
 31
0.0
  0
LINE
  5
C660
  8
0
 10
468.0093061259365754
 20
98.0928237847099211
 30
0.0
 11
468.7122411363366155
 21
98.0928237008099302
 31
0.0
  0
LINE
  5
C661
  8
0
 10
468.7122411363366155
 20
98.0928237008099302
 30
0.0
 11
468.7562964747365868
 21
97.978786045809926
 31
0.0
  0
ARC
  5
C662
  8
0
 10
468.8667621565302284
 20
98.0214614497631516
 30
0.0
 40
0.118422366792332
 50
201.1226798681396133
 51
218.3954036384153881
  0
ARC
  5
C663
  8
0
 10
468.7052477247895013
 20
97.8885310638742396
 30
0.0
 40
0.0908070065825202
 50
26.6783545955294414
 51
40.8374116611635287
  0
LINE
  5
C664
  8
0
 10
468.0089612438366089
 20
98.112508630409593
 30
0.0
 11
468.7544343607365818
 21
98.1125119007099187
 31
0.0
  0
ARC
  5
C665
  8
0
 10
468.7513639716364082
 20
98.1418969878061631
 30
0.0
 40
0.0295450610572989
 50
275.9650760967045926
 51
312.3463367427420962
  0
ARC
  5
C666
  8
0
 10
468.7356945808334103
 20
98.1641300815636129
 30
0.0
 40
0.0566341821361919
 50
308.9092024937122005
 51
326.3256865259913866
  0
LINE
  5
C667
  8
0
 10
468.8272043812643233
 20
98.5258954677782128
 30
0.0
 11
468.8306671972762842
 21
98.3290456872499448
 31
0.0
  0
LINE
  5
C668
  8
0
 10
468.8306671972762842
 20
98.3290456872499448
 30
0.0
 11
468.8815524873763252
 21
98.427470020249956
 31
0.0
  0
LINE
  5
C669
  8
0
 10
468.8815524873763252
 20
98.427470020249956
 30
0.0
 11
468.8272041381762847
 21
98.5258959019499514
 31
0.0
  0
LINE
  5
C66A
  8
0
 10
470.2520933972762123
 20
97.8605414343499547
 30
0.0
 11
470.3111091049062793
 21
97.8605414343499547
 31
0.0
  0
LINE
  5
C66B
  8
0
 10
470.3111091049062793
 20
97.8605414343499547
 30
0.0
 11
470.3234892362763162
 21
97.3900683627499433
 31
0.0
  0
LINE
  5
C66C
  8
0
 10
470.3234892362763162
 20
97.3900683627499433
 30
0.0
 11
466.1085027855417025
 21
97.3900689933499564
 31
0.0
  0
LINE
  5
C66D
  8
0
 10
470.313699087078021
 20
97.7621162374499448
 30
0.0
 11
470.3381748624472039
 21
97.7621162374899058
 31
0.0
  0
LINE
  5
C66E
  8
0
 10
470.3381748624472039
 20
97.7621162374899058
 30
0.0
 11
470.3381748624763077
 21
97.447155607549945
 31
0.0
  0
LINE
  5
C66F
  8
0
 10
470.3381748624763077
 20
97.447155607549945
 30
0.0
 11
470.3219870300229104
 21
97.447155607549945
 31
0.0
  0
ARC
  5
C670
  8
0
 10
470.1407620389277895
 20
97.6046359225017568
 30
0.0
 40
0.2525309337461378
 50
321.4199075846108258
 51
38.580092425944251
  0
LINE
  5
C671
  8
0
 10
449.7635429721730134
 20
97.5726038636661031
 30
0.0
 11
451.5623307752539972
 21
97.5726038636661031
 31
0.0
  0
ENDSEC
  0
EOF
