  0
SECTION
  2
HEADER
  9
$ACADVER
  1
AC1009
  9
$INSBASE
 10
4615.6306418544727421
 20
293.0077818867384849
 30
0.0
  9
$EXTMIN
 10
4602.7376591818356246
 20
285.7902322005264182
 30
-0.0000000000112498
  9
$EXTMAX
 10
4630.7783352339993144
 20
299.8466900957923258
 30
0.0000000000002956
  9
$LIMMIN
 10
0.0
 20
0.0
  9
$LIMMAX
 10
11.6929133858000007
 20
8.2677165353999982
  9
$ORTHOMODE
 70
     0
  9
$REGENMODE
 70
     1
  9
$FILLMODE
 70
     1
  9
$QTEXTMODE
 70
     0
  9
$MIRRTEXT
 70
     0
  9
$DRAGMODE
 70
     2
  9
$LTSCALE
 40
0.6431102362
  9
$OSMODE
 70
   563
  9
$ATTMODE
 70
     1
  9
$TEXTSIZE
 40
0.2
  9
$TRACEWID
 40
0.05
  9
$TEXTSTYLE
  7
STANDARD
  9
$CLAYER
  8
0
  9
$CELTYPE
  6
BYLAYER
  9
$CECOLOR
 62
   256
  9
$DIMSCALE
 40
1.0
  9
$DIMASZ
 40
0.1875
  9
$DIMEXO
 40
0.0625
  9
$DIMDLI
 40
0.4443307087
  9
$DIMRND
 40
0.0
  9
$DIMDLE
 40
0.0
  9
$DIMEXE
 40
0.125
  9
$DIMTP
 40
0.01
  9
$DIMTM
 40
0.01
  9
$DIMTXT
 40
2.0
  9
$DIMCEN
 40
0.1052362205
  9
$DIMTSZ
 40
0.0
  9
$DIMTOL
 70
     1
  9
$DIMLIM
 70
     0
  9
$DIMTIH
 70
     1
  9
$DIMTOH
 70
     1
  9
$DIMSE1
 70
     0
  9
$DIMSE2
 70
     0
  9
$DIMTAD
 70
     0
  9
$DIMZIN
 70
     0
  9
$DIMBLK
  1

  9
$DIMASO
 70
     1
  9
$DIMSHO
 70
     1
  9
$DIMPOST
  1
\X
  9
$DIMAPOST
  1

  9
$DIMALT
 70
     1
  9
$DIMALTD
 70
     2
  9
$DIMALTF
 40
25.3999999999999986
  9
$DIMLFAC
 40
1.0
  9
$DIMTOFL
 70
     0
  9
$DIMTVP
 40
0.0
  9
$DIMTIX
 70
     0
  9
$DIMSOXD
 70
     0
  9
$DIMSAH
 70
     0
  9
$DIMBLK1
  1

  9
$DIMBLK2
  1

  9
$DIMSTYLE
  2
STANDARD
  9
$DIMCLRD
 70
     0
  9
$DIMCLRE
 70
     0
  9
$DIMCLRT
 70
     0
  9
$DIMTFAC
 40
1.0
  9
$DIMGAP
 40
0.09
  9
$LUNITS
 70
     2
  9
$LUPREC
 70
     4
  9
$SKETCHINC
 40
0.1
  9
$FILLETRAD
 40
0.0
  9
$AUNITS
 70
     0
  9
$AUPREC
 70
     0
  9
$MENU
  1
.
  9
$ELEVATION
 40
0.0
  9
$PELEVATION
 40
0.0
  9
$THICKNESS
 40
0.0
  9
$LIMCHECK
 70
     0
  9
$BLIPMODE
 70
     0
  9
$CHAMFERA
 40
0.0
  9
$CHAMFERB
 40
0.0
  9
$SKPOLY
 70
     0
  9
$TDCREATE
 40
2458060.468368056230247
  9
$TDUPDATE
 40
2459240.4542824081145227
  9
$TDINDWG
 40
0.5085255787
  9
$TDUSRTIMER
 40
0.5085255787
  9
$USRTIMER
 70
     1
  9
$ANGBASE
 50
0.0
  9
$ANGDIR
 70
     0
  9
$PDMODE
 70
     0
  9
$PDSIZE
 40
0.3125
  9
$PLINEWID
 40
0.0
  9
$COORDS
 70
     1
  9
$SPLFRAME
 70
     0
  9
$SPLINETYPE
 70
     6
  9
$SPLINESEGS
 70
     8
  9
$ATTDIA
 70
     1
  9
$ATTREQ
 70
     1
  9
$HANDLING
 70
     1
  9
$HANDSEED
  5
20800
  9
$SURFTAB1
 70
     6
  9
$SURFTAB2
 70
     6
  9
$SURFTYPE
 70
     6
  9
$SURFU
 70
     6
  9
$SURFV
 70
     6
  9
$UCSNAME
  2

  9
$UCSORG
 10
0.0
 20
0.0
 30
0.0
  9
$UCSXDIR
 10
1.0
 20
0.0
 30
0.0
  9
$UCSYDIR
 10
0.0
 20
1.0
 30
0.0
  9
$PUCSNAME
  2

  9
$PUCSORG
 10
0.0
 20
0.0
 30
0.0
  9
$PUCSXDIR
 10
1.0
 20
0.0
 30
0.0
  9
$PUCSYDIR
 10
0.0
 20
1.0
 30
0.0
  9
$USERI1
 70
     0
  9
$USERI2
 70
     0
  9
$USERI3
 70
     0
  9
$USERI4
 70
     0
  9
$USERI5
 70
     0
  9
$USERR1
 40
0.0
  9
$USERR2
 40
0.0
  9
$USERR3
 40
0.0
  9
$USERR4
 40
0.0
  9
$USERR5
 40
0.0
  9
$WORLDVIEW
 70
     1
  9
$SHADEDGE
 70
     3
  9
$SHADEDIF
 70
    70
  9
$TILEMODE
 70
     1
  9
$MAXACTVP
 70
    64
  9
$PLIMCHECK
 70
     0
  9
$PEXTMIN
 10
1.0000000000000000E+20
 20
1.0000000000000000E+20
 30
1.0000000000000000E+20
  9
$PEXTMAX
 10
-1.0000000000000000E+20
 20
-1.0000000000000000E+20
 30
-1.0000000000000000E+20
  9
$PLIMMIN
 10
0.0
 20
0.0
  9
$PLIMMAX
 10
12.0
 20
9.0
  9
$UNITMODE
 70
     0
  9
$VISRETAIN
 70
     1
  9
$PLINEGEN
 70
     0
  9
$PSLTSCALE
 70
     1
  0
ENDSEC
  0
SECTION
  2
TABLES
  0
TABLE
  2
VPORT
 70
     1
  0
VPORT
  2
*ACTIVE
 70
     0
 10
0.0
 20
0.0
 11
1.0
 21
1.0
 12
705.3926405057707143
 22
160.2388559182085999
 13
0.0
 23
0.0
 14
1.0
 24
1.0
 15
0.0
 25
0.0
 16
0.0
 26
0.0
 36
60.4960186965801583
 17
3911.3653564453120453
 27
132.5796051025390057
 37
0.0
 40
20.4352161410568591
 41
1.9002217294900221
 42
50.0
 43
0.0
 44
0.0
 50
0.0
 51
0.0
 71
     0
 72
   100
 73
     1
 74
     1
 75
     0
 76
     0
 77
     0
 78
     0
  0
ENDTAB
  0
TABLE
  2
LTYPE
 70
     2
  0
LTYPE
  2
CONTINUOUS
 70
     0
  3
Solid line
 72
    65
 73
     0
 40
0.0
  0
LTYPE
  2
PHANTOM2
 70
     0
  3
___ _ _ ___ _ _ ___ _ _ ___ _ _
 72
    65
 73
     6
 40
1.25
 49
0.625
 49
-0.125
 49
0.125
 49
-0.125
 49
0.125
 49
-0.125
  0
ENDTAB
  0
TABLE
  2
LAYER
 70
     2
  0
LAYER
  2
0
 70
     0
 62
   255
  6
CONTINUOUS
  0
LAYER
  2
DEFPOINTS
 70
     0
 62
     7
  6
CONTINUOUS
  0
ENDTAB
  0
TABLE
  2
STYLE
 70
     1
  0
STYLE
  2
STANDARD
 70
     0
 40
0.0
 41
0.8
 50
0.0
 71
     0
 42
0.2
  3
txt
  4

  0
ENDTAB
  0
TABLE
  2
VIEW
 70
     0
  0
ENDTAB
  0
TABLE
  2
UCS
 70
     0
  0
ENDTAB
  0
TABLE
  2
APPID
 70
    11
  0
APPID
  2
ACAD
 70
     0
  0
APPID
  2
ACAD_MLEADERVER
 70
     0
  0
APPID
  2
ACAD_EXEMPT_FROM_CAD_STANDARDS
 70
     0
  0
APPID
  2
ACAD_NAV_VCDISPLAY
 70
     0
  0
APPID
  2
ACAECLAYERSTANDARD
 70
     0
  0
APPID
  2
ACCMTRANSPARENCY
 70
     0
  0
APPID
  2
ACAD_DSTYLE_DIMJAG
 70
     0
  0
APPID
  2
ACAD_DSTYLE_DIMTALN
 70
     0
  0
APPID
  2
ACDBATTR
 70
     0
  0
APPID
  2
ACADANNOTATIVE
 70
     0
  0
APPID
  2
DCO15
 70
     0
  0
ENDTAB
  0
TABLE
  2
DIMSTYLE
 70
     1
  0
DIMSTYLE
  2
STANDARD
 70
     0
  3

  4

  5

  6

  7

 40
1.0
 41
0.1875
 42
0.0625
 43
0.38
 44
0.125
 45
0.0
 46
0.0
 47
0.01
 48
0.01
140
0.15625
141
0.09
142
0.0
143
25.3999999999999986
144
1.0
145
0.0
146
1.0
147
0.09
 71
     1
 72
     0
 73
     1
 74
     1
 75
     0
 76
     0
 77
     0
 78
     4
170
     0
171
     2
172
     0
173
     0
174
     0
175
     0
176
     0
177
     0
178
     0
  0
ENDTAB
  0
ENDSEC
  0
SECTION
  2
BLOCKS
  0
BLOCK
  8
0
  2
$MODEL_SPACE
 70
     0
 10
0.0
 20
0.0
 30
0.0
  3
$MODEL_SPACE
  1

  0
ENDBLK
  5
21
  8
0
  0
BLOCK
 67
     1
  8
0
  2
$PAPER_SPACE
 70
     0
 10
0.0
 20
0.0
 30
0.0
  3
$PAPER_SPACE
  1

  0
ENDBLK
  5
1D
 67
     1
  8
0
  0
ENDSEC
  0
SECTION
  2
ENTITIES
  0
LINE
  5
20616
  8
0
 10
4602.800526391773019
 20
295.2495488612885879
 30
0.0
 11
4602.8005288021722663
 21
295.2495694489884954
 31
0.0
  0
CIRCLE
  5
20617
  8
0
 10
4616.7546803606728645
 20
293.5105031996886282
 30
0.0
 40
1.0625
  0
CIRCLE
  5
20618
  8
0
 10
4616.7546803606728645
 20
293.5105031996886282
 30
0.0
 40
0.7704851109999999
  0
ARC
  5
20619
  8
0
 10
4615.9157762597778856
 20
260.9773119230570728
 30
0.0
 40
38.8300996771403391
 50
95.0712042409523264
 51
99.9315972773507468
  0
ARC
  5
2061A
  8
0
 10
4616.8324593851029931
 20
249.059318145301205
 30
0.0
 40
50.7826648914472401
 50
90.951625042423899
 51
94.9128189407126257
  0
ARC
  5
2061B
  8
0
 10
4616.9499947698277538
 20
233.3655638652477933
 30
0.0
 40
66.4763607258084903
 50
85.9894941980573435
 51
90.8282648502121361
  0
ARC
  5
2061C
  8
0
 10
4619.1876427530778528
 20
260.3423032748390256
 30
0.0
 40
39.4106949431488829
 50
79.4693673127861615
 51
86.4916940286629057
  0
ARC
  5
2061D
  8
0
 10
4623.7845512969634001
 20
286.1252321039513049
 30
0.0
 40
13.2232860486642192
 50
71.0579043157383978
 51
78.6346636453771168
  0
ARC
  5
2061E
  8
0
 10
4626.6639040988548004
 20
294.1596226434925256
 30
0.0
 40
4.6907260661939381
 50
48.0618159649529986
 51
72.4671888089068545
  0
ARC
  5
2061F
  8
0
 10
4627.8155715240727659
 20
295.5380203266233821
 30
0.0
 40
2.896409426005957
 50
19.3286158037112692
 51
46.7850856497611218
  0
ARC
  5
20620
  8
0
 10
4627.5474448738059436
 20
295.4634180419761265
 30
0.0
 40
3.1741686470727131
 50
347.0029568741653065
 51
18.9974079847021393
  0
ARC
  5
20621
  8
0
 10
4625.5563594057821319
 20
295.8796376637504864
 30
0.0
 40
5.2080252457787539
 50
328.6436052576787006
 51
347.4676615231109054
  0
ARC
  5
20622
  8
0
 10
4621.8843287464651439
 20
298.0896111593801265
 30
0.0
 40
9.4937558805817925
 50
313.8078408667838062
 51
328.785895316415008
  0
ARC
  5
20623
  8
0
 10
4614.8673432609130032
 20
305.2152682172994105
 30
0.0
 40
19.4939901674566407
 50
302.9634219548888723
 51
314.1935711687648904
  0
ARC
  5
20624
  8
0
 10
4613.8275240810617106
 20
306.6003377245642127
 30
0.0
 40
21.2221903699022505
 50
291.3669225536601743
 51
303.2841764949894809
  0
ARC
  5
20625
  8
0
 10
4615.5484300882353637
 20
302.2649019151244261
 30
0.0
 40
16.5577675737246501
 50
281.4303945368425275
 51
291.2871526509028968
  0
ARC
  5
20626
  8
0
 10
4616.2971188135452394
 20
299.4374432928004239
 30
0.0
 40
13.6391187017441702
 50
269.2521918569386798
 51
280.7015239367632944
  0
ARC
  5
20627
  8
0
 10
4616.3751226451186085
 20
302.19646836003011
 30
0.0
 40
16.3989805846773216
 50
257.254913955008476
 51
269.1054906973827769
  0
ARC
  5
20628
  8
0
 10
4616.6956340611959604
 20
303.7165110151672138
 30
0.0
 40
17.9522949046168314
 50
245.5953295846715037
 51
257.3274515267456763
  0
ARC
  5
20629
  8
0
 10
4615.3630488023736689
 20
300.749718358343614
 30
0.0
 40
14.6999945681972708
 50
232.1341269724833865
 51
245.5474011509315915
  0
ARC
  5
2062A
  8
0
 10
4613.5036714469906656
 20
298.4207749691008189
 30
0.0
 40
11.7201594505276105
 50
214.3505266368096045
 51
232.3215804160338109
  0
ARC
  5
2062B
  8
0
 10
4609.076645436220133
 20
295.4318760885165034
 30
0.0
 40
6.3787752171374974
 50
193.4335387692815118
 51
214.6229649631212908
  0
ARC
  5
2062C
  8
0
 10
4606.9240661869325777
 20
294.8319115838498874
 30
0.0
 40
4.1465484625779423
 50
175.570745415702504
 51
192.2801229238214091
  0
ARC
  5
2062D
  8
0
 10
4605.9627009521973378
 20
294.8958354749576074
 30
0.0
 40
3.1831350276416712
 50
152.4181418486056998
 51
175.3815414228772909
  0
ARC
  5
2062E
  8
0
 10
4605.9603310472994053
 20
294.9032735578182951
 30
0.0
 40
3.1775952669215259
 50
130.2422113390682057
 51
152.5172312154624876
  0
ARC
  5
2062F
  8
0
 10
4607.2090884624094542
 20
293.4045163829985086
 30
0.0
 40
5.1283715899580189
 50
114.5586878076402968
 51
130.0743407840490988
  0
ARC
  5
20630
  8
0
 10
4609.3421880374462489
 20
288.8542621186402926
 30
0.0
 40
10.1536793800465208
 50
105.7045051848891006
 51
114.8347998944079933
  0
ARC
  5
20631
  8
0
 10
4613.3862709406230351
 20
274.8173718466803734
 30
0.0
 40
24.7613930027481111
 50
99.6896267619089969
 51
105.9212452704904024
  0
ATTDEF
  5
20633
  8
DEFPOINTS
 10
4615.6308284182596253
 20
293.0067447203580855
 30
0.0
 40
0.001
  1
K-8325
  3

  2
MODELNUMBER
 70
     0
1001
ACDBATTR
1070
     0
1070
     1
  0
ATTDEF
  5
20634
  8
DEFPOINTS
 10
4615.6307026086033147
 20
293.0050778799790123
 30
0.0
 40
0.001
  1
KENSHO
  3

  2
TRADENAME
 70
     0
1001
ACDBATTR
1070
     0
1070
     1
  0
ATTDEF
  5
20635
  8
DEFPOINTS
 10
4615.6308284182596253
 20
293.0034113870246983
 30
0.0
 40
0.001
  1
BATHROOM SINK
  3

  2
PRODUCT
 70
     0
1001
ACDBATTR
1070
     0
1070
     1
  0
ENDSEC
  0
EOF
