  0
SECTION
  2
HEADER
  9
$ACADVER
  1
AC1009
  9
$INSBASE
 10
853.9822522245442542
 20
134.6779185282094033
 30
0.0
  9
$EXTMIN
 10
821.2467833323366904
 20
116.3098272872471028
 30
-0.0015258207003583
  9
$EXTMAX
 10
886.732208860032074
 20
153.0302741956780892
 30
0.0000000349246037
  9
$LIMMIN
 10
0.0
 20
0.0
  9
$LIMMAX
 10
11.6929133858000007
 20
8.2677165353999982
  9
$ORTHOMODE
 70
     0
  9
$REGENMODE
 70
     1
  9
$FILLMODE
 70
     1
  9
$QTEXTMODE
 70
     0
  9
$MIRRTEXT
 70
     0
  9
$DRAGMODE
 70
     2
  9
$LTSCALE
 40
0.6431102362
  9
$OSMODE
 70
  4095
  9
$ATTMODE
 70
     1
  9
$TEXTSIZE
 40
0.2
  9
$TRACEWID
 40
0.05
  9
$TEXTSTYLE
  7
STANDARD
  9
$CLAYER
  8
0
  9
$CELTYPE
  6
BYLAYER
  9
$CECOLOR
 62
   256
  9
$DIMSCALE
 40
1.0
  9
$DIMASZ
 40
0.1875
  9
$DIMEXO
 40
0.0625
  9
$DIMDLI
 40
0.4443307087
  9
$DIMRND
 40
0.0
  9
$DIMDLE
 40
0.0
  9
$DIMEXE
 40
0.125
  9
$DIMTP
 40
0.01
  9
$DIMTM
 40
0.01
  9
$DIMTXT
 40
1.0
  9
$DIMCEN
 40
0.1052362205
  9
$DIMTSZ
 40
0.0
  9
$DIMTOL
 70
     1
  9
$DIMLIM
 70
     0
  9
$DIMTIH
 70
     0
  9
$DIMTOH
 70
     1
  9
$DIMSE1
 70
     0
  9
$DIMSE2
 70
     0
  9
$DIMTAD
 70
     0
  9
$DIMZIN
 70
     0
  9
$DIMBLK
  1

  9
$DIMASO
 70
     1
  9
$DIMSHO
 70
     1
  9
$DIMPOST
  1
\X
  9
$DIMAPOST
  1

  9
$DIMALT
 70
     1
  9
$DIMALTD
 70
     2
  9
$DIMALTF
 40
25.3999999999999986
  9
$DIMLFAC
 40
1.0
  9
$DIMTOFL
 70
     0
  9
$DIMTVP
 40
0.0
  9
$DIMTIX
 70
     0
  9
$DIMSOXD
 70
     0
  9
$DIMSAH
 70
     0
  9
$DIMBLK1
  1

  9
$DIMBLK2
  1

  9
$DIMSTYLE
  2
STANDARD
  9
$DIMCLRD
 70
     0
  9
$DIMCLRE
 70
     0
  9
$DIMCLRT
 70
     0
  9
$DIMTFAC
 40
1.0
  9
$DIMGAP
 40
0.09
  9
$LUNITS
 70
     2
  9
$LUPREC
 70
     4
  9
$SKETCHINC
 40
0.1
  9
$FILLETRAD
 40
0.0
  9
$AUNITS
 70
     0
  9
$AUPREC
 70
     0
  9
$MENU
  1
.
  9
$ELEVATION
 40
0.0
  9
$PELEVATION
 40
0.0
  9
$THICKNESS
 40
0.0
  9
$LIMCHECK
 70
     0
  9
$BLIPMODE
 70
     0
  9
$CHAMFERA
 40
0.0
  9
$CHAMFERB
 40
0.0
  9
$SKPOLY
 70
     0
  9
$TDCREATE
 40
2458172.5207638889551163
  9
$TDUPDATE
 40
2460493.5801504631526768
  9
$TDINDWG
 40
0.4176048843
  9
$TDUSRTIMER
 40
0.4176048843
  9
$USRTIMER
 70
     1
  9
$ANGBASE
 50
0.0
  9
$ANGDIR
 70
     0
  9
$PDMODE
 70
     0
  9
$PDSIZE
 40
0.3125
  9
$PLINEWID
 40
0.0
  9
$COORDS
 70
     1
  9
$SPLFRAME
 70
     0
  9
$SPLINETYPE
 70
     6
  9
$SPLINESEGS
 70
     8
  9
$ATTDIA
 70
     1
  9
$ATTREQ
 70
     1
  9
$HANDLING
 70
     1
  9
$HANDSEED
  5
AD83
  9
$SURFTAB1
 70
     6
  9
$SURFTAB2
 70
     6
  9
$SURFTYPE
 70
     6
  9
$SURFU
 70
     6
  9
$SURFV
 70
     6
  9
$UCSNAME
  2

  9
$UCSORG
 10
0.0
 20
0.0
 30
0.0
  9
$UCSXDIR
 10
1.0
 20
0.0
 30
0.0
  9
$UCSYDIR
 10
0.0
 20
1.0
 30
0.0
  9
$PUCSNAME
  2

  9
$PUCSORG
 10
0.0
 20
0.0
 30
0.0
  9
$PUCSXDIR
 10
1.0
 20
0.0
 30
0.0
  9
$PUCSYDIR
 10
0.0
 20
1.0
 30
0.0
  9
$USERI1
 70
     0
  9
$USERI2
 70
     0
  9
$USERI3
 70
     0
  9
$USERI4
 70
     0
  9
$USERI5
 70
     0
  9
$USERR1
 40
0.0
  9
$USERR2
 40
0.0
  9
$USERR3
 40
0.0
  9
$USERR4
 40
0.0
  9
$USERR5
 40
0.0
  9
$WORLDVIEW
 70
     1
  9
$SHADEDGE
 70
     3
  9
$SHADEDIF
 70
    70
  9
$TILEMODE
 70
     1
  9
$MAXACTVP
 70
    64
  9
$PLIMCHECK
 70
     0
  9
$PEXTMIN
 10
1.0000000000000000E+20
 20
1.0000000000000000E+20
 30
1.0000000000000000E+20
  9
$PEXTMAX
 10
-1.0000000000000000E+20
 20
-1.0000000000000000E+20
 30
-1.0000000000000000E+20
  9
$PLIMMIN
 10
0.0
 20
0.0
  9
$PLIMMAX
 10
12.0
 20
9.0
  9
$UNITMODE
 70
     0
  9
$VISRETAIN
 70
     1
  9
$PLINEGEN
 70
     0
  9
$PSLTSCALE
 70
     1
  0
ENDSEC
  0
SECTION
  2
TABLES
  0
TABLE
  2
VPORT
 70
     1
  0
VPORT
  2
*ACTIVE
 70
     0
 10
0.0
 20
0.0
 11
1.0
 21
1.0
 12
387.247294388354419
 22
45.5369036215328222
 13
0.0
 23
0.0
 14
1.0
 24
1.0
 15
0.0
 25
0.0
 16
0.0
 26
0.0
 36
24.1179433675886514
 17
466.74220170783002
 27
89.133147119929788
 37
0.0
 40
37.0254642303880033
 41
2.5251322751322749
 42
50.0
 43
0.0
 44
0.0
 50
0.0
 51
0.0
 71
     0
 72
   100
 73
     1
 74
     1
 75
     0
 76
     0
 77
     0
 78
     0
  0
ENDTAB
  0
TABLE
  2
LTYPE
 70
     2
  0
LTYPE
  2
CONTINUOUS
 70
     0
  3
Solid line
 72
    65
 73
     0
 40
0.0
  0
LTYPE
  2
PHANTOM2
 70
     0
  3
___ _ _ ___ _ _ ___ _ _ ___ _ _
 72
    65
 73
     6
 40
1.25
 49
0.625
 49
-0.125
 49
0.125
 49
-0.125
 49
0.125
 49
-0.125
  0
ENDTAB
  0
TABLE
  2
LAYER
 70
     2
  0
LAYER
  2
0
 70
     0
 62
   255
  6
CONTINUOUS
  0
LAYER
  2
DEFPOINTS
 70
     0
 62
     7
  6
CONTINUOUS
  0
ENDTAB
  0
TABLE
  2
STYLE
 70
     1
  0
STYLE
  2
STANDARD
 70
     0
 40
0.0
 41
0.8
 50
0.0
 71
     0
 42
0.2
  3
txt
  4

  0
ENDTAB
  0
TABLE
  2
VIEW
 70
     0
  0
ENDTAB
  0
TABLE
  2
UCS
 70
     0
  0
ENDTAB
  0
TABLE
  2
APPID
 70
    11
  0
APPID
  2
ACAD
 70
     0
  0
APPID
  2
ACAD_MLEADERVER
 70
     0
  0
APPID
  2
ACAD_EXEMPT_FROM_CAD_STANDARDS
 70
     0
  0
APPID
  2
ACAD_DSTYLE_DIMJAG
 70
     0
  0
APPID
  2
ACAD_DSTYLE_DIMTALN
 70
     0
  0
APPID
  2
ACAD_NAV_VCDISPLAY
 70
     0
  0
APPID
  2
ACAECLAYERSTANDARD
 70
     0
  0
APPID
  2
ACCMTRANSPARENCY
 70
     0
  0
APPID
  2
DCO15
 70
     0
  0
APPID
  2
ACDBATTR
 70
     0
  0
APPID
  2
ACADANNOTATIVE
 70
     0
  0
ENDTAB
  0
TABLE
  2
DIMSTYLE
 70
     1
  0
DIMSTYLE
  2
STANDARD
 70
     0
  3

  4

  5

  6

  7

 40
1.0
 41
0.1875
 42
0.0625
 43
0.38
 44
0.125
 45
0.0
 46
0.0
 47
0.01
 48
0.01
140
0.15625
141
0.09
142
0.0
143
25.3999999999999986
144
1.0
145
0.0
146
1.0
147
0.09
 71
     1
 72
     0
 73
     1
 74
     1
 75
     0
 76
     0
 77
     0
 78
     4
170
     0
171
     2
172
     0
173
     0
174
     0
175
     0
176
     0
177
     0
178
     0
  0
ENDTAB
  0
ENDSEC
  0
SECTION
  2
BLOCKS
  0
BLOCK
  8
0
  2
$MODEL_SPACE
 70
     0
 10
0.0
 20
0.0
 30
0.0
  3
$MODEL_SPACE
  1

  0
ENDBLK
  5
21
  8
0
  0
BLOCK
 67
     1
  8
0
  2
$PAPER_SPACE
 70
     0
 10
0.0
 20
0.0
 30
0.0
  3
$PAPER_SPACE
  1

  0
ENDBLK
  5
1D
 67
     1
  8
0
  0
ENDSEC
  0
SECTION
  2
ENTITIES
  0
ATTDEF
  5
829
  8
DEFPOINTS
 10
853.9772116404795952
 20
134.6722469349454059
 30
0.0
 40
0.001
  1
K-8331T
  3

  2
MODELNUMBER
 70
     0
1001
ACDBATTR
1070
     0
1070
     1
  0
ATTDEF
  5
82A
  8
DEFPOINTS
 10
853.9772116404795952
 20
134.6705802682787123
 30
0.0
 40
0.001
  1
VEIL
  3

  2
TRADENAME
 70
     0
1001
ACDBATTR
1070
     0
1070
     1
  0
ATTDEF
  5
82B
  8
DEFPOINTS
 10
853.9772116404795952
 20
134.668913601612104
 30
0.0
 40
0.001
  1
BATH
  3

  2
PRODUCT
 70
     0
1001
ACDBATTR
1070
     0
1070
     1
  0
CIRCLE
  5
AC3E
  8
0
 10
870.6786741154961646
 20
137.5390137272167976
 30
0.0
 40
2.5600000000000001
  0
CIRCLE
  5
AC3F
  8
0
 10
870.6786741154961646
 20
137.5390137272167976
 30
0.0
 40
2.3001532808
  0
ARC
  5
AC40
  8
0
 10
843.7062948987871778
 20
142.5010426570150912
 30
0.0
 40
4.8681970446187366
 50
92.2699474040905727
 51
152.2829632191771907
  0
ARC
  5
AC41
  8
0
 10
855.0989730379637876
 20
136.7877849651779911
 30
0.0
 40
17.6125432532953106
 50
153.0673252263169957
 51
192.6386723928247022
  0
ARC
  5
AC42
  8
0
 10
858.7963061708205714
 20
138.2417179399363931
 30
0.0
 40
21.5470391049585608
 50
194.2601957431378139
 51
210.208353516614892
  0
ARC
  5
AC43
  8
0
 10
849.4119508496337403
 20
133.0912412895443993
 30
0.0
 40
10.8490006264901702
 50
211.6378645832888878
 51
280.5929806361029932
  0
ARC
  5
AC44
  8
0
 10
844.1187913795097302
 20
175.4834477799423098
 30
0.0
 40
53.5544680238008368
 50
277.8209129672238191
 51
307.531390255451015
  0
ARC
  5
AC45
  8
0
 10
874.7396788524094973
 20
136.0150307224274115
 30
0.0
 40
3.6090339226754051
 50
303.7348736723483853
 51
353.2308025311263009
  0
ARC
  5
AC46
  8
0
 10
865.5245698069917353
 20
137.6628060095202102
 30
0.0
 40
12.96580301361446
 50
350.7991736666202769
 51
13.6016055432281906
  0
ARC
  5
AC47
  8
0
 10
873.1839179909122777
 20
139.6481840056979138
 30
0.0
 40
5.0559977142880497
 50
12.1457889898472899
 51
78.223416924521203
  0
ARC
  5
AC48
  8
0
 10
849.6834307455894759
 20
44.1320712791583389
 30
0.0
 40
103.4175640296249981
 50
76.2776612712113575
 51
93.4203316693350132
  0
ARC
  5
AC49
  8
0
 10
850.0090371945684637
 20
59.6913830707293016
 30
0.0
 40
91.8329037181125756
 50
82.7152369194795369
 51
96.5736503533218524
  0
ARC
  5
AC4A
  8
0
 10
847.7647487652858445
 20
30.5533935212896992
 30
0.0
 40
121.0291847091666
 50
76.7346045305701239
 51
83.4104715078522645
  0
ARC
  5
AC4B
  8
0
 10
873.0477813765833162
 20
139.6247543246753082
 30
0.0
 40
9.0763026636325268
 50
13.9328417229936399
 51
74.0867337133301476
  0
ARC
  5
AC4C
  8
0
 10
865.7882227445020362
 20
137.6738217354173059
 30
0.0
 40
16.5926676000994391
 50
348.6978405877231921
 51
14.4354260877740401
  0
ARC
  5
AC4D
  8
0
 10
875.0082558386586697
 20
135.8382945023759021
 30
0.0
 40
7.1917072154422339
 50
306.0007623411013924
 51
348.6417587348847178
  0
ARC
  5
AC4E
  8
0
 10
870.8512899665089435
 20
140.2440467459153979
 30
0.0
 40
13.3331212536847996
 50
305.929867249355425
 51
315.2508057919914108
  0
ARC
  5
AC4F
  8
0
 10
879.2346828574861775
 20
128.687395546875706
 30
0.0
 40
0.9440684660931838
 50
126.3519176614652935
 51
140.6993114065913915
  0
LINE
  5
AC50
  8
0
 10
878.5294736813960981
 20
129.2602245050167937
 30
0.0
 11
878.587610837596003
 21
129.2826643058168088
 31
0.0
  0
ARC
  5
AC51
  8
0
 10
877.4798316490738443
 20
131.197349172994592
 30
0.0
 40
2.2120562540591551
 50
300.0523856012421788
 51
304.5656666646125927
  0
ARC
  5
AC52
  8
0
 10
871.1574421431358815
 20
139.8819892201206017
 30
0.0
 40
12.9536705457868901
 50
305.800280807232582
 51
315.4675940172780884
  0
ARC
  5
AC53
  8
0
 10
879.806579962707815
 20
131.3304596683514092
 30
0.0
 40
0.7913818319171907
 50
317.6576570532321853
 51
334.5858093784124208
  0
LINE
  5
AC54
  8
0
 10
880.4952608945961856
 20
131.0151564364167882
 30
0.0
 11
880.4487994422961492
 21
130.9822564898167911
 31
0.0
  0
ARC
  5
AC55
  8
0
 10
881.4694160876590558
 20
129.8038646733178894
 30
0.0
 40
1.5589309189260721
 50
130.8961561713591948
 51
137.4801662167803897
  0
ARC
  5
AC56
  8
0
 10
840.8404665263678908
 20
141.7656872500450902
 30
0.0
 40
9.2530453907915664
 50
98.3547772320567049
 51
151.8810156248673024
  0
ARC
  5
AC57
  8
0
 10
851.6298878472116485
 20
136.3277794977161932
 30
0.0
 40
21.3338657456543501
 50
152.6572614330802082
 51
183.6237847297408052
  0
ARC
  5
AC58
  8
0
 10
855.3131207024008518
 20
136.9741113660950873
 30
0.0
 40
25.0539773150100515
 50
184.5665797533025909
 51
200.7264985083774889
  0
ARC
  5
AC59
  8
0
 10
850.5379114244988159
 20
136.9654128903717947
 30
0.0
 40
20.6533311094315017
 50
205.3973929144380008
 51
222.4992054187480903
  0
ARC
  5
AC5A
  8
0
 10
847.0070505017563391
 20
134.4028730805401892
 30
0.0
 40
16.3264113176913384
 50
224.24031586096919
 51
266.1023861279757057
  0
ARC
  5
AC5B
  8
0
 10
844.1906568850597523
 20
175.5218311673087044
 30
0.0
 40
57.4329701043656087
 50
271.7028003807263872
 51
307.6030306450498983
  0
ARC
  5
AC5C
  8
0
 10
831.803421265646648
 20
139.9389903084390028
 30
0.0
 40
10.5365689872646797
 50
113.227875197981902
 51
177.7021048774415988
  0
ARC
  5
AC5D
  8
0
 10
838.3385531515930325
 20
140.5739190578119064
 30
0.0
 40
17.0645507945006791
 50
180.7133860147976065
 51
214.8960443268913139
  0
ARC
  5
AC5E
  8
0
 10
855.6298958439801936
 20
150.6815406087654026
 30
0.0
 40
37.063860428735893
 50
212.4187832714646902
 51
238.5410541800642079
  0
ARC
  5
AC5F
  8
0
 10
846.7784813009360505
 20
137.5782947697948941
 30
0.0
 40
21.2790753436113
 50
240.4584360454132934
 51
264.2587828153087912
  0
ARC
  5
AC60
  8
0
 10
848.0167115096840007
 20
182.2089352040476911
 30
0.0
 40
65.8890564813944621
 50
267.070941957436105
 51
270.781870372771607
  0
ARC
  5
AC61
  8
0
 10
844.5309054577110146
 20
172.335954916202013
 30
0.0
 40
56.1813225799908125
 50
274.4764495416217756
 51
279.5009008221479121
  0
ARC
  5
AC62
  8
0
 10
843.1941403788399612
 20
176.6586762002476121
 30
0.0
 40
60.6684154775842188
 50
280.0721895823658087
 51
308.9411384711099799
  0
ARC
  5
AC63
  8
0
 10
877.6291266443967061
 20
139.0486253509704966
 30
0.0
 40
9.0605529894075172
 50
0.6020806537928327
 51
55.8252949645963312
  0
ARC
  5
AC64
  8
0
 10
867.129103734251089
 20
119.6126441123928004
 30
0.0
 40
31.1185972532890212
 50
59.9357692071244017
 51
80.2903846940588153
  0
ARC
  5
AC65
  8
0
 10
848.915819658767191
 20
51.3705378007372104
 30
0.0
 40
101.659285727472195
 50
76.6566227607777506
 51
97.9211723906842337
  0
ARC
  5
AC66
  8
0
 10
840.0040072069424468
 20
124.8631985847675026
 30
0.0
 40
27.6703209220929303
 50
100.6166794914993972
 51
116.5223450218455952
  0
ARC
  5
AC67
  8
0
 10
838.2668784244224298
 20
129.3217564193795965
 30
0.0
 40
22.5861111305391589
 50
105.8021484244390962
 51
119.0466522991894038
  0
ARC
  5
AC68
  8
0
 10
845.8730520239980706
 20
85.7875750965360169
 30
0.0
 40
66.7007628504310333
 50
91.5584047855802368
 51
101.9024263903638996
  0
ARC
  5
AC69
  8
0
 10
848.2178804072407274
 20
37.978377973484271
 30
0.0
 40
114.5608010119976967
 50
76.8835505691055516
 51
92.0804246118707539
  0
ARC
  5
AC6A
  8
0
 10
868.6865981768447682
 20
122.5591015108581985
 30
0.0
 40
27.5516900613206488
 50
62.4601108459246603
 51
78.424128169943927
  0
ARC
  5
AC6B
  8
0
 10
876.7153108040663483
 20
138.3223343740837947
 30
0.0
 40
9.8638534009535377
 50
27.3924715949545892
 51
61.4760107650990619
  0
ARC
  5
AC6C
  8
0
 10
877.0770884226543558
 20
138.9761122434790934
 30
0.0
 40
9.2511169546340657
 50
316.1396438954267865
 51
24.8273913806823785
  0
ARC
  5
AC6D
  8
0
 10
855.9854568952423506
 20
156.9627181834090948
 30
0.0
 40
36.9584583374980582
 50
298.3723391067749731
 51
318.6915607120163827
  0
ARC
  5
AC6E
  8
0
 10
841.6409080158618963
 20
181.2047756075045868
 30
0.0
 40
65.1143554634541033
 50
279.8010276020681886
 51
299.3417474283914999
  0
ARC
  5
AC6F
  8
0
 10
847.3418487711728631
 20
149.7251732409237093
 30
0.0
 40
33.1247606928974534
 50
264.4119920253601208
 51
279.3529435485904742
  0
ARC
  5
AC70
  8
0
 10
847.7498214029984638
 20
139.8620039672755127
 30
0.0
 40
23.3881411506654402
 50
231.417137885634105
 51
261.0625693023052918
  0
ARC
  5
AC71
  8
0
 10
832.7018091571900413
 20
138.7213770918407931
 30
0.0
 40
11.6706620929889393
 50
117.5667896348637953
 51
152.0053323208053087
  0
ARC
  5
AC72
  8
0
 10
856.1963781759877747
 20
151.2692114636602128
 30
0.0
 40
37.5763744609243133
 50
218.6805348926791908
 51
232.1968198226672087
  0
ARC
  5
AC73
  8
0
 10
832.4311936610445173
 20
139.9935459818412937
 30
0.0
 40
10.8802787654824602
 50
157.2591762096992056
 51
199.9363943213274979
  0
ARC
  5
AC74
  8
0
 10
846.5985350393609679
 20
144.1323703393443907
 30
0.0
 40
25.6270820071806611
 50
197.8344457365344056
 51
219.6354961515758077
  0
ARC
  5
AC75
  8
0
 10
820.3021886776815563
 20
187.7968566941356983
 30
0.0
 40
84.4140152433168254
 50
316.2948976493939881
 51
319.7358135848896268
  0
ARC
  5
AC76
  8
0
 10
876.4070920453360714
 20
139.2973376763326883
 30
0.0
 40
10.2832331156598507
 50
323.9033960288468279
 51
359.1446843755142027
  0
ARC
  5
AC77
  8
0
 10
878.5191745874468552
 20
129.2751832026563079
 30
0.0
 40
0.0181613317585101
 50
145.9225428739142103
 51
304.5474908222037129
  0
ARC
  5
AC78
  8
0
 10
880.5036478031270235
 20
130.9979772983614055
 30
0.0
 40
0.0191170870959011
 50
338.0492489563720824
 51
116.0217739284687042
  0
ENDSEC
  0
EOF
