  0
SECTION
  2
HEADER
  9
$ACADVER
  1
AC1009
  9
$INSBASE
 10
3482.8116285884420904
 20
200.7200446816331976
 30
0.0
  9
$EXTMIN
 10
3464.7028791193911275
 20
200.7189883010672133
 30
-0.0015258207003583
  9
$EXTMAX
 10
3501.0283545876841345
 20
224.625122283932086
 30
0.0000000349246037
  9
$LIMMIN
 10
0.0
 20
0.0
  9
$LIMMAX
 10
11.6929133858000007
 20
8.2677165353999982
  9
$ORTHOMODE
 70
     0
  9
$REGENMODE
 70
     1
  9
$FILLMODE
 70
     1
  9
$QTEXTMODE
 70
     0
  9
$MIRRTEXT
 70
     0
  9
$DRAGMODE
 70
     2
  9
$LTSCALE
 40
0.6431102362
  9
$OSMODE
 70
  2039
  9
$ATTMODE
 70
     1
  9
$TEXTSIZE
 40
0.2
  9
$TRACEWID
 40
0.05
  9
$TEXTSTYLE
  7
STANDARD
  9
$CLAYER
  8
0
  9
$CELTYPE
  6
BYLAYER
  9
$CECOLOR
 62
   256
  9
$DIMSCALE
 40
1.0
  9
$DIMASZ
 40
0.1875
  9
$DIMEXO
 40
0.0625
  9
$DIMDLI
 40
0.4443307087
  9
$DIMRND
 40
0.0
  9
$DIMDLE
 40
0.0
  9
$DIMEXE
 40
0.125
  9
$DIMTP
 40
0.01
  9
$DIMTM
 40
0.01
  9
$DIMTXT
 40
2.0
  9
$DIMCEN
 40
0.1052362205
  9
$DIMTSZ
 40
0.0
  9
$DIMTOL
 70
     1
  9
$DIMLIM
 70
     0
  9
$DIMTIH
 70
     1
  9
$DIMTOH
 70
     1
  9
$DIMSE1
 70
     0
  9
$DIMSE2
 70
     0
  9
$DIMTAD
 70
     0
  9
$DIMZIN
 70
     0
  9
$DIMBLK
  1

  9
$DIMASO
 70
     1
  9
$DIMSHO
 70
     1
  9
$DIMPOST
  1
\X
  9
$DIMAPOST
  1

  9
$DIMALT
 70
     1
  9
$DIMALTD
 70
     2
  9
$DIMALTF
 40
25.3999999999999986
  9
$DIMLFAC
 40
1.0
  9
$DIMTOFL
 70
     0
  9
$DIMTVP
 40
0.0
  9
$DIMTIX
 70
     0
  9
$DIMSOXD
 70
     0
  9
$DIMSAH
 70
     0
  9
$DIMBLK1
  1

  9
$DIMBLK2
  1

  9
$DIMSTYLE
  2
STANDARD
  9
$DIMCLRD
 70
     0
  9
$DIMCLRE
 70
     0
  9
$DIMCLRT
 70
     0
  9
$DIMTFAC
 40
1.0
  9
$DIMGAP
 40
0.09
  9
$LUNITS
 70
     2
  9
$LUPREC
 70
     4
  9
$SKETCHINC
 40
0.1
  9
$FILLETRAD
 40
0.0
  9
$AUNITS
 70
     0
  9
$AUPREC
 70
     0
  9
$MENU
  1
.
  9
$ELEVATION
 40
0.0
  9
$PELEVATION
 40
0.0
  9
$THICKNESS
 40
0.0
  9
$LIMCHECK
 70
     0
  9
$BLIPMODE
 70
     0
  9
$CHAMFERA
 40
0.0
  9
$CHAMFERB
 40
0.0
  9
$SKPOLY
 70
     0
  9
$TDCREATE
 40
2458060.468368056230247
  9
$TDUPDATE
 40
2459115.3810300920158625
  9
$TDINDWG
 40
0.7146829861
  9
$TDUSRTIMER
 40
0.7146829861
  9
$USRTIMER
 70
     1
  9
$ANGBASE
 50
0.0
  9
$ANGDIR
 70
     0
  9
$PDMODE
 70
     0
  9
$PDSIZE
 40
0.3125
  9
$PLINEWID
 40
0.0
  9
$COORDS
 70
     1
  9
$SPLFRAME
 70
     0
  9
$SPLINETYPE
 70
     6
  9
$SPLINESEGS
 70
     8
  9
$ATTDIA
 70
     1
  9
$ATTREQ
 70
     1
  9
$HANDLING
 70
     1
  9
$HANDSEED
  5
C451
  9
$SURFTAB1
 70
     6
  9
$SURFTAB2
 70
     6
  9
$SURFTYPE
 70
     6
  9
$SURFU
 70
     6
  9
$SURFV
 70
     6
  9
$UCSNAME
  2

  9
$UCSORG
 10
0.0
 20
0.0
 30
0.0
  9
$UCSXDIR
 10
1.0
 20
0.0
 30
0.0
  9
$UCSYDIR
 10
0.0
 20
1.0
 30
0.0
  9
$PUCSNAME
  2

  9
$PUCSORG
 10
0.0
 20
0.0
 30
0.0
  9
$PUCSXDIR
 10
1.0
 20
0.0
 30
0.0
  9
$PUCSYDIR
 10
0.0
 20
1.0
 30
0.0
  9
$USERI1
 70
     0
  9
$USERI2
 70
     0
  9
$USERI3
 70
     0
  9
$USERI4
 70
     0
  9
$USERI5
 70
     0
  9
$USERR1
 40
0.0
  9
$USERR2
 40
0.0
  9
$USERR3
 40
0.0
  9
$USERR4
 40
0.0
  9
$USERR5
 40
0.0
  9
$WORLDVIEW
 70
     1
  9
$SHADEDGE
 70
     3
  9
$SHADEDIF
 70
    70
  9
$TILEMODE
 70
     1
  9
$MAXACTVP
 70
    64
  9
$PLIMCHECK
 70
     0
  9
$PEXTMIN
 10
1.0000000000000000E+20
 20
1.0000000000000000E+20
 30
1.0000000000000000E+20
  9
$PEXTMAX
 10
-1.0000000000000000E+20
 20
-1.0000000000000000E+20
 30
-1.0000000000000000E+20
  9
$PLIMMIN
 10
0.0
 20
0.0
  9
$PLIMMAX
 10
12.0
 20
9.0
  9
$UNITMODE
 70
     0
  9
$VISRETAIN
 70
     1
  9
$PLINEGEN
 70
     0
  9
$PSLTSCALE
 70
     1
  0
ENDSEC
  0
SECTION
  2
TABLES
  0
TABLE
  2
VPORT
 70
     1
  0
VPORT
  2
*ACTIVE
 70
     0
 10
0.0
 20
0.0
 11
1.0
 21
1.0
 12
0.0534830644746762
 22
6.2679941866160229
 13
0.0
 23
0.0
 14
1.0
 24
1.0
 15
0.0
 25
0.0
 16
0.0
 26
0.0
 36
32.8147386803597172
 17
3482.8121337890629547
 27
206.4040611058836134
 37
0.0
 40
24.1050754584504112
 41
2.6486111111111108
 42
50.0
 43
0.0
 44
0.0
 50
0.0
 51
0.0
 71
     0
 72
   100
 73
     1
 74
     1
 75
     0
 76
     0
 77
     0
 78
     0
  0
ENDTAB
  0
TABLE
  2
LTYPE
 70
     2
  0
LTYPE
  2
CONTINUOUS
 70
     0
  3
Solid line
 72
    65
 73
     0
 40
0.0
  0
LTYPE
  2
PHANTOM2
 70
     0
  3
___ _ _ ___ _ _ ___ _ _ ___ _ _
 72
    65
 73
     6
 40
1.25
 49
0.625
 49
-0.125
 49
0.125
 49
-0.125
 49
0.125
 49
-0.125
  0
ENDTAB
  0
TABLE
  2
LAYER
 70
     2
  0
LAYER
  2
0
 70
     0
 62
   255
  6
CONTINUOUS
  0
LAYER
  2
DEFPOINTS
 70
     0
 62
     7
  6
CONTINUOUS
  0
ENDTAB
  0
TABLE
  2
STYLE
 70
     1
  0
STYLE
  2
STANDARD
 70
     0
 40
0.0
 41
0.8
 50
0.0
 71
     0
 42
0.2
  3
txt
  4

  0
ENDTAB
  0
TABLE
  2
VIEW
 70
     0
  0
ENDTAB
  0
TABLE
  2
UCS
 70
     0
  0
ENDTAB
  0
TABLE
  2
APPID
 70
     9
  0
APPID
  2
ACAD
 70
     0
  0
APPID
  2
ACAD_MLEADERVER
 70
     0
  0
APPID
  2
ACAD_EXEMPT_FROM_CAD_STANDARDS
 70
     0
  0
APPID
  2
ACAD_NAV_VCDISPLAY
 70
     0
  0
APPID
  2
ACAECLAYERSTANDARD
 70
     0
  0
APPID
  2
ACCMTRANSPARENCY
 70
     0
  0
APPID
  2
ACAD_DSTYLE_DIMJAG
 70
     0
  0
APPID
  2
ACAD_DSTYLE_DIMTALN
 70
     0
  0
APPID
  2
ACDBATTR
 70
     0
  0
ENDTAB
  0
TABLE
  2
DIMSTYLE
 70
     1
  0
DIMSTYLE
  2
STANDARD
 70
     0
  3

  4

  5

  6

  7

 40
1.0
 41
0.1875
 42
0.0625
 43
0.38
 44
0.125
 45
0.0
 46
0.0
 47
0.01
 48
0.01
140
0.15625
141
0.09
142
0.0
143
25.3999999999999986
144
1.0
145
0.0
146
1.0
147
0.09
 71
     1
 72
     0
 73
     1
 74
     1
 75
     0
 76
     0
 77
     0
 78
     4
170
     0
171
     2
172
     0
173
     0
174
     0
175
     0
176
     0
177
     0
178
     0
  0
ENDTAB
  0
ENDSEC
  0
SECTION
  2
BLOCKS
  0
BLOCK
  8
0
  2
$MODEL_SPACE
 70
     0
 10
0.0
 20
0.0
 30
0.0
  3
$MODEL_SPACE
  1

  0
ENDBLK
  5
21
  8
0
  0
BLOCK
 67
     1
  8
0
  2
$PAPER_SPACE
 70
     0
 10
0.0
 20
0.0
 30
0.0
  3
$PAPER_SPACE
  1

  0
ENDBLK
  5
1D
 67
     1
  8
0
  0
BLOCK
  8
0
  2
_FILLED
 70
     0
 10
0.0
 20
0.0
 30
0.0
  3
_FILLED
  1

  0
SOLID
  5
AE6E
  8
0
  6
BYBLOCK
 62
     0
 10
0.0
 20
0.0
 30
0.0
 11
-1.0
 21
0.1666666667
 31
0.0
 12
-1.0
 22
-0.1666666667
 32
0.0
 13
-1.0
 23
-0.1666666667
 33
0.0
  0
ENDBLK
  5
AE6F
  8
0
  6
BYBLOCK
 62
     0
  0
ENDSEC
  0
SECTION
  2
ENTITIES
  0
ATTDEF
  5
3930
  8
DEFPOINTS
 10
3482.8122103666742078
 20
200.7240074249833981
 30
0.0
 40
0.001
  1
K-8333T
  3

  2
MODELNUMBER
 70
     0
1001
ACDBATTR
1070
     0
1070
     1
  0
ATTDEF
  5
3931
  8
DEFPOINTS
 10
3482.8122103666742078
 20
200.7223407583167045
 30
0.0
 40
0.001
  1
MEMOIRS
  3

  2
TRADENAME
 70
     0
1001
ACDBATTR
1070
     0
1070
     1
  0
ATTDEF
  5
3932
  8
DEFPOINTS
 10
3482.8122103666742078
 20
200.7206740916500962
 30
0.0
 40
0.001
  1
BATH
  3

  2
PRODUCT
 70
     0
1001
ACDBATTR
1070
     0
1070
     1
  0
LINE
  5
C1DF
  8
0
 10
3469.2041336344918818
 20
200.8450446816331976
 30
0.0
 11
3496.4191235422917998
 21
200.8450446816331976
 31
0.0
  0
LINE
  5
C1E0
  8
0
 10
3469.9612033466728462
 20
203.4628659550332088
 30
0.0
 11
3495.6620538301121996
 21
203.4628659550332088
 31
0.0
  0
LINE
  5
C1E1
  8
0
 10
3474.6661888615931275
 20
200.7200446816331976
 30
0.0
 11
3477.9570683151919184
 21
200.7200446816331976
 31
0.0
  0
LINE
  5
C1E2
  8
0
 10
3487.666188861592218
 20
200.7200446816331976
 30
0.0
 11
3490.9570683151919184
 21
200.7200446816331976
 31
0.0
  0
LINE
  5
C1E3
  8
0
 10
3469.0099824341918975
 20
201.6735163847037882
 30
0.0
 11
3496.6132747426931928
 21
201.6735163847037882
 31
0.0
  0
ARC
  5
C1E4
  8
0
 10
3490.9570683151919184
 20
201.0950446816333113
 30
0.0
 40
0.3750000000000968
 50
270.0
 51
318.1896851042042158
  0
ARC
  5
C1E5
  8
0
 10
3474.6661888615931275
 20
201.0950446816331976
 30
0.0
 40
0.3750000000000284
 50
221.8103148957885935
 51
270.0
  0
ARC
  5
C1E6
  8
0
 10
3469.2041336344918818
 20
201.0450446816331862
 30
0.0
 40
0.1999999999999949
 50
182.6172483583974042
 51
269.9762287139463979
  0
LINE
  5
C1E7
  8
0
 10
3469.004342260807789
 20
201.0359119382704876
 30
0.0
 11
3469.0099824341377825
 21
201.6735163847332046
 31
0.0
  0
ARC
  5
C1E8
  8
0
 10
3469.2594806177348801
 20
201.6576842609152038
 30
0.0
 40
0.2499999994704665
 50
138.9441956642039031
 51
176.3691147904170862
  0
ARC
  5
C1E9
  8
0
 10
3467.1857874574438938
 20
203.4638671586824046
 30
0.0
 40
2.4999999974801281
 50
318.9441956642039031
 51
352.64116262433879
  0
ARC
  5
C1EA
  8
0
 10
3470.0371073339060786
 20
203.0956281783641089
 30
0.0
 40
0.3749999998300892
 50
101.6779617684396015
 51
172.64116262434041
  0
ARC
  5
C1EB
  8
0
 10
3469.9485526822691099
 20
203.5240722511645117
 30
0.0
 40
0.0624999999919076
 50
281.6779617684396158
 51
5.1929047365623564
  0
ARC
  5
C1EC
  8
0
 10
3396.3145197001299493
 20
196.832044234637209
 30
0.0
 40
74.0000009868984563
 50
5.1929047365623564
 51
18.9625473156281892
  0
ARC
  5
C1ED
  8
0
 10
3465.4739509958340022
 20
220.594990007300396
 30
0.0
 40
0.8719999958981617
 50
18.9625473156281892
 51
57.3734136472573297
  0
ARC
  5
C1EE
  8
0
 10
3466.0788903546717847
 20
221.5399409907772963
 30
0.0
 40
0.2499999992201923
 50
180.8851576070321983
 51
237.3734136472573084
  0
ARC
  5
C1EF
  8
0
 10
3462.8792722332841549
 20
221.4905064306393001
 30
0.0
 40
2.9499999849128531
 50
0.8851576070322122
 51
45.2359706189094126
  0
ARC
  5
C1F0
  8
0
 10
3465.5315239880987974
 20
224.2039660505778045
 30
0.0
 40
0.844729768351773
 50
197.4105406402414076
 51
227.1120155797482028
  0
ARC
  5
C1F1
  8
0
 10
3465.1819686242529315
 20
224.0836985903106893
 30
0.0
 40
0.4753118918350207
 50
138.1833971497030973
 51
196.185150240219798
  0
ARC
  5
C1F2
  8
0
 10
3465.3170325566179599
 20
223.9456038354493046
 30
0.0
 40
0.6681710682794288
 50
88.9655620289135243
 51
137.0800690731281861
  0
LINE
  5
C1F3
  8
0
 10
3465.3290952945922072
 20
224.6136660083332117
 30
0.0
 11
3500.2892164423828945
 21
224.6136660083332117
 31
0.0
  0
LINE
  5
C1F5
  8
0
 10
3465.82892018847906
 20
221.5360789157332135
 30
0.0
 11
3499.7943369883050764
 21
221.5360789157332135
 31
0.0
  0
ARC
  5
C1F6
  8
0
 10
3500.3588329575050011
 20
224.0556601148329037
 30
0.0
 40
0.5623317849445014
 50
303.1858063802583843
 51
97.1114461688369346
  0
ARC
  5
C1F7
  8
0
 10
3502.7439849578368012
 20
221.4905064246117092
 30
0.0
 40
2.9499999992879502
 50
134.7640294963331087
 51
179.1148422817007884
  0
ARC
  5
C1F8
  8
0
 10
3499.5443668214238642
 20
221.5399409912247108
 30
0.0
 40
0.2499999999684163
 50
302.6265864304226056
 51
359.1148422753196883
  0
ARC
  5
C1F9
  8
0
 10
3500.1493061843921168
 20
220.5949900046331891
 30
0.0
 40
0.8720000000000439
 50
122.6265864487048987
 51
161.0374525921027953
  0
ARC
  5
C1FA
  8
0
 10
3569.308736503262935
 20
196.8320444428350129
 30
0.0
 40
73.9999999986580548
 50
161.0374525919218911
 51
174.8070953557640905
  0
ARC
  5
C1FB
  8
0
 10
3495.6747044945118432
 20
203.5240722511842932
 30
0.0
 40
0.062499999986325
 50
174.8070952812254006
 51
258.3220383459117215
  0
ARC
  5
C1FC
  8
0
 10
3495.5861498428221239
 20
203.095628178286006
 30
0.0
 40
0.374999999942216
 50
7.3588373833787042
 51
78.322038207641441
  0
ARC
  5
C1FD
  8
0
 10
3498.4374697217058383
 20
203.4638671597087125
 30
0.0
 40
2.4999999999109872
 50
187.3588373924970938
 51
221.0558043174939939
  0
ARC
  5
C1FE
  8
0
 10
3496.3637765583448527
 20
201.6576842605761044
 30
0.0
 40
0.2500000002505358
 50
3.630885091467809
 51
41.0558042929061386
  0
ARC
  5
C1FF
  8
0
 10
3496.4191235422917998
 20
201.0450446816331862
 30
0.0
 40
0.2000000000000206
 50
270.0
 51
357.3827517268194924
  0
LINE
  5
C200
  8
0
 10
3496.6189149159899898
 20
201.0359119385676934
 30
0.0
 11
3496.6132747426931928
 21
201.6735163847332046
 31
0.0
  0
ARC
  5
C201
  8
0
 10
3487.666188861592218
 20
201.0950446816333113
 30
0.0
 40
0.3750000000000888
 50
221.8103148957947042
 51
270.0
  0
ARC
  5
C202
  8
0
 10
3477.9570683151919184
 20
201.0950446816333113
 30
0.0
 40
0.3750000000000746
 50
270.0
 51
318.1896851042066032
  0
LINE
  5
C203
  8
0
 62
     1
 10
3429.986266495693144
 20
200.7200446816331976
 30
0.0
 11
3500.1561231309719915
 21
204.8263283861886634
 31
0.0
  0
ENDSEC
  0
EOF
