  0
SECTION
  2
HEADER
  9
$ACADVER
  1
AC1009
  9
$INSBASE
 10
5.4126371669999997
 20
55.186280752299993
 30
0.0
  9
$EXTMIN
 10
-27.087362840263431
 20
39.6422807549186587
 30
0.0
  9
$EXTMAX
 10
37.9126371669999997
 20
70.7302807549186241
 30
0.0
  9
$LIMMIN
 10
0.0
 20
0.0
  9
$LIMMAX
 10
11.6929133858000007
 20
8.2677165353999982
  9
$ORTHOMODE
 70
     0
  9
$REGENMODE
 70
     1
  9
$FILLMODE
 70
     1
  9
$QTEXTMODE
 70
     0
  9
$MIRRTEXT
 70
     0
  9
$DRAGMODE
 70
     2
  9
$LTSCALE
 40
0.6431102362
  9
$OSMODE
 70
  3839
  9
$ATTMODE
 70
     1
  9
$TEXTSIZE
 40
0.2
  9
$TRACEWID
 40
0.05
  9
$TEXTSTYLE
  7
STANDARD
  9
$CLAYER
  8
0
  9
$CELTYPE
  6
BYLAYER
  9
$CECOLOR
 62
   256
  9
$DIMSCALE
 40
1.0
  9
$DIMASZ
 40
0.1875
  9
$DIMEXO
 40
0.0625
  9
$DIMDLI
 40
0.4443307087
  9
$DIMRND
 40
0.0
  9
$DIMDLE
 40
0.0
  9
$DIMEXE
 40
0.125
  9
$DIMTP
 40
0.0
  9
$DIMTM
 40
0.0
  9
$DIMTXT
 40
1.0
  9
$DIMCEN
 40
0.1052362205
  9
$DIMTSZ
 40
0.0
  9
$DIMTOL
 70
     0
  9
$DIMLIM
 70
     0
  9
$DIMTIH
 70
     1
  9
$DIMTOH
 70
     1
  9
$DIMSE1
 70
     0
  9
$DIMSE2
 70
     0
  9
$DIMTAD
 70
     0
  9
$DIMZIN
 70
     0
  9
$DIMBLK
  1

  9
$DIMASO
 70
     1
  9
$DIMSHO
 70
     1
  9
$DIMPOST
  1
\X
  9
$DIMAPOST
  1

  9
$DIMALT
 70
     1
  9
$DIMALTD
 70
     2
  9
$DIMALTF
 40
25.3999999999999986
  9
$DIMLFAC
 40
1.0
  9
$DIMTOFL
 70
     0
  9
$DIMTVP
 40
0.0
  9
$DIMTIX
 70
     0
  9
$DIMSOXD
 70
     0
  9
$DIMSAH
 70
     0
  9
$DIMBLK1
  1

  9
$DIMBLK2
  1

  9
$DIMSTYLE
  2
STANDARD
  9
$DIMCLRD
 70
     0
  9
$DIMCLRE
 70
     0
  9
$DIMCLRT
 70
     0
  9
$DIMTFAC
 40
1.0
  9
$DIMGAP
 40
0.09
  9
$LUNITS
 70
     2
  9
$LUPREC
 70
     4
  9
$SKETCHINC
 40
0.1
  9
$FILLETRAD
 40
0.0
  9
$AUNITS
 70
     0
  9
$AUPREC
 70
     0
  9
$MENU
  1
.
  9
$ELEVATION
 40
0.0
  9
$PELEVATION
 40
0.0
  9
$THICKNESS
 40
0.0
  9
$LIMCHECK
 70
     0
  9
$BLIPMODE
 70
     0
  9
$CHAMFERA
 40
0.0
  9
$CHAMFERB
 40
0.0
  9
$SKPOLY
 70
     0
  9
$TDCREATE
 40
2457918.5028356481343508
  9
$TDUPDATE
 40
2459029.6414120369590819
  9
$TDINDWG
 40
0.035322963
  9
$TDUSRTIMER
 40
0.035322963
  9
$USRTIMER
 70
     1
  9
$ANGBASE
 50
0.0
  9
$ANGDIR
 70
     0
  9
$PDMODE
 70
     0
  9
$PDSIZE
 40
0.3125
  9
$PLINEWID
 40
0.0
  9
$COORDS
 70
     1
  9
$SPLFRAME
 70
     0
  9
$SPLINETYPE
 70
     6
  9
$SPLINESEGS
 70
     8
  9
$ATTDIA
 70
     1
  9
$ATTREQ
 70
     1
  9
$HANDLING
 70
     1
  9
$HANDSEED
  5
AED
  9
$SURFTAB1
 70
     6
  9
$SURFTAB2
 70
     6
  9
$SURFTYPE
 70
     6
  9
$SURFU
 70
     6
  9
$SURFV
 70
     6
  9
$UCSNAME
  2

  9
$UCSORG
 10
0.0
 20
0.0
 30
0.0
  9
$UCSXDIR
 10
1.0
 20
0.0
 30
0.0
  9
$UCSYDIR
 10
0.0
 20
1.0
 30
0.0
  9
$PUCSNAME
  2

  9
$PUCSORG
 10
0.0
 20
0.0
 30
0.0
  9
$PUCSXDIR
 10
1.0
 20
0.0
 30
0.0
  9
$PUCSYDIR
 10
0.0
 20
1.0
 30
0.0
  9
$USERI1
 70
     0
  9
$USERI2
 70
     0
  9
$USERI3
 70
     0
  9
$USERI4
 70
     0
  9
$USERI5
 70
     0
  9
$USERR1
 40
0.0
  9
$USERR2
 40
0.0
  9
$USERR3
 40
0.0
  9
$USERR4
 40
0.0
  9
$USERR5
 40
0.0
  9
$WORLDVIEW
 70
     1
  9
$SHADEDGE
 70
     3
  9
$SHADEDIF
 70
    70
  9
$TILEMODE
 70
     1
  9
$MAXACTVP
 70
    48
  9
$PLIMCHECK
 70
     0
  9
$PEXTMIN
 10
1.0000000000000000E+20
 20
1.0000000000000000E+20
 30
1.0000000000000000E+20
  9
$PEXTMAX
 10
-1.0000000000000000E+20
 20
-1.0000000000000000E+20
 30
-1.0000000000000000E+20
  9
$PLIMMIN
 10
0.0
 20
0.0
  9
$PLIMMAX
 10
12.0
 20
9.0
  9
$UNITMODE
 70
     0
  9
$VISRETAIN
 70
     1
  9
$PLINEGEN
 70
     0
  9
$PSLTSCALE
 70
     1
  0
ENDSEC
  0
SECTION
  2
TABLES
  0
TABLE
  2
VPORT
 70
     1
  0
VPORT
  2
*ACTIVE
 70
     0
 10
0.0
 20
0.0
 11
1.0
 21
1.0
 12
0.0
 22
0.0
 13
0.0
 23
0.0
 14
1.0
 24
1.0
 15
0.0
 25
0.0
 16
-0.0000000000000666
 26
0.0
 36
298.868111810177993
 17
5.4126367568969718
 27
55.1862831115722585
 37
0.0
 40
71.9895643793003899
 41
3.314341846758349
 42
50.0
 43
0.0
 44
0.0
 50
0.0
 51
0.0
 71
     0
 72
   100
 73
     1
 74
     1
 75
     0
 76
     0
 77
     0
 78
     0
  0
ENDTAB
  0
TABLE
  2
LTYPE
 70
     2
  0
LTYPE
  2
CONTINUOUS
 70
     0
  3
Solid line
 72
    65
 73
     0
 40
0.0
  0
LTYPE
  2
PHANTOM2
 70
     0
  3
___ _ _ ___ _ _ ___ _ _ ___ _ _
 72
    65
 73
     6
 40
1.25
 49
0.625
 49
-0.125
 49
0.125
 49
-0.125
 49
0.125
 49
-0.125
  0
ENDTAB
  0
TABLE
  2
LAYER
 70
     2
  0
LAYER
  2
0
 70
     0
 62
     7
  6
CONTINUOUS
  0
LAYER
  2
DEFPOINTS
 70
     0
 62
     7
  6
CONTINUOUS
  0
ENDTAB
  0
TABLE
  2
STYLE
 70
     1
  0
STYLE
  2
STANDARD
 70
     0
 40
0.0
 41
0.8
 50
0.0
 71
     0
 42
0.2
  3
txt
  4

  0
ENDTAB
  0
TABLE
  2
VIEW
 70
     0
  0
ENDTAB
  0
TABLE
  2
UCS
 70
     0
  0
ENDTAB
  0
TABLE
  2
APPID
 70
     7
  0
APPID
  2
ACAD
 70
     0
  0
APPID
  2
ACAD_MLEADERVER
 70
     0
  0
APPID
  2
ACAD_DSTYLE_DIMJAG
 70
     0
  0
APPID
  2
ACAD_DSTYLE_DIMTALN
 70
     0
  0
APPID
  2
ACAD_NAV_VCDISPLAY
 70
     0
  0
APPID
  2
ACAD_EXEMPT_FROM_CAD_STANDARDS
 70
     0
  0
APPID
  2
ACDBATTR
 70
     0
  0
ENDTAB
  0
TABLE
  2
DIMSTYLE
 70
     1
  0
DIMSTYLE
  2
STANDARD
 70
     0
  3

  4

  5

  6

  7

 40
1.0
 41
0.1875
 42
0.0625
 43
0.38
 44
0.125
 45
0.0
 46
0.0
 47
1.5
 48
1.5
140
0.15625
141
0.09
142
0.0
143
25.3999999999999986
144
1.0
145
0.0
146
1.0
147
0.09
 71
     0
 72
     0
 73
     1
 74
     1
 75
     0
 76
     0
 77
     0
 78
     4
170
     0
171
     2
172
     0
173
     0
174
     0
175
     0
176
     0
177
     0
178
     0
  0
ENDTAB
  0
ENDSEC
  0
SECTION
  2
BLOCKS
  0
BLOCK
  8
0
  2
$MODEL_SPACE
 70
     0
 10
0.0
 20
0.0
 30
0.0
  3
$MODEL_SPACE
  1

  0
ENDBLK
  5
21
  8
0
  0
BLOCK
 67
     1
  8
0
  2
$PAPER_SPACE
 70
     0
 10
0.0
 20
0.0
 30
0.0
  3
$PAPER_SPACE
  1

  0
ENDBLK
  5
1D
 67
     1
  8
0
  0
ENDSEC
  0
SECTION
  2
ENTITIES
  0
ARC
  5
724
  8
0
 10
5.4126371633682906
 20
-195.5143826596813028
 30
0.0
 40
266.2446634145999838
 50
85.9949205825000149
 51
94.0050794174999851
  0
ARC
  5
725
  8
0
 10
5.4126371633682906
 20
305.8869441695186993
 30
0.0
 40
266.2446634145999838
 50
265.9949205825000149
 51
274.0050794174999851
  0
ARC
  5
726
  8
0
 10
22.9836249281048204
 20
55.186280754918613
 30
0.0
 40
14.9290122388951794
 50
273.9363364194686028
 51
86.0636635805313546
  0
ARC
  5
727
  8
0
 10
-12.1583506013682392
 20
55.1862807549186272
 30
0.0
 40
14.92901223889519
 50
93.9363364194682475
 51
266.063663580531113
  0
ARC
  5
728
  8
0
 10
5.4125014743374837
 20
-197.5305937769936975
 30
0.0
 40
266.4243116748469902
 50
86.0252628517079359
 51
93.9725968951681239
  0
ARC
  5
729
  8
0
 10
22.7567676162919099
 20
54.8084873043194065
 30
0.0
 40
13.4912536019262195
 50
48.4225077274878331
 51
85.2236616299179843
  0
ARC
  5
72A
  8
0
 10
22.7347880636409094
 20
55.1862163191315105
 30
0.0
 40
13.2259740537293204
 50
312.7366665607684126
 51
47.2652685830644614
  0
ARC
  5
72B
  8
0
 10
22.7533983808514684
 20
55.5727596042073984
 30
0.0
 40
13.5000744070275402
 50
274.7464327506052086
 51
311.5652588937450105
  0
ARC
  5
72C
  8
0
 10
5.4126371670002227
 20
307.9070688904179178
 30
0.0
 40
266.428225281380378
 50
266.027432301418628
 51
273.9725676985813152
  0
ARC
  5
72D
  8
0
 10
5.4126371869906924
 20
-167.7509995317037124
 30
0.0
 40
233.1838764694037138
 50
85.6873694332628162
 51
94.3126305765396609
  0
ARC
  5
72E
  8
0
 10
22.6409977595643603
 20
60.7052670162567409
 30
0.0
 40
4.0789176992990406
 50
22.3055709794137513
 51
85.6873694332628446
  0
ARC
  5
72F
  8
0
 10
8.6452306281842795
 20
55.1862806454035422
 30
0.0
 40
19.1232406962859685
 50
338.3117136377744032
 51
21.6882869500097897
  0
ARC
  5
730
  8
0
 10
22.6409979405082105
 20
49.667294367125848
 30
0.0
 40
4.0789175649178384
 50
274.3126281601860796
 51
337.6944296083703989
  0
ARC
  5
731
  8
0
 10
5.4126371670177882
 20
278.1236915462598063
 30
0.0
 40
233.1840066114332046
 50
265.6873718399206155
 51
274.3126281601860796
  0
CIRCLE
  5
733
  8
0
 10
5.4126371669999997
 20
55.186280752299993
 30
0.0
 40
2.6372080403
  0
CIRCLE
  5
734
  8
0
 10
5.4126371669999997
 20
55.186280752299993
 30
0.0
 40
1.3149999999999991
  0
ARC
  5
735
  8
0
 10
-11.9320925774614093
 20
54.8094324734063392
 30
0.0
 40
13.4901488493247097
 50
94.7330198745546141
 51
131.5782522583569119
  0
ARC
  5
736
  8
0
 10
-11.9095137296409099
 20
55.1862163191315105
 30
0.0
 40
13.2259740537293204
 50
132.7347314169354888
 51
227.2633334392315874
  0
ARC
  5
737
  8
0
 10
-11.9281240468514707
 20
55.5727596042073984
 30
0.0
 40
13.5000744070275402
 50
228.4347411062551032
 51
265.2535672493947914
  0
ARC
  5
738
  8
0
 10
-11.8157234255643502
 20
60.7052670162567409
 30
0.0
 40
4.0789176992990406
 50
94.3126305667371412
 51
157.6944290205861989
  0
ARC
  5
739
  8
0
 10
2.1800437058157209
 20
55.1862806454035422
 30
0.0
 40
19.1232406962859685
 50
158.3117130499902032
 51
201.6882863622255968
  0
ARC
  5
73A
  8
0
 10
-11.8157236065082003
 20
49.667294367125848
 30
0.0
 40
4.0789175649178384
 50
202.3055703916296011
 51
265.6873718398139772
  0
ARC
  5
73B
  8
0
 10
5.4111210998035677
 20
-227.090172845070299
 30
0.0
 40
295.7994594618564861
 50
89.7915437698752044
 51
90.2078689164363112
  0
ARC
  5
73C
  8
0
 10
6.4792308712612661
 20
66.4866221526231129
 30
0.0
 40
2.2207214381337761
 50
86.3864930662696366
 51
89.7915437698751759
  0
ARC
  5
73D
  8
0
 10
6.6041658772803338
 20
68.0616872918696032
 30
0.0
 40
0.6414173450392781
 50
80.4097178163517583
 51
88.6574981994770752
  0
ARC
  5
73E
  8
0
 10
6.701384514361429
 20
68.608212941004254
 30
0.0
 40
0.086466773043804
 50
67.7395576053144737
 51
83.597263949210884
  0
ARC
  5
73F
  8
0
 10
6.7326086503222973
 20
68.6843176030927935
 30
0.0
 40
0.0042063743770422
 50
294.6936134090345263
 51
68.6560986050057238
  0
ARC
  5
740
  8
0
 10
6.7060390608171119
 20
68.7349660097510053
 30
0.0
 40
0.0613954913096965
 50
272.4055992775394088
 51
297.4764206404203151
  0
ARC
  5
741
  8
0
 10
6.5685394678898623
 20
69.7002708562524447
 30
0.0
 40
1.036158255006163
 50
271.3157810168266906
 51
277.7695135746189976
  0
ARC
  5
742
  8
0
 10
6.3992316573640666
 20
77.4154261261584793
 30
0.0
 40
8.7531705389286252
 50
270.5765402481048909
 51
271.2640857474913219
  0
ARC
  5
743
  8
0
 10
5.4126282372130401
 20
-225.2308653602796937
 30
0.0
 40
293.8955289793241263
 50
89.7904873904856231
 51
90.2095091280666566
  0
ARC
  5
744
  8
0
 10
4.3466482221423561
 20
66.4740876664949667
 30
0.0
 40
2.2332691276535912
 50
90.2228017151016815
 51
93.6087237398770071
  0
ARC
  5
745
  8
0
 10
4.2211084567196639
 20
68.0616872918696032
 30
0.0
 40
0.6414173450392781
 50
91.342501800522939
 51
99.5902821836482133
  0
ARC
  5
746
  8
0
 10
4.1238898196385696
 20
68.608212941004254
 30
0.0
 40
0.086466773043804
 50
96.4027360507891018
 51
112.2604423946854979
  0
ARC
  5
747
  8
0
 10
4.0926656836777022
 20
68.6843176030927935
 30
0.0
 40
0.0042063743770422
 50
111.3439013949943046
 51
245.3063865909655874
  0
ARC
  5
748
  8
0
 10
4.1192352731828858
 20
68.7349660097510053
 30
0.0
 40
0.0613954913096965
 50
242.5235793595797134
 51
267.5944007224605912
  0
ARC
  5
749
  8
0
 10
4.2567348661101372
 20
69.7002708562524447
 30
0.0
 40
1.036158255006163
 50
262.2304864253810024
 51
268.6842189831733094
  0
ARC
  5
74A
  8
0
 10
4.4260081192191851
 20
77.413613493979696
 30
0.0
 40
8.7513575855251542
 50
268.7358786438213087
 51
269.4235665599346135
  0
ATTDEF
  5
9D9
  8
DEFPOINTS
 10
5.4089094916643532
 20
55.1977560988616673
 30
0.0
 40
0.001
  1
K-8336T
  3

  2
MODELNUMBER
 70
     0
1001
ACDBATTR
1070
     0
1070
     1
  0
ATTDEF
  5
9DA
  8
DEFPOINTS
 10
5.4089094916643532
 20
55.1960894321950093
 30
0.0
 40
0.001
  1
CERIC
  3

  2
TRADENAME
 70
     0
1001
ACDBATTR
1070
     0
1070
     1
  0
ATTDEF
  5
9DB
  8
DEFPOINTS
 10
5.4089094916643532
 20
55.194422765528337
 30
0.0
 40
0.001
  1
BATH
  3

  2
PRODUCT
 70
     0
1001
ACDBATTR
1070
     0
1070
     1
  0
ENDSEC
  0
EOF
