  0
SECTION
  2
HEADER
  9
$ACADVER
  1
AC1009
  9
$INSBASE
 10
4306.1078032134400928
 20
226.3547582719085085
 30
0.0
  9
$EXTMIN
 10
4297.4869352160094422
 20
226.3547582719085085
 30
0.0
  9
$EXTMAX
 10
4331.1078036921771854
 20
272.7308764262584191
 30
0.0
  9
$LIMMIN
 10
0.0
 20
0.0
  9
$LIMMAX
 10
11.6929133858000007
 20
8.2677165353999982
  9
$ORTHOMODE
 70
     0
  9
$REGENMODE
 70
     1
  9
$FILLMODE
 70
     1
  9
$QTEXTMODE
 70
     0
  9
$MIRRTEXT
 70
     0
  9
$DRAGMODE
 70
     2
  9
$LTSCALE
 40
0.6431102362
  9
$OSMODE
 70
     7
  9
$ATTMODE
 70
     1
  9
$TEXTSIZE
 40
0.2
  9
$TRACEWID
 40
0.05
  9
$TEXTSTYLE
  7
STANDARD
  9
$CLAYER
  8
0
  9
$CELTYPE
  6
BYLAYER
  9
$CECOLOR
 62
   256
  9
$DIMSCALE
 40
1.0
  9
$DIMASZ
 40
0.1875
  9
$DIMEXO
 40
0.0625
  9
$DIMDLI
 40
0.4443307087
  9
$DIMRND
 40
0.0
  9
$DIMDLE
 40
0.0
  9
$DIMEXE
 40
0.125
  9
$DIMTP
 40
0.01
  9
$DIMTM
 40
0.01
  9
$DIMTXT
 40
2.0
  9
$DIMCEN
 40
0.1052362205
  9
$DIMTSZ
 40
0.0
  9
$DIMTOL
 70
     1
  9
$DIMLIM
 70
     0
  9
$DIMTIH
 70
     1
  9
$DIMTOH
 70
     1
  9
$DIMSE1
 70
     0
  9
$DIMSE2
 70
     0
  9
$DIMTAD
 70
     0
  9
$DIMZIN
 70
     0
  9
$DIMBLK
  1

  9
$DIMASO
 70
     1
  9
$DIMSHO
 70
     1
  9
$DIMPOST
  1
\X
  9
$DIMAPOST
  1

  9
$DIMALT
 70
     1
  9
$DIMALTD
 70
     2
  9
$DIMALTF
 40
25.3999999999999986
  9
$DIMLFAC
 40
1.0
  9
$DIMTOFL
 70
     0
  9
$DIMTVP
 40
0.0
  9
$DIMTIX
 70
     0
  9
$DIMSOXD
 70
     0
  9
$DIMSAH
 70
     0
  9
$DIMBLK1
  1

  9
$DIMBLK2
  1

  9
$DIMSTYLE
  2
STANDARD
  9
$DIMCLRD
 70
     0
  9
$DIMCLRE
 70
     0
  9
$DIMCLRT
 70
     0
  9
$DIMTFAC
 40
1.0
  9
$DIMGAP
 40
0.09
  9
$LUNITS
 70
     2
  9
$LUPREC
 70
     4
  9
$SKETCHINC
 40
0.1
  9
$FILLETRAD
 40
0.0
  9
$AUNITS
 70
     0
  9
$AUPREC
 70
     0
  9
$MENU
  1
.
  9
$ELEVATION
 40
0.0
  9
$PELEVATION
 40
0.0
  9
$THICKNESS
 40
0.0
  9
$LIMCHECK
 70
     0
  9
$BLIPMODE
 70
     0
  9
$CHAMFERA
 40
0.0
  9
$CHAMFERB
 40
0.0
  9
$SKPOLY
 70
     0
  9
$TDCREATE
 40
2458060.468368056230247
  9
$TDUPDATE
 40
2459378.5713657410815358
  9
$TDINDWG
 40
0.6420903935
  9
$TDUSRTIMER
 40
0.6420903935
  9
$USRTIMER
 70
     1
  9
$ANGBASE
 50
0.0
  9
$ANGDIR
 70
     0
  9
$PDMODE
 70
     0
  9
$PDSIZE
 40
0.3125
  9
$PLINEWID
 40
0.0
  9
$COORDS
 70
     1
  9
$SPLFRAME
 70
     0
  9
$SPLINETYPE
 70
     6
  9
$SPLINESEGS
 70
     8
  9
$ATTDIA
 70
     1
  9
$ATTREQ
 70
     1
  9
$HANDLING
 70
     1
  9
$HANDSEED
  5
1362A
  9
$SURFTAB1
 70
     6
  9
$SURFTAB2
 70
     6
  9
$SURFTYPE
 70
     6
  9
$SURFU
 70
     6
  9
$SURFV
 70
     6
  9
$UCSNAME
  2

  9
$UCSORG
 10
0.0
 20
0.0
 30
0.0
  9
$UCSXDIR
 10
1.0
 20
0.0
 30
0.0
  9
$UCSYDIR
 10
0.0
 20
1.0
 30
0.0
  9
$PUCSNAME
  2

  9
$PUCSORG
 10
0.0
 20
0.0
 30
0.0
  9
$PUCSXDIR
 10
1.0
 20
0.0
 30
0.0
  9
$PUCSYDIR
 10
0.0
 20
1.0
 30
0.0
  9
$USERI1
 70
     0
  9
$USERI2
 70
     0
  9
$USERI3
 70
     0
  9
$USERI4
 70
     0
  9
$USERI5
 70
     0
  9
$USERR1
 40
0.0
  9
$USERR2
 40
0.0
  9
$USERR3
 40
0.0
  9
$USERR4
 40
0.0
  9
$USERR5
 40
0.0
  9
$WORLDVIEW
 70
     1
  9
$SHADEDGE
 70
     3
  9
$SHADEDIF
 70
    70
  9
$TILEMODE
 70
     1
  9
$MAXACTVP
 70
    64
  9
$PLIMCHECK
 70
     0
  9
$PEXTMIN
 10
1.0000000000000000E+20
 20
1.0000000000000000E+20
 30
1.0000000000000000E+20
  9
$PEXTMAX
 10
-1.0000000000000000E+20
 20
-1.0000000000000000E+20
 30
-1.0000000000000000E+20
  9
$PLIMMIN
 10
0.0
 20
0.0
  9
$PLIMMAX
 10
12.0
 20
9.0
  9
$UNITMODE
 70
     0
  9
$VISRETAIN
 70
     1
  9
$PLINEGEN
 70
     0
  9
$PSLTSCALE
 70
     1
  0
ENDSEC
  0
SECTION
  2
TABLES
  0
TABLE
  2
VPORT
 70
     1
  0
VPORT
  2
*ACTIVE
 70
     0
 10
0.0
 20
0.0
 11
1.0
 21
1.0
 12
152.7680025706976892
 22
23.4299140957377787
 13
0.0
 23
0.0
 14
1.0
 24
1.0
 15
0.0
 25
0.0
 16
0.0
 26
0.0
 36
202.37134017897489
 17
4161.556396484375
 27
226.1108322143554972
 37
0.0
 40
46.7839814293101099
 41
2.3461538461538458
 42
50.0
 43
0.0
 44
0.0
 50
0.0
 51
0.0
 71
     0
 72
   100
 73
     1
 74
     1
 75
     0
 76
     0
 77
     0
 78
     0
  0
ENDTAB
  0
TABLE
  2
LTYPE
 70
     2
  0
LTYPE
  2
CONTINUOUS
 70
     0
  3
Solid line
 72
    65
 73
     0
 40
0.0
  0
LTYPE
  2
PHANTOM2
 70
     0
  3
___ _ _ ___ _ _ ___ _ _ ___ _ _
 72
    65
 73
     6
 40
1.25
 49
0.625
 49
-0.125
 49
0.125
 49
-0.125
 49
0.125
 49
-0.125
  0
ENDTAB
  0
TABLE
  2
LAYER
 70
     2
  0
LAYER
  2
0
 70
     0
 62
   255
  6
CONTINUOUS
  0
LAYER
  2
DEFPOINTS
 70
     0
 62
     7
  6
CONTINUOUS
  0
ENDTAB
  0
TABLE
  2
STYLE
 70
     1
  0
STYLE
  2
STANDARD
 70
     0
 40
0.0
 41
0.8
 50
0.0
 71
     0
 42
0.2
  3
txt
  4

  0
ENDTAB
  0
TABLE
  2
VIEW
 70
     0
  0
ENDTAB
  0
TABLE
  2
UCS
 70
     0
  0
ENDTAB
  0
TABLE
  2
APPID
 70
    10
  0
APPID
  2
ACAD
 70
     0
  0
APPID
  2
ACAD_MLEADERVER
 70
     0
  0
APPID
  2
ACAD_EXEMPT_FROM_CAD_STANDARDS
 70
     0
  0
APPID
  2
ACAD_NAV_VCDISPLAY
 70
     0
  0
APPID
  2
ACAECLAYERSTANDARD
 70
     0
  0
APPID
  2
ACCMTRANSPARENCY
 70
     0
  0
APPID
  2
ACAD_DSTYLE_DIMJAG
 70
     0
  0
APPID
  2
ACAD_DSTYLE_DIMTALN
 70
     0
  0
APPID
  2
ACDBATTR
 70
     0
  0
APPID
  2
DCO15
 70
     0
  0
ENDTAB
  0
TABLE
  2
DIMSTYLE
 70
     1
  0
DIMSTYLE
  2
STANDARD
 70
     0
  3

  4

  5

  6

  7

 40
1.0
 41
0.1875
 42
0.0625
 43
0.38
 44
0.125
 45
0.0
 46
0.0
 47
0.01
 48
0.01
140
0.15625
141
0.09
142
0.0
143
25.3999999999999986
144
1.0
145
0.0
146
1.0
147
0.09
 71
     1
 72
     0
 73
     1
 74
     1
 75
     0
 76
     0
 77
     0
 78
     4
170
     0
171
     2
172
     0
173
     0
174
     0
175
     0
176
     0
177
     0
178
     0
  0
ENDTAB
  0
ENDSEC
  0
SECTION
  2
BLOCKS
  0
BLOCK
  8
0
  2
$MODEL_SPACE
 70
     0
 10
0.0
 20
0.0
 30
0.0
  3
$MODEL_SPACE
  1

  0
ENDBLK
  5
21
  8
0
  0
BLOCK
 67
     1
  8
0
  2
$PAPER_SPACE
 70
     0
 10
0.0
 20
0.0
 30
0.0
  3
$PAPER_SPACE
  1

  0
ENDBLK
  5
1D
 67
     1
  8
0
  0
ENDSEC
  0
SECTION
  2
ENTITIES
  0
ATTDEF
  5
12CA7
  8
DEFPOINTS
 10
4306.1078030330781985
 20
226.3580923152244111
 30
0.0
 40
0.001
  1
K-8423A
  3

  2
MODELNUMBER
 70
     0
1001
ACDBATTR
1070
     0
1070
     1
  0
ATTDEF
  5
12CA8
  8
DEFPOINTS
 10
4306.1078030330781985
 20
226.3564256485576891
 30
0.0
 40
0.001
  1
VEIL
  3

  2
TRADENAME
 70
     0
1001
ACDBATTR
1070
     0
1070
     1
  0
ATTDEF
  5
12CA9
  8
DEFPOINTS
 10
4306.1078030330781985
 20
226.3547589818909955
 30
0.0
 40
0.001
  1
TOILET
  3

  2
PRODUCT
 70
     0
1001
ACDBATTR
1070
     0
1070
     1
  0
LINE
  5
134D0
  8
0
 10
4301.2207934116186152
 20
226.3547582719085085
 30
0.0
 11
4310.9948130152315571
 21
226.3547582719085085
 31
0.0
  0
LINE
  5
134D1
  8
0
 10
4298.0576438177413365
 20
241.9846768478583954
 30
0.0
 11
4314.1579626091388491
 21
241.9846768478583954
 31
0.0
  0
LINE
  5
134D2
  8
0
 10
4298.031499008735409
 20
242.0634157386585059
 30
0.0
 11
4314.1841074181438671
 21
242.0634157386585059
 31
0.0
  0
LINE
  5
134D3
  8
0
 10
4331.1078036921771854
 20
261.318717144958498
 30
0.0
 11
4331.1078036921771854
 21
258.2978105387485925
 31
0.0
  0
LINE
  5
134D4
  8
0
 10
4310.2219769546773023
 20
272.7308764261584884
 30
0.0
 11
4301.9936305051778618
 21
272.7308764261584884
 31
0.0
  0
LINE
  5
134D5
  8
0
 10
4310.2219769617768179
 20
266.8253646151584917
 30
0.0
 11
4301.9936287236769203
 21
266.8253646151584917
 31
0.0
  0
LINE
  5
134D6
  8
0
 10
4301.875520268676155
 20
272.6132712139594787
 30
0.0
 11
4301.875520268676155
 21
270.3328191686368882
 31
0.0
  0
LINE
  5
134D7
  8
0
 10
4301.875520268676155
 20
270.163906802351903
 30
0.0
 11
4301.875520268676155
 21
267.9749115885584843
 31
0.0
  0
LINE
  5
134D8
  8
0
 10
4301.875520268676155
 20
267.8060879777136734
 30
0.0
 11
4301.875520268676155
 21
266.9434748451456016
 31
0.0
  0
ARC
  5
134D9
  8
0
 10
4298.6740989101781452
 20
244.2380429122815997
 30
0.0
 40
1.187163694168446
 50
165.4004961526923125
 51
194.5995038473076022
  0
LINE
  5
134DA
  8
0
 10
4297.5252671251773791
 20
243.9388052700585092
 30
0.0
 11
4298.012481833477068
 21
242.0781018550584918
 31
0.0
  0
ARC
  5
134DB
  8
0
 10
4298.0315085421034382
 20
242.0830838915389904
 30
0.0
 40
0.0196681551909627
 50
194.6731548533522016
 51
270.0277719051233021
  0
LINE
  5
134DC
  8
0
 10
4298.0372441128811261
 20
242.0634157386585059
 30
0.0
 11
4298.0576438177413365
 21
241.9846768478583954
 31
0.0
  0
ARC
  5
134DD
  8
0
 10
4298.2781195599445709
 20
241.8075503888879041
 30
0.0
 40
0.1771288159829347
 50
90.2955795861641235
 51
198.3125529445424036
  0
ARC
  5
134DE
  8
0
 10
4225.7364741425608372
 20
219.4688110315512972
 30
0.0
 40
75.7262009807824654
 50
5.2718095256588011
 51
17.1130847345670389
  0
ARC
  5
134DF
  8
0
 10
4301.2207988010532063
 20
226.4335066651804027
 30
0.0
 40
0.0787483934563418
 50
185.0428665002571904
 51
269.9960787538036016
  0
ARC
  5
134E0
  8
0
 10
4299.0508249549811808
 20
244.1453609680972079
 30
0.0
 40
1.575096077794677
 50
151.7079203944508095
 51
165.5921461424850065
  0
ARC
  5
134E1
  8
0
 10
4297.8005806802157167
 20
244.8157827032561897
 30
0.0
 40
0.1564609631134469
 50
101.1152617101971032
 51
150.8880456167460125
  0
ARC
  5
134E2
  8
0
 10
4303.5452771105456122
 20
210.7083119569464031
 30
0.0
 40
34.7442786363870084
 50
98.7613205091474669
 51
99.567554687289757
  0
ARC
  5
134E3
  8
0
 10
4305.435873024391185
 20
199.3026381641047919
 30
0.0
 40
46.3050236015098378
 50
97.062874961652355
 51
98.923709268175358
  0
ARC
  5
134E4
  8
0
 10
4305.9006199046052643
 20
195.3451892014903137
 30
0.0
 40
50.2895936880360779
 50
94.2844637311092839
 51
97.0339573286004935
  0
ARC
  5
134E5
  8
0
 10
4297.8281574821776303
 20
244.8511699414582949
 30
0.0
 40
0.1638934917002747
 50
151.5786479209029096
 51
159.7014607428974955
  0
ARC
  5
134E6
  8
0
 10
4297.8225097249724058
 20
244.8542342257522932
 30
0.0
 40
0.1574679994781274
 50
125.9080534685459014
 51
151.5811544211177875
  0
ARC
  5
134E7
  8
0
 10
4297.8143960372717629
 20
244.865450242596296
 30
0.0
 40
0.1436249175004323
 50
98.7433711010728956
 51
125.9105599687696042
  0
ARC
  5
134E8
  8
0
 10
4307.1710045906729647
 20
184.5041815677599004
 30
0.0
 40
61.225773433698869
 50
97.949915401676293
 51
98.8111408408925769
  0
ARC
  5
134E9
  8
0
 10
4306.5817079736980304
 20
188.746722769437298
 30
0.0
 40
56.9425018176052333
 50
95.8446121933099562
 51
97.9530767036255838
  0
ARC
  5
134EA
  8
0
 10
4299.5059439073902467
 20
243.903349373810812
 30
0.0
 40
2.09089269670296
 50
141.6514874053841027
 51
150.5298934743466077
  0
ARC
  5
134EB
  8
0
 10
4300.1857465894718189
 20
243.3496494279173135
 30
0.0
 40
2.96759442128395
 50
127.4738127725029955
 51
141.4109021792995975
  0
ARC
  5
134EC
  8
0
 10
4301.3590644613223049
 20
241.7810038210301968
 30
0.0
 40
4.9264206508730304
 50
113.6152344653551012
 51
127.2042209630975975
  0
ARC
  5
134ED
  8
0
 10
4303.1212259745107076
 20
237.6165184941916095
 30
0.0
 40
9.4482177787547226
 50
101.1369402596278064
 51
113.2897627927284958
  0
ARC
  5
134EE
  8
0
 10
4304.8175491160809543
 20
229.4449656233582004
 30
0.0
 40
17.7937471701386087
 50
94.8520017149868551
 51
101.413878863765504
  0
LINE
  5
134EF
  8
0
 10
4300.3597721731002821
 20
241.9846768478583954
 30
0.0
 11
4300.3604593169993677
 21
242.0634157386585059
 31
0.0
  0
LINE
  5
134F0
  8
0
 10
4301.506890001276588
 20
242.0634221641583963
 30
0.0
 11
4301.5625677005773468
 21
242.0077444647585025
 31
0.0
  0
ARC
  5
134F1
  8
0
 10
4301.6182646020097309
 20
242.0634509021012946
 30
0.0
 40
0.0787740565831133
 50
225.0049044080730027
 51
269.9860335311630024
  0
LINE
  5
134F2
  8
0
 10
4302.962127410377434
 20
242.0634157386585059
 30
0.0
 11
4302.9064561365776171
 21
242.0077444647585025
 31
0.0
  0
ARC
  5
134F3
  8
0
 10
4302.8507592350906634
 20
242.0634509022335976
 30
0.0
 40
0.0787740567154772
 50
270.0139665814471073
 51
314.9950955520757816
  0
ARC
  5
134F4
  8
0
 10
4301.9936312678146351
 20
272.6127643393991775
 30
0.0
 40
0.118112086761741
 50
90.0003699531901589
 51
179.7541160859165927
  0
ARC
  5
134F5
  8
0
 10
4301.9936304985812967
 20
266.9434748451330961
 30
0.0
 40
0.1181102299035892
 50
179.9999999939593067
 51
269.9991389866303848
  0
ARC
  5
134F6
  8
0
 10
4301.9266995312373183
 20
267.9756394001083777
 30
0.0
 40
0.0511844373405584
 50
180.814738573543309
 51
270.8454150901147841
  0
ARC
  5
134F7
  8
0
 10
4301.8335138537258899
 20
286.0392963772088137
 30
0.0
 40
18.1150794228760006
 50
270.2971248735598806
 51
270.6309648844051026
  0
LINE
  5
134F8
  8
0
 10
4301.875520268676155
 20
270.3328191686368882
 30
0.0
 11
4301.8764566397767339
 21
270.3309140208584722
 31
0.0
  0
ARC
  5
134F9
  8
0
 10
4301.8940304275092785
 20
270.3409182056200848
 30
0.0
 40
0.0202218131724241
 50
209.6514494090035043
 51
246.2489991059186991
  0
ARC
  5
134FA
  8
0
 10
4301.8924936118073674
 20
270.3322232932205225
 30
0.0
 40
0.0118313686680735
 50
236.0481275660036999
 51
269.5604816986979131
  0
ARC
  5
134FB
  8
0
 10
4301.5132037141211185
 20
220.6905634451584035
 30
0.0
 40
49.6312774511645216
 50
89.3324611725724367
 51
89.5622373068334667
  0
ARC
  5
134FC
  8
0
 10
4301.5576780333831266
 20
223.4608550241499927
 30
0.0
 40
46.8606573293296265
 50
87.3228719787619241
 51
89.3473730952162555
  0
ARC
  5
134FD
  8
0
 10
4301.9276764964706672
 20
231.142824851973586
 30
0.0
 40
39.1697913131489273
 50
85.2323915068334088
 51
87.3386514610145639
  0
ARC
  5
134FE
  8
0
 10
4303.1355723146871242
 20
244.7653413543590091
 30
0.0
 40
25.4941152365303303
 50
80.9997353328816843
 51
85.3930551733552363
  0
ARC
  5
134FF
  8
0
 10
4305.269443826628958
 20
258.3014898123157081
 30
0.0
 40
11.7908124521256195
 50
77.0888431674978847
 51
80.9512222664716035
  0
ARC
  5
13500
  8
0
 10
4307.3303755416918648
 20
267.3711271208395033
 30
0.0
 40
2.4900448380775519
 50
68.6594378688874656
 51
76.681738427896434
  0
ARC
  5
13501
  8
0
 10
4307.7770999792155635
 20
268.4969148318480734
 30
0.0
 40
1.2788963161079301
 50
53.4223860160341886
 51
68.9465251660301846
  0
ARC
  5
13502
  8
0
 10
4301.9268111501460226
 20
270.1632196993052162
 30
0.0
 40
0.0512954835482974
 50
89.2706457701939939
 51
179.2325000308374001
  0
LINE
  5
13503
  8
0
 10
4301.9274641051770232
 20
270.2145110268584745
 30
0.0
 11
4302.0330003154776932
 21
270.2135035129584821
 31
0.0
  0
LINE
  5
13504
  8
0
 10
4302.0330005745772723
 20
270.2129680726584979
 30
0.0
 11
4302.0330005745772723
 21
270.2419048799584971
 31
0.0
  0
LINE
  5
13505
  8
0
 10
4302.0330005745772723
 20
270.2419048799584971
 30
0.0
 11
4302.3085911286416376
 21
270.2381888286233789
 31
0.0
  0
LINE
  5
13506
  8
0
 10
4302.3085911286416376
 20
270.2381888286233789
 30
0.0
 11
4302.3085911257776388
 21
270.2093304016585193
 31
0.0
  0
ARC
  5
13507
  8
0
 10
4302.3235797927118256
 20
281.786085765976793
 30
0.0
 40
11.5767650673842901
 50
268.5617129301642194
 51
269.925817999177184
  0
ARC
  5
13508
  8
0
 10
4301.6726101675239988
 20
229.6472433690713899
 30
0.0
 40
40.5676125663260123
 50
88.186187350546362
 51
89.1017213292887647
  0
ARC
  5
13509
  8
0
 10
4301.410435998864159
 20
221.3682984469147073
 30
0.0
 40
48.850707659273759
 50
85.9751783860018435
 51
88.186187350546362
  0
ARC
  5
1350A
  8
0
 10
4302.6879620712734322
 20
240.2049857706209934
 30
0.0
 40
29.9697240486376586
 50
83.7985338120804073
 51
84.7557589436207621
  0
ARC
  5
1350B
  8
0
 10
4305.9218214152651854
 20
269.9660737180939805
 30
0.0
 40
0.0334550413958706
 50
0.0194795746591674
 51
83.798529389191259
  0
LINE
  5
1350C
  8
0
 10
4304.8392002818773108
 20
270.0985274049584746
 30
0.0
 11
4304.8675146621772001
 21
270.1018458917583871
 31
0.0
  0
LINE
  5
1350D
  8
0
 10
4304.8675146621772001
 20
270.1018458917583871
 30
0.0
 11
4304.8675146976784163
 21
270.1734262550584731
 31
0.0
  0
LINE
  5
1350E
  8
0
 10
4304.8675146976784163
 20
270.1734262550584731
 30
0.0
 11
4305.4597622511773807
 21
270.1246304517583781
 31
0.0
  0
LINE
  5
1350F
  8
0
 10
4305.4597622511773807
 20
270.1246304517583781
 30
0.0
 11
4305.4607533161733954
 21
270.0461651753244041
 31
0.0
  0
LINE
  5
13510
  8
0
 10
4305.427240623020225
 20
270.0492601388717162
 30
0.0
 11
4305.458412583977406
 21
270.0530055474584969
 31
0.0
  0
ARC
  5
13511
  8
0
 10
4302.3772543281593244
 20
236.374349774952293
 30
0.0
 40
33.8193050023260966
 50
84.77273402326297
 51
85.7772444096880662
  0
LINE
  5
13512
  8
0
 10
4305.4584126563768223
 20
270.0530063095583841
 30
0.0
 11
4305.4584130874345647
 21
270.1247416105604771
 31
0.0
  0
LINE
  5
13513
  8
0
 10
4305.9552764547270272
 20
269.9660850922296049
 30
0.0
 11
4305.9552764547270272
 21
268.1728220541208998
 31
0.0
  0
LINE
  5
13514
  8
0
 10
4308.7214405091090157
 20
269.1341778360114745
 30
0.0
 11
4308.7214405091090157
 21
269.0047293103390871
 31
0.0
  0
LINE
  5
13515
  8
0
 10
4306.0843722316767526
 20
269.9152624468584918
 30
0.0
 11
4306.0843721482760884
 21
268.2236473510585029
 31
0.0
  0
LINE
  5
13516
  8
0
 10
4306.0843722210329361
 20
269.6993748332585028
 30
0.0
 11
4306.0803522780770436
 21
269.6993748332585028
 31
0.0
  0
LINE
  5
13517
  8
0
 10
4306.0803522780770436
 20
269.6993748332585028
 30
0.0
 11
4306.0258692391771547
 21
269.6993752546584915
 31
0.0
  0
LINE
  5
13518
  8
0
 10
4306.0258692391771547
 20
269.6993752546584915
 30
0.0
 11
4306.025866797677736
 21
269.4002199901585186
 31
0.0
  0
LINE
  5
13519
  8
0
 10
4306.025866797677736
 20
269.4002199901585186
 30
0.0
 11
4306.0803522778769548
 21
269.4002200243584753
 31
0.0
  0
LINE
  5
1351A
  8
0
 10
4306.0843722055024045
 20
269.3843314193308061
 30
0.0
 11
4306.0803522778769548
 21
269.3891554954585104
 31
0.0
  0
LINE
  5
1351B
  8
0
 10
4306.0803522778769548
 20
269.3891554954585104
 30
0.0
 11
4306.0803522778769548
 21
269.6993748332585028
 31
0.0
  0
ARC
  5
1351C
  8
0
 10
4306.1434274743678543
 20
269.9152600841284197
 30
0.0
 40
0.0590552427374964
 50
83.2113862441105567
 51
179.9977076639011102
  0
ARC
  5
1351D
  8
0
 10
4303.7772181468717463
 20
249.4266007501026934
 30
0.0
 40
20.6838968899525
 50
80.50165085097575
 51
83.411594980146063
  0
LINE
  5
1351E
  8
0
 10
4307.190458019577818
 20
269.8269287897584832
 30
0.0
 11
4307.1904581363778561
 21
269.8307453972585108
 31
0.0
  0
ARC
  5
1351F
  8
0
 10
4305.0335469262272454
 20
256.9587709012143932
 30
0.0
 40
13.0514364494977002
 50
79.0825429997494354
 51
80.4875240774114644
  0
LINE
  5
13520
  8
0
 10
4307.5054187662772165
 20
269.7739900956585188
 30
0.0
 11
4307.5054186507768463
 21
269.7701602758584727
 31
0.0
  0
ARC
  5
13521
  8
0
 10
4306.077659506033342
 20
262.0851357429020254
 30
0.0
 40
7.8165272498435092
 50
77.0494032880687314
 51
79.4753218022986516
  0
ARC
  5
13522
  8
0
 10
4307.0655982120406406
 20
266.4242738598351821
 30
0.0
 40
3.366366941755726
 50
73.5602747354417232
 51
76.8853528892094289
  0
ARC
  5
13523
  8
0
 10
4307.6413982104468232
 20
268.2664374994789114
 30
0.0
 40
1.4368921366664671
 50
53.8179900115080088
 51
74.7931318776860508
  0
LINE
  5
13524
  8
0
 10
4308.4896707380776206
 20
269.4262188285584898
 30
0.0
 11
4308.4896707313773732
 21
269.5006056296584802
 31
0.0
  0
ARC
  5
13525
  8
0
 10
4308.0888323960152775
 20
268.9237282013177719
 30
0.0
 40
0.7024663254736065
 50
32.6705904461188723
 51
55.2068263280073097
  0
ARC
  5
13526
  8
0
 10
4308.2847863376237001
 20
269.0561526843785032
 30
0.0
 40
0.4660656233457808
 50
9.6336980472365532
 51
31.9703633029050884
  0
LINE
  5
13527
  8
0
 10
4308.6883080053767117
 20
269.1341481248584842
 30
0.0
 11
4308.7442794023481838
 21
269.1341481248584842
 31
0.0
  0
ARC
  5
13528
  8
0
 10
4308.0901562962926619
 20
268.920347259191999
 30
0.0
 40
0.648658703033653
 50
35.7070784180371419
 51
51.9820325665909806
  0
ARC
  5
13529
  8
0
 10
4308.2737684223611723
 20
269.05232035577842
 30
0.0
 40
0.4225385777414499
 50
11.1663097612380806
 51
35.7070784180378027
  0
ARC
  5
1352A
  8
0
 10
4296.672334228784166
 20
267.0421266025372802
 30
0.0
 40
12.1970311019148507
 50
9.8230247206526364
 51
9.8761436437608481
  0
LINE
  5
1352B
  8
0
 10
4308.6905497683774229
 20
269.1230069318585265
 30
0.0
 11
4308.6868253970769729
 21
269.1176454861584944
 31
0.0
  0
LINE
  5
1352C
  8
0
 10
4301.875520268676155
 20
267.8060879777136734
 30
0.0
 11
4301.8764566397767339
 21
267.8079931254920893
 31
0.0
  0
ARC
  5
1352D
  8
0
 10
4301.8940304275092785
 20
267.7979889407304768
 30
0.0
 40
0.0202218131724241
 50
113.7510008940813009
 51
150.3485505909964957
  0
ARC
  5
1352E
  8
0
 10
4301.8924936118073674
 20
267.8066838531299823
 30
0.0
 40
0.0118313686680735
 50
90.4395183013021153
 51
123.9518724339963001
  0
ARC
  5
1352F
  8
0
 10
4301.5132037141211185
 20
317.4483437011920728
 30
0.0
 40
49.6312774511645216
 50
270.4377626931665759
 51
270.6675388274276202
  0
ARC
  5
13530
  8
0
 10
4301.5576780333831266
 20
314.6780521222005973
 30
0.0
 40
46.8606573293296265
 50
270.6526269047836877
 51
272.6771280212381043
  0
ARC
  5
13531
  8
0
 10
4301.9276764964706672
 20
306.996082294377004
 30
0.0
 40
39.1697913131489273
 50
272.6613485389854077
 51
274.7676084931666196
  0
ARC
  5
13532
  8
0
 10
4303.1355723146871242
 20
293.3735657919916093
 30
0.0
 40
25.4941152365303303
 50
274.6069448266447921
 51
279.0002646671183015
  0
ARC
  5
13533
  8
0
 10
4305.269443826628958
 20
279.8374173340349103
 30
0.0
 40
11.7908124521256195
 50
279.048777733528425
 51
282.9111568325021153
  0
ARC
  5
13534
  8
0
 10
4307.3303755416918648
 20
270.7677800255111151
 30
0.0
 40
2.4900448380775519
 50
283.3182615721034949
 51
291.340562131112506
  0
ARC
  5
13535
  8
0
 10
4307.7770999792155635
 20
269.6419923145023745
 30
0.0
 40
1.2788963161079301
 50
291.0534748339699149
 51
306.5776139839658185
  0
LINE
  5
13536
  8
0
 10
4302.0330005745772723
 20
267.9259390736921205
 30
0.0
 11
4302.0330005745772723
 21
267.8970022663921213
 31
0.0
  0
LINE
  5
13537
  8
0
 10
4302.0330005745772723
 20
267.8970022663921213
 30
0.0
 11
4302.3085911286416376
 21
267.9007183177271259
 31
0.0
  0
LINE
  5
13538
  8
0
 10
4302.3085911286416376
 20
267.9007183177271259
 30
0.0
 11
4302.3085911257776388
 21
267.9295767446920991
 31
0.0
  0
ARC
  5
13539
  8
0
 10
4302.3235797927118256
 20
256.3528213803738254
 30
0.0
 40
11.5767650673842901
 50
90.074182000822816
 51
91.438287069835809
  0
ARC
  5
1353A
  8
0
 10
4301.6726101675239988
 20
308.4916637772792001
 30
0.0
 40
40.5676125663260123
 50
270.8982786707111927
 51
271.8138126494537232
  0
ARC
  5
1353B
  8
0
 10
4301.410435998864159
 20
316.7706086994359111
 30
0.0
 40
48.850707659273759
 50
271.8138126494537232
 51
274.0248216139980855
  0
ARC
  5
1353C
  8
0
 10
4302.6879620712734322
 20
297.9339213757295965
 30
0.0
 40
29.9697240486376586
 50
275.2442410563792805
 51
276.2014661879196069
  0
ARC
  5
1353D
  8
0
 10
4305.9218214152651854
 20
268.1728334282565811
 30
0.0
 40
0.0334550413958706
 50
276.2014706108088262
 51
359.9805204253407851
  0
LINE
  5
1353E
  8
0
 10
4304.8392002818773108
 20
268.0403797413922007
 30
0.0
 11
4304.8675146621772001
 21
268.0370612545921176
 31
0.0
  0
LINE
  5
1353F
  8
0
 10
4304.8675146621772001
 20
268.0370612545921176
 30
0.0
 11
4304.8675146976784163
 21
267.9654808912920885
 31
0.0
  0
LINE
  5
13540
  8
0
 10
4304.8675146976784163
 20
267.9654808912920885
 30
0.0
 11
4305.4597622511773807
 21
268.0142766945921267
 31
0.0
  0
LINE
  5
13541
  8
0
 10
4305.4597622511773807
 20
268.0142766945921267
 30
0.0
 11
4305.4607533161733954
 21
268.0927419710262143
 31
0.0
  0
LINE
  5
13542
  8
0
 10
4305.427240623020225
 20
268.0896470074789022
 30
0.0
 11
4305.458412583977406
 21
268.0859015988921215
 31
0.0
  0
ARC
  5
13543
  8
0
 10
4302.3772543281593244
 20
301.7645573713983254
 30
0.0
 40
33.8193050023260966
 50
274.2227555903119196
 51
275.227265976737101
  0
LINE
  5
13544
  8
0
 10
4305.4584126563768223
 20
268.0859008367921206
 30
0.0
 11
4305.4584130874345647
 21
268.0141655357900845
 31
0.0
  0
LINE
  5
13545
  8
0
 10
4306.0843722210329361
 20
268.4395323130921156
 30
0.0
 11
4306.0803522780770436
 21
268.4395323130921156
 31
0.0
  0
LINE
  5
13546
  8
0
 10
4306.0803522780770436
 20
268.4395323130921156
 30
0.0
 11
4306.0258692391771547
 21
268.4395318916921269
 31
0.0
  0
LINE
  5
13547
  8
0
 10
4306.0258692391771547
 20
268.4395318916921269
 30
0.0
 11
4306.025866797677736
 21
268.7386871561920998
 31
0.0
  0
LINE
  5
13548
  8
0
 10
4306.025866797677736
 20
268.7386871561920998
 30
0.0
 11
4306.0803522778769548
 21
268.7386871219922
 31
0.0
  0
LINE
  5
13549
  8
0
 10
4306.0843722055024045
 20
268.754575727019926
 30
0.0
 11
4306.0803522778769548
 21
268.749751650892108
 31
0.0
  0
LINE
  5
1354A
  8
0
 10
4306.0803522778769548
 20
268.749751650892108
 30
0.0
 11
4306.0803522778769548
 21
268.4395323130921156
 31
0.0
  0
ARC
  5
1354B
  8
0
 10
4306.1434275150486428
 20
268.2236471919758856
 30
0.0
 40
0.0590553667725946
 50
179.9998456573954115
 51
276.7885596819008924
  0
ARC
  5
1354C
  8
0
 10
4303.7772181468717463
 20
288.7123063962478113
 30
0.0
 40
20.6838968899525
 50
276.5884050198538944
 51
279.4983491490241931
  0
LINE
  5
1354D
  8
0
 10
4307.190458019577818
 20
268.3119783565920784
 30
0.0
 11
4307.1904581363778561
 21
268.3081617490921076
 31
0.0
  0
ARC
  5
1354E
  8
0
 10
4305.0335469262272454
 20
281.1801362451362252
 30
0.0
 40
13.0514364494977002
 50
279.5124759225885214
 51
280.9174570002505789
  0
LINE
  5
1354F
  8
0
 10
4307.5054187662772165
 20
268.3649170506920996
 30
0.0
 11
4307.5054186507768463
 21
268.3687468704920889
 31
0.0
  0
ARC
  5
13550
  8
0
 10
4306.077659506033342
 20
276.053771403448593
 30
0.0
 40
7.8165272498435092
 50
280.5246781977014052
 51
282.9505967119313254
  0
ARC
  5
13551
  8
0
 10
4307.0655982120406406
 20
271.7146332865153227
 30
0.0
 40
3.366366941755726
 50
283.1146471107904858
 51
286.4397252645582057
  0
ARC
  5
13552
  8
0
 10
4307.6413982104468232
 20
269.8724696468715933
 30
0.0
 40
1.4368921366664671
 50
285.2068681223140061
 51
306.1820099884919841
  0
LINE
  5
13553
  8
0
 10
4308.4896707380776206
 20
268.7126883177920718
 30
0.0
 11
4308.4896707313773732
 21
268.6383015166920813
 31
0.0
  0
ARC
  5
13554
  8
0
 10
4308.0888323960152775
 20
269.2151789450327897
 30
0.0
 40
0.7024663254736065
 50
304.7931736719926903
 51
327.329409553881078
  0
ARC
  5
13555
  8
0
 10
4308.2847863376237001
 20
269.0827544619720015
 30
0.0
 40
0.4660656233457808
 50
328.0296366970948725
 51
350.3663019527634219
  0
LINE
  5
13556
  8
0
 10
4308.6883080053767117
 20
269.0047590214920774
 30
0.0
 11
4308.7442794023481838
 21
269.0047590214920774
 31
0.0
  0
ARC
  5
13557
  8
0
 10
4308.0901562962926619
 20
269.2185598871585057
 30
0.0
 40
0.648658703033653
 50
308.0179674334090123
 51
324.2929215819629007
  0
ARC
  5
13558
  8
0
 10
4308.2737684223611723
 20
269.0865867905721984
 30
0.0
 40
0.4225385777414499
 50
324.2929215819622186
 51
348.8336902387619034
  0
ARC
  5
13559
  8
0
 10
4296.672334228784166
 20
271.0967805438132245
 30
0.0
 40
12.1970311019148507
 50
350.1238563562383206
 51
350.1769752793474026
  0
LINE
  5
1355A
  8
0
 10
4308.6905497683774229
 20
269.0159002144920919
 30
0.0
 11
4308.6868253970769729
 21
269.0212616601921241
 31
0.0
  0
ARC
  5
1355B
  8
0
 10
4308.354088503739149
 20
269.0694535731752808
 30
0.0
 40
0.3362087159283933
 50
351.7588780152706818
 51
8.241121984729304
  0
ARC
  5
1355C
  8
0
 10
4308.0347432835369546
 20
268.8603351920100977
 30
0.0
 40
0.8335749838273073
 50
40.7978583547147622
 51
52.7579992570495122
  0
ARC
  5
1355D
  8
0
 10
4308.0347432835369546
 20
269.2785719543405207
 30
0.0
 40
0.8335749838273073
 50
307.2420007429504949
 51
319.2021416452852236
  0
ARC
  5
1355E
  8
0
 10
4308.3070180570466619
 20
269.0694535731752808
 30
0.0
 40
0.491212345665474
 50
316.9158787073740768
 51
43.0841212926259232
  0
ARC
  5
1355F
  8
0
 10
4310.2219751955381071
 20
272.612764427833099
 30
0.0
 40
0.118111998438378
 50
0.0000000171947402
 51
89.9991481509921556
  0
ARC
  5
13560
  8
0
 10
4310.2219751956581604
 20
266.9434766134422716
 30
0.0
 40
0.1181119983312182
 50
270.0008567386649929
 51
359.9991472557713905
  0
LINE
  5
13561
  8
0
 10
4310.3400871939766148
 20
272.6127644278686262
 30
0.0
 11
4310.3400871939766148
 21
266.9434748555584065
 31
0.0
  0
ARC
  5
13562
  8
0
 10
4303.4237453037139858
 20
1234.9676525527040667
 30
0.0
 40
991.4019303721703409
 50
269.7844818591827902
 51
269.9698011793498722
  0
ARC
  5
13563
  8
0
 10
4299.6640750965752886
 20
268.3736850937698932
 30
0.0
 40
24.8009680809092501
 50
267.4102421039547721
 51
270.0705068726405784
  0
ARC
  5
13564
  8
0
 10
4298.651773571564263
 20
246.2904970857161118
 30
0.0
 40
2.6946277791883309
 50
258.7282555516334241
 51
267.6962671174263733
  0
ARC
  5
13565
  8
0
 10
4298.2202775366322385
 20
244.2526658198063956
 30
0.0
 40
0.6122672219050723
 50
212.9135295018782017
 51
261.0546618298794215
  0
ARC
  5
13566
  8
0
 10
4298.5661967977466702
 20
244.3586407218444947
 30
0.0
 40
0.9653370791164599
 50
184.3787239094824031
 51
207.0273369582452005
  0
ARC
  5
13567
  8
0
 10
4298.8365144479603259
 20
244.3470669555437951
 30
0.0
 40
1.23440156070558
 50
149.7294543684940038
 51
182.8849670538452017
  0
ARC
  5
13568
  8
0
 10
4330.1499087513666382
 20
261.3481335141972863
 30
0.0
 40
0.0078888087618014
 50
80.2950439555225586
 51
171.2183477339503952
  0
LINE
  5
13569
  8
0
 10
4329.7538732505763619
 20
258.8480469346583845
 30
0.0
 11
4330.1421124205771775
 21
261.3493378936585145
 31
0.0
  0
LINE
  5
1356A
  8
0
 10
4330.1512386044778395
 20
261.3559094253585044
 30
0.0
 11
4330.3900562637772964
 21
261.3145609354584735
 31
0.0
  0
ARC
  5
1356B
  8
0
 10
4330.3887129785089201
 20
261.3068024842002046
 30
0.0
 40
0.0078738796814748
 50
41.5048631650088211
 51
80.1772835559119272
  0
LINE
  5
1356C
  8
0
 10
4330.3946097228772487
 20
261.3120203752584985
 30
0.0
 11
4330.4137731490300212
 21
261.2903521899692123
 31
0.0
  0
ARC
  5
1356D
  8
0
 10
4329.7617499908283207
 20
258.8464390574353047
 30
0.0
 40
0.0080391732253525
 50
168.4627312522081013
 51
261.6773665621627742
  0
LINE
  5
1356E
  8
0
 10
4329.7605863439775931
 20
258.8384845472584743
 30
0.0
 11
4330.0007022554773357
 21
258.8054955910585022
 31
0.0
  0
ARC
  5
1356F
  8
0
 10
4330.0017707527749735
 20
258.813391288936316
 30
0.0
 40
0.0079676678805429
 50
262.2931797921128805
 51
300.4487181010721883
  0
LINE
  5
13570
  8
0
 10
4330.0058085036771445
 20
258.806522497258527
 30
0.0
 11
4330.0230599956739752
 21
258.8168328790459896
 31
0.0
  0
LINE
  5
13571
  8
0
 10
4330.3946097228772487
 20
261.3120203752584985
 30
0.0
 11
4330.0058083117774004
 21
258.806534625758502
 31
0.0
  0
LINE
  5
13572
  8
0
 10
4329.9445164734570426
 20
258.3195910603766947
 30
0.0
 11
4330.4161695197271911
 21
261.3055230874595054
 31
0.0
  0
ARC
  5
13573
  8
0
 10
4330.4230983662419021
 20
261.301771188973305
 30
0.0
 40
0.0078794451760736
 50
90.6722154308684338
 51
151.5649147307426006
  0
LINE
  5
13574
  8
0
 10
4330.4230059237770547
 20
261.3096500918584866
 30
0.0
 11
4331.0211895188767812
 21
261.3200916300585277
 31
0.0
  0
LINE
  5
13575
  8
0
 10
4331.0211895188767812
 20
261.3200916300585277
 30
0.0
 11
4331.0211895188767812
 21
258.2959474371548936
 31
0.0
  0
LINE
  5
13576
  8
0
 10
4329.9489250355773038
 20
258.3146029269585142
 30
0.0
 11
4331.0211895188767812
 21
258.2959474371548936
 31
0.0
  0
ARC
  5
13577
  8
0
 10
4329.9489790375728262
 20
258.3190928867808225
 30
0.0
 40
0.004490284559151
 50
173.630219619999508
 51
269.3109209429773045
  0
LINE
  5
13578
  8
0
 10
4331.1078036921771854
 20
261.318717144958498
 30
0.0
 11
4331.0290635346773342
 21
261.3200916300585277
 31
0.0
  0
LINE
  5
13579
  8
0
 10
4331.0290635346773342
 20
261.3200916300585277
 30
0.0
 11
4331.0290635346773342
 21
258.2958849630584837
 31
0.0
  0
LINE
  5
1357A
  8
0
 10
4331.0290635346773342
 20
258.2958849630584837
 30
0.0
 11
4331.1078036921771854
 21
258.2978105387485925
 31
0.0
  0
LINE
  5
1357B
  8
0
 10
4331.0211895188767812
 20
258.2963006362894021
 30
0.0
 11
4331.0290635346773342
 21
258.2964437979258037
 31
0.0
  0
LINE
  5
1357C
  8
0
 10
4331.0211895188767812
 20
261.3141858436584926
 30
0.0
 11
4331.0290635346773342
 21
261.3140483965584053
 31
0.0
  0
ARC
  5
1357D
  8
0
 10
4313.541507516701131
 20
244.2380429122815997
 30
0.0
 40
1.187163694168446
 50
345.4004961526924262
 51
14.5995038473076608
  0
LINE
  5
1357E
  8
0
 10
4314.6903393017009876
 20
243.9388052700585092
 30
0.0
 11
4314.2031245934022081
 21
242.0781018550584918
 31
0.0
  0
ARC
  5
1357F
  8
0
 10
4314.1840978847758379
 20
242.0830838915389904
 30
0.0
 40
0.0196681551909614
 50
270.0277718841228989
 51
345.3268451466493048
  0
LINE
  5
13580
  8
0
 10
4314.1783623139981501
 20
242.0634157386585059
 30
0.0
 11
4314.1579626091388491
 21
241.9846768478583954
 31
0.0
  0
ARC
  5
13581
  8
0
 10
4313.9374868669328862
 20
241.8075503888879041
 30
0.0
 40
0.1771288159829347
 50
341.6874470554574827
 51
89.7044204138359049
  0
ARC
  5
13582
  8
0
 10
4386.4791322843184389
 20
219.4688110315512972
 30
0.0
 40
75.7262009807824654
 50
162.88691526543289
 51
174.7281904743412042
  0
ARC
  5
13583
  8
0
 10
4310.9948076258260699
 20
226.4335066651804027
 30
0.0
 40
0.0787483934563418
 50
270.0039212461962848
 51
354.9571334997427243
  0
ARC
  5
13584
  8
0
 10
4313.1647814718990048
 20
244.1453609680972079
 30
0.0
 40
1.575096077794677
 50
14.4078538575150308
 51
28.2920796055491799
  0
ARC
  5
13585
  8
0
 10
4314.4150257466635594
 20
244.8157827032561897
 30
0.0
 40
0.1564609631134469
 50
29.1119543832539911
 51
78.884738289802911
  0
ARC
  5
13586
  8
0
 10
4308.6703293163327544
 20
210.7083119569464031
 30
0.0
 40
34.7442786363870084
 50
80.4324453127102572
 51
81.2386794908525758
  0
ARC
  5
13587
  8
0
 10
4306.7797334024880911
 20
199.3026381641047919
 30
0.0
 40
46.3050236015098378
 50
81.0762907318246562
 51
82.9371250383476593
  0
ARC
  5
13588
  8
0
 10
4306.3149865222740118
 20
195.3451892014903137
 30
0.0
 40
50.2895936880360779
 50
82.9660426713995349
 51
85.7155362688907019
  0
ARC
  5
13589
  8
0
 10
4314.3874489447007363
 20
244.8511699414582949
 30
0.0
 40
0.1638934917002747
 50
20.2985392571024299
 51
28.421352079097101
  0
ARC
  5
1358A
  8
0
 10
4314.3930967019077798
 20
244.8542342257522932
 30
0.0
 40
0.1574679994781274
 50
28.4188455788821912
 51
54.0919465314540915
  0
ARC
  5
1358B
  8
0
 10
4314.4012103896066037
 20
244.865450242596296
 30
0.0
 40
0.1436249175004323
 50
54.08944003123041
 51
81.2566288989271186
  0
ARC
  5
1358C
  8
0
 10
4305.0446018362072209
 20
184.5041815677599004
 30
0.0
 40
61.225773433698869
 50
81.1888591591074231
 51
82.0500845983236786
  0
ARC
  5
1358D
  8
0
 10
4305.6338984531803362
 20
188.746722769437298
 30
0.0
 40
56.9425018176052333
 50
82.0469232963744446
 51
84.1553878066900438
  0
ARC
  5
1358E
  8
0
 10
4312.7096625194881199
 20
243.903349373810812
 30
0.0
 40
2.09089269670296
 50
29.47010652565341
 51
38.3485125946158973
  0
ARC
  5
1358F
  8
0
 10
4312.0298598374083667
 20
243.3496494279173135
 30
0.0
 40
2.96759442128395
 50
38.5890978207004309
 51
52.5261872274970116
  0
ARC
  5
13590
  8
0
 10
4310.8565419655578808
 20
241.7810038210301968
 30
0.0
 40
4.9264206508730304
 50
52.7957790369024167
 51
66.384765534644913
  0
ARC
  5
13591
  8
0
 10
4309.0943804523685685
 20
237.6165184941916095
 30
0.0
 40
9.4482177787547226
 50
66.7102372072714758
 51
78.863059740372222
  0
ARC
  5
13592
  8
0
 10
4307.3980573107974124
 20
229.4449656233582004
 30
0.0
 40
17.7937471701386087
 50
78.5861211362345102
 51
85.1479982850131449
  0
LINE
  5
13593
  8
0
 10
4311.855834253778994
 20
241.9846768478583954
 30
0.0
 11
4311.8551471098799084
 21
242.0634157386585059
 31
0.0
  0
LINE
  5
13594
  8
0
 10
4310.7087164256017786
 20
242.0634221641583963
 30
0.0
 11
4310.6530387263019293
 21
242.0077444647585025
 31
0.0
  0
ARC
  5
13595
  8
0
 10
4310.5973418248686357
 20
242.0634509021012946
 30
0.0
 40
0.0787740565831133
 50
270.0139664688369976
 51
314.9950955919269973
  0
LINE
  5
13596
  8
0
 10
4309.2534790165018421
 20
242.0634157386585059
 30
0.0
 11
4309.3091502903007495
 21
242.0077444647585025
 31
0.0
  0
ARC
  5
13597
  8
0
 10
4309.3648471917886127
 20
242.0634509022335976
 30
0.0
 40
0.0787740567154772
 50
225.0049044479241047
 51
269.9860334185528927
  0
ARC
  5
13598
  8
0
 10
4308.7918611231652903
 20
1234.9676525527040667
 30
0.0
 40
991.4019303721703409
 50
270.0301988206501278
 51
270.2155181408173235
  0
ARC
  5
13599
  8
0
 10
4312.5515313303039875
 20
268.3736850937698932
 30
0.0
 40
24.8009680809092501
 50
269.9294931273594216
 51
272.5897578960452279
  0
ARC
  5
1359A
  8
0
 10
4313.5638328553141037
 20
246.2904970857161118
 30
0.0
 40
2.6946277791883309
 50
272.3037328825736267
 51
281.2717444483665759
  0
ARC
  5
1359B
  8
0
 10
4313.9953288902461281
 20
244.2526658198063956
 30
0.0
 40
0.6122672219050723
 50
278.9453381701205785
 51
327.0864704981217983
  0
ARC
  5
1359C
  8
0
 10
4313.6494096291307869
 20
244.3586407218444947
 30
0.0
 40
0.9653370791164599
 50
332.9726630417547995
 51
355.6212760905175969
  0
ARC
  5
1359D
  8
0
 10
4313.3790919789189502
 20
244.3470669555437951
 30
0.0
 40
1.23440156070558
 50
357.1150329461548267
 51
30.2705456315059998
  0
ARC
  5
1359E
  8
0
 10
4306.1078032134400928
 20
212.492764533361111
 30
0.0
 40
34.7946483763498691
 50
85.3920777924833345
 51
94.6079222075166655
  0
ARC
  5
1359F
  8
0
 10
4306.1078032134400928
 20
194.0195691338981021
 30
0.0
 40
51.6488485519603131
 50
84.0827292700284943
 51
95.9172707299715057
  0
ARC
  5
135A0
  8
0
 10
4306.1078032134400928
 20
192.449730974628892
 30
0.0
 40
53.1924395534869987
 50
85.725995876111611
 51
94.274004123888389
  0
ARC
  5
135A1
  8
0
 10
4306.1078032136838374
 20
3718.038900478614778
 30
0.0
 40
3474.4745202762569534
 50
269.9471216775745006
 51
270.0528783224254994
  0
ENDSEC
  0
EOF
