  0
SECTION
  2
HEADER
  9
$ACADVER
  1
AC1009
  9
$INSBASE
 10
3577.9824757193077858
 20
159.8656820192466057
 30
0.0
  9
$EXTMIN
 10
3569.9132191336179858
 20
157.3556999893488921
 30
-0.0015258207003583
  9
$EXTMAX
 10
3578.1025919429671376
 20
160.9912556330500024
 30
0.0000000349246037
  9
$LIMMIN
 10
0.0
 20
0.0
  9
$LIMMAX
 10
11.6929133858000007
 20
8.2677165353999982
  9
$ORTHOMODE
 70
     0
  9
$REGENMODE
 70
     1
  9
$FILLMODE
 70
     1
  9
$QTEXTMODE
 70
     0
  9
$MIRRTEXT
 70
     0
  9
$DRAGMODE
 70
     2
  9
$LTSCALE
 40
0.6431102362
  9
$OSMODE
 70
  4095
  9
$ATTMODE
 70
     1
  9
$TEXTSIZE
 40
0.2
  9
$TRACEWID
 40
0.05
  9
$TEXTSTYLE
  7
STANDARD
  9
$CLAYER
  8
0
  9
$CELTYPE
  6
BYLAYER
  9
$CECOLOR
 62
   256
  9
$DIMSCALE
 40
1.0
  9
$DIMASZ
 40
0.1875
  9
$DIMEXO
 40
0.0625
  9
$DIMDLI
 40
0.4443307087
  9
$DIMRND
 40
0.0
  9
$DIMDLE
 40
0.0
  9
$DIMEXE
 40
0.125
  9
$DIMTP
 40
0.01
  9
$DIMTM
 40
0.01
  9
$DIMTXT
 40
2.0
  9
$DIMCEN
 40
0.1052362205
  9
$DIMTSZ
 40
0.0
  9
$DIMTOL
 70
     1
  9
$DIMLIM
 70
     0
  9
$DIMTIH
 70
     1
  9
$DIMTOH
 70
     1
  9
$DIMSE1
 70
     0
  9
$DIMSE2
 70
     0
  9
$DIMTAD
 70
     0
  9
$DIMZIN
 70
     0
  9
$DIMBLK
  1

  9
$DIMASO
 70
     1
  9
$DIMSHO
 70
     1
  9
$DIMPOST
  1
\X
  9
$DIMAPOST
  1

  9
$DIMALT
 70
     1
  9
$DIMALTD
 70
     2
  9
$DIMALTF
 40
25.3999999999999986
  9
$DIMLFAC
 40
1.0
  9
$DIMTOFL
 70
     0
  9
$DIMTVP
 40
0.0
  9
$DIMTIX
 70
     0
  9
$DIMSOXD
 70
     0
  9
$DIMSAH
 70
     0
  9
$DIMBLK1
  1

  9
$DIMBLK2
  1

  9
$DIMSTYLE
  2
STANDARD
  9
$DIMCLRD
 70
     0
  9
$DIMCLRE
 70
     0
  9
$DIMCLRT
 70
     0
  9
$DIMTFAC
 40
1.0
  9
$DIMGAP
 40
0.09
  9
$LUNITS
 70
     2
  9
$LUPREC
 70
     4
  9
$SKETCHINC
 40
0.1
  9
$FILLETRAD
 40
0.0
  9
$AUNITS
 70
     0
  9
$AUPREC
 70
     0
  9
$MENU
  1
.
  9
$ELEVATION
 40
0.0
  9
$PELEVATION
 40
0.0
  9
$THICKNESS
 40
0.0
  9
$LIMCHECK
 70
     0
  9
$BLIPMODE
 70
     0
  9
$CHAMFERA
 40
0.0
  9
$CHAMFERB
 40
0.0
  9
$SKPOLY
 70
     0
  9
$TDCREATE
 40
2458060.468368056230247
  9
$TDUPDATE
 40
2459090.4243981479667127
  9
$TDINDWG
 40
0.5550417824
  9
$TDUSRTIMER
 40
0.5550417824
  9
$USRTIMER
 70
     1
  9
$ANGBASE
 50
0.0
  9
$ANGDIR
 70
     0
  9
$PDMODE
 70
     0
  9
$PDSIZE
 40
0.3125
  9
$PLINEWID
 40
0.0
  9
$COORDS
 70
     1
  9
$SPLFRAME
 70
     0
  9
$SPLINETYPE
 70
     6
  9
$SPLINESEGS
 70
     8
  9
$ATTDIA
 70
     1
  9
$ATTREQ
 70
     1
  9
$HANDLING
 70
     1
  9
$HANDSEED
  5
1009C
  9
$SURFTAB1
 70
     6
  9
$SURFTAB2
 70
     6
  9
$SURFTYPE
 70
     6
  9
$SURFU
 70
     6
  9
$SURFV
 70
     6
  9
$UCSNAME
  2

  9
$UCSORG
 10
0.0
 20
0.0
 30
0.0
  9
$UCSXDIR
 10
1.0
 20
0.0
 30
0.0
  9
$UCSYDIR
 10
0.0
 20
1.0
 30
0.0
  9
$PUCSNAME
  2

  9
$PUCSORG
 10
0.0
 20
0.0
 30
0.0
  9
$PUCSXDIR
 10
1.0
 20
0.0
 30
0.0
  9
$PUCSYDIR
 10
0.0
 20
1.0
 30
0.0
  9
$USERI1
 70
     0
  9
$USERI2
 70
     0
  9
$USERI3
 70
     0
  9
$USERI4
 70
     0
  9
$USERI5
 70
     0
  9
$USERR1
 40
0.0
  9
$USERR2
 40
0.0
  9
$USERR3
 40
0.0
  9
$USERR4
 40
0.0
  9
$USERR5
 40
0.0
  9
$WORLDVIEW
 70
     1
  9
$SHADEDGE
 70
     3
  9
$SHADEDIF
 70
    70
  9
$TILEMODE
 70
     1
  9
$MAXACTVP
 70
    64
  9
$PLIMCHECK
 70
     0
  9
$PEXTMIN
 10
1.0000000000000000E+20
 20
1.0000000000000000E+20
 30
1.0000000000000000E+20
  9
$PEXTMAX
 10
-1.0000000000000000E+20
 20
-1.0000000000000000E+20
 30
-1.0000000000000000E+20
  9
$PLIMMIN
 10
0.0
 20
0.0
  9
$PLIMMAX
 10
12.0
 20
9.0
  9
$UNITMODE
 70
     0
  9
$VISRETAIN
 70
     1
  9
$PLINEGEN
 70
     0
  9
$PSLTSCALE
 70
     1
  0
ENDSEC
  0
SECTION
  2
TABLES
  0
TABLE
  2
VPORT
 70
     1
  0
VPORT
  2
*ACTIVE
 70
     0
 10
0.0
 20
0.0
 11
1.0
 21
1.0
 12
270.3147903039171069
 22
-36.0880337646882765
 13
0.0
 23
0.0
 14
1.0
 24
1.0
 15
0.0
 25
0.0
 16
0.0
 26
0.0
 36
96.5995694866707311
 17
3303.693115234375
 27
195.2615115758877096
 37
0.0
 40
3.6658099209025319
 41
2.6486111111111108
 42
50.0
 43
0.0
 44
0.0
 50
0.0
 51
0.0
 71
     0
 72
   100
 73
     1
 74
     1
 75
     0
 76
     0
 77
     0
 78
     0
  0
ENDTAB
  0
TABLE
  2
LTYPE
 70
     2
  0
LTYPE
  2
CONTINUOUS
 70
     0
  3
Solid line
 72
    65
 73
     0
 40
0.0
  0
LTYPE
  2
PHANTOM2
 70
     0
  3
___ _ _ ___ _ _ ___ _ _ ___ _ _
 72
    65
 73
     6
 40
1.25
 49
0.625
 49
-0.125
 49
0.125
 49
-0.125
 49
0.125
 49
-0.125
  0
ENDTAB
  0
TABLE
  2
LAYER
 70
     2
  0
LAYER
  2
0
 70
     0
 62
   255
  6
CONTINUOUS
  0
LAYER
  2
DEFPOINTS
 70
     0
 62
     7
  6
CONTINUOUS
  0
ENDTAB
  0
TABLE
  2
STYLE
 70
     1
  0
STYLE
  2
STANDARD
 70
     0
 40
0.0
 41
0.8
 50
0.0
 71
     0
 42
0.2
  3
txt
  4

  0
ENDTAB
  0
TABLE
  2
VIEW
 70
     0
  0
ENDTAB
  0
TABLE
  2
UCS
 70
     0
  0
ENDTAB
  0
TABLE
  2
APPID
 70
     9
  0
APPID
  2
ACAD
 70
     0
  0
APPID
  2
ACAD_MLEADERVER
 70
     0
  0
APPID
  2
ACAD_EXEMPT_FROM_CAD_STANDARDS
 70
     0
  0
APPID
  2
ACAD_NAV_VCDISPLAY
 70
     0
  0
APPID
  2
ACAECLAYERSTANDARD
 70
     0
  0
APPID
  2
ACCMTRANSPARENCY
 70
     0
  0
APPID
  2
ACAD_DSTYLE_DIMJAG
 70
     0
  0
APPID
  2
ACAD_DSTYLE_DIMTALN
 70
     0
  0
APPID
  2
ACDBATTR
 70
     0
  0
ENDTAB
  0
TABLE
  2
DIMSTYLE
 70
     1
  0
DIMSTYLE
  2
STANDARD
 70
     0
  3

  4

  5

  6

  7

 40
1.0
 41
0.1875
 42
0.0625
 43
0.38
 44
0.125
 45
0.0
 46
0.0
 47
0.01
 48
0.01
140
0.15625
141
0.09
142
0.0
143
25.3999999999999986
144
1.0
145
0.0
146
1.0
147
0.09
 71
     1
 72
     0
 73
     1
 74
     1
 75
     0
 76
     0
 77
     0
 78
     4
170
     0
171
     2
172
     0
173
     0
174
     0
175
     0
176
     0
177
     0
178
     0
  0
ENDTAB
  0
ENDSEC
  0
SECTION
  2
BLOCKS
  0
BLOCK
  8
0
  2
$MODEL_SPACE
 70
     0
 10
0.0
 20
0.0
 30
0.0
  3
$MODEL_SPACE
  1

  0
ENDBLK
  5
21
  8
0
  0
BLOCK
 67
     1
  8
0
  2
$PAPER_SPACE
 70
     0
 10
0.0
 20
0.0
 30
0.0
  3
$PAPER_SPACE
  1

  0
ENDBLK
  5
1D
 67
     1
  8
0
  0
BLOCK
  8
0
  2
_FILLED
 70
     0
 10
0.0
 20
0.0
 30
0.0
  3
_FILLED
  1

  0
SOLID
  5
9E2C
  8
0
  6
BYBLOCK
 62
     0
 10
0.0
 20
0.0
 30
0.0
 11
-1.0
 21
0.1666666667
 31
0.0
 12
-1.0
 22
-0.1666666667
 32
0.0
 13
-1.0
 23
-0.1666666667
 33
0.0
  0
ENDBLK
  5
9E2D
  8
0
  6
BYBLOCK
 62
     0
  0
BLOCK
  8
0
  2
A$C6B0F1CD5
 70
     2
 10
0.0
 20
0.0
 30
0.0
  3
A$C6B0F1CD5
  1

  0
ATTDEF
  5
B779
  8
DEFPOINTS
 10
0.0005209962714616
 20
0.000347009907216
 30
0.0
 40
0.001
  1
BATH FAUCET
  3

  2
PRODUCT
 70
     0
1001
ACDBATTR
1070
     0
1070
     1
  0
ATTDEF
  5
B77A
  8
DEFPOINTS
 10
0.0005209962714616
 20
0.0020136765738812
 30
0.0
 40
0.001
  1
SINGULIER
  3

  2
TRADENAME
 70
     0
1001
ACDBATTR
1070
     0
1070
     1
  0
ATTDEF
  5
B77B
  8
DEFPOINTS
 10
0.0005209962714616
 20
0.0036803432405463
 30
0.0
 40
0.001
  1
K-10873W
  3

  2
MODELNUMBER
 70
     0
1001
ACDBATTR
1070
     0
1070
     1
  0
ENDBLK
  5
B77F
  8
0
  0
ENDSEC
  0
SECTION
  2
ENTITIES
  0
ATTDEF
  5
F142
  8
DEFPOINTS
 10
3577.9827252526361008
 20
159.8695925031522052
 30
0.0
 40
0.001
  1
K-8452T
  3

  2
MODELNUMBER
 70
     0
1001
ACDBATTR
1070
     0
1070
     1
  0
ATTDEF
  5
F143
  8
DEFPOINTS
 10
3577.9827252526361008
 20
159.8679258364855116
 30
0.0
 40
0.001
  1
ARCHER
  3

  2
TRADENAME
 70
     0
1001
ACDBATTR
1070
     0
1070
     1
  0
ATTDEF
  5
F144
  8
DEFPOINTS
 10
3577.9827252526361008
 20
159.8662591698189033
 30
0.0
 40
0.001
  1
BATH SPOUT
  3

  2
PRODUCT
 70
     0
1001
ACDBATTR
1070
     0
1070
     1
  0
LINE
  5
FDD4
  8
0
 10
3577.9824757192991456
 20
158.7499510289786997
 30
0.0
 11
3577.9824757193168807
 21
160.9814130095145117
 31
0.0
  0
ARC
  5
FDD5
  8
0
 10
3577.9647211992992197
 20
160.9523944051883007
 30
0.0
 40
0.0340191472275043
 50
58.5403577316631427
 51
105.0287724975542005
  0
LINE
  5
FDD6
  8
0
 10
3577.9558998957591029
 20
160.9852499523902054
 30
0.0
 11
3577.9242155230172102
 21
160.976760150414492
 31
0.0
  0
ARC
  5
FDD7
  8
0
 10
3577.9389261049759625
 20
160.921859510403209
 30
0.0
 40
0.0568373248422367
 50
104.9999998088013058
 51
153.9008856717341871
  0
ARC
  5
FDD8
  8
0
 10
3577.2982407523950314
 20
161.2215924383762058
 30
0.0
 40
0.6505038982138091
 50
313.2044201320845218
 51
335.0180823011112921
  0
ARC
  5
FDD9
  8
0
 10
3577.7043338670168851
 20
160.7915593650145922
 30
0.0
 40
0.0590551181000052
 50
218.1955422683043082
 51
311.6464467294484848
  0
ARC
  5
FDDA
  8
0
 10
3577.6400546590630256
 20
160.7409847138125087
 30
0.0
 40
0.0227349297021148
 50
38.1955419109930574
 51
90.0000001146945863
  0
LINE
  5
FDDB
  8
0
 10
3577.6400546590170961
 20
160.7637196435146052
 30
0.0
 11
3577.5772151580172249
 21
160.7637196435146052
 31
0.0
  0
ARC
  5
FDDC
  8
0
 10
3577.5772151580390528
 20
160.7409847135438099
 30
0.0
 40
0.022734929970766
 50
90.000000055106554
 51
158.6883670047442934
  0
ARC
  5
FDDD
  8
0
 10
3577.4607333047151769
 20
160.7864545739060134
 30
0.0
 40
0.1023071849709502
 50
208.8258682744736063
 51
338.6736348675544832
  0
ARC
  5
FDDE
  8
0
 10
3577.3511853973568577
 20
160.7261657375831021
 30
0.0
 40
0.0227347591581894
 50
28.8257381993916795
 51
96.0025343304315015
  0
LINE
  5
FDDF
  8
0
 10
3577.3488079678168106
 20
160.7487758482145921
 30
0.0
 11
3575.6808249721170796
 21
160.4617551050145892
 31
0.0
  0
ARC
  5
FDE0
  8
0
 10
3575.6784485247790144
 20
160.4843654904354935
 30
0.0
 40
0.0227349297521939
 50
187.6023196688514076
 51
276.0000001750411229
  0
ARC
  5
FDE1
  8
0
 10
3575.5995742378891009
 20
160.4738492873258906
 30
0.0
 40
0.0568373248906142
 50
7.5912046589662987
 51
173.731381713393489
  0
ARC
  5
FDE2
  8
0
 10
3575.5204777528228988
 20
160.4825377727948137
 30
0.0
 40
0.0227349298809705
 50
263.5008620765887031
 51
353.7313820327751159
  0
LINE
  5
FDE3
  8
0
 10
3575.5179044255692133
 20
160.459948947603209
 30
0.0
 11
3574.691725859483995
 21
160.6026357370541007
 31
0.0
  0
ARC
  5
FDE4
  8
0
 10
3574.6891521919169463
 20
160.5800469506145873
 30
0.0
 40
0.0227349298999991
 50
83.4999988897119181
 51
157.5000000000042064
  0
LINE
  5
FDE5
  8
0
 10
3574.6681478555101421
 20
160.5887472316233016
 30
0.0
 11
3574.5940338162649823
 21
160.4098201129162078
 31
0.0
  0
ARC
  5
FDE6
  8
0
 10
-68375.2757545422937255
 20
14467.8366127306599083
 30
0.0
 40
73358.6138363305508392
 50
348.7532809789163935
 51
348.7532879052876069
  0
LINE
  5
FDE7
  8
0
 10
3574.5923042199178781
 20
160.4011222391146134
 30
0.0
 11
3574.5923042199178781
 21
159.3302611298146019
 31
0.0
  0
LINE
  5
FDE8
  8
0
 10
3575.6559134310168702
 20
160.4813577371209874
 30
0.0
 11
3575.6559134310168702
 21
159.2500221471080977
 31
0.0
  0
LINE
  5
FDE9
  8
0
 10
3575.5430764042671399
 20
160.4800522166011945
 30
0.0
 11
3575.5430764042671399
 21
159.2513276676278906
 31
0.0
  0
LINE
  5
FDEA
  8
0
 10
3577.8878842334179353
 20
160.9468636869144973
 30
0.0
 11
3577.8878842334179353
 21
158.7845161973145878
 31
0.0
  0
LINE
  5
FDEB
  8
0
 10
3577.6579221542169762
 20
160.7550427949568927
 30
0.0
 11
3577.6579221542169762
 21
158.9763370892721923
 31
0.0
  0
LINE
  5
FDEC
  8
0
 10
3577.5560349950678756
 20
160.749247747750502
 30
0.0
 11
3577.5560349950678756
 21
158.9821321364786115
 31
0.0
  0
LINE
  5
FDED
  8
0
 10
3577.371105235316918
 20
160.7371233527256891
 30
0.0
 11
3577.371105235316918
 21
158.994256531503396
 31
0.0
  0
LINE
  5
FDEE
  8
0
 10
3574.6681463276649993
 20
160.5887435430807955
 30
0.0
 11
3574.6681463276649993
 21
159.1426363420646908
 31
0.0
  0
ARC
  5
FDEF
  8
0
 10
3577.9647211992992197
 20
158.7789854790408128
 30
0.0
 40
0.0340191472275043
 50
254.9712275024457995
 51
301.4596422683368928
  0
LINE
  5
FDF0
  8
0
 10
3577.9558998957591029
 20
158.7461299318389081
 30
0.0
 11
3577.9242155230172102
 21
158.754619733814593
 31
0.0
  0
ARC
  5
FDF1
  8
0
 10
3577.9389261049759625
 20
158.8095203738259045
 30
0.0
 40
0.0568373248422367
 50
206.0991143282658129
 51
255.0000001911986089
  0
ARC
  5
FDF2
  8
0
 10
3577.2982407523950314
 20
158.5097874458529077
 30
0.0
 40
0.6505038982138091
 50
24.9819176988887186
 51
46.7955798679154924
  0
ARC
  5
FDF3
  8
0
 10
3577.7043338670168851
 20
158.9398205192146065
 30
0.0
 40
0.0590551181000052
 50
48.3535532705514299
 51
141.8044577316956918
  0
ARC
  5
FDF4
  8
0
 10
3577.6400546590630256
 20
158.99039517041669
 30
0.0
 40
0.0227349297021148
 50
269.9999998853053853
 51
321.8044580890057205
  0
LINE
  5
FDF5
  8
0
 10
3577.6400546590170961
 20
158.9676602407145936
 30
0.0
 11
3577.5772151580172249
 21
158.9676602407145936
 31
0.0
  0
ARC
  5
FDF6
  8
0
 10
3577.5772151580390528
 20
158.9903951706853036
 30
0.0
 40
0.022734929970766
 50
201.3116329952557066
 51
269.999999944893375
  0
ARC
  5
FDF7
  8
0
 10
3577.4607333047151769
 20
158.9449253103231001
 30
0.0
 40
0.1023071849709502
 50
21.3263651324455097
 51
151.1741317255263937
  0
ARC
  5
FDF8
  8
0
 10
3577.3511853973568577
 20
159.0052141466460114
 30
0.0
 40
0.0227347591581894
 50
263.9974656695684985
 51
331.1742618006082921
  0
LINE
  5
FDF9
  8
0
 10
3577.3488079678168106
 20
158.9826040360146067
 30
0.0
 11
3575.6808249721170796
 21
159.2696247792146096
 31
0.0
  0
ARC
  5
FDFA
  8
0
 10
3575.6784485247790144
 20
159.2470143937935916
 30
0.0
 40
0.0227349297521939
 50
83.9999998249588629
 51
172.3976803311485924
  0
ARC
  5
FDFB
  8
0
 10
3575.5995742378891009
 20
159.2575305969031945
 30
0.0
 40
0.0568373248906142
 50
186.268618286606511
 51
352.4087953410336809
  0
ARC
  5
FDFC
  8
0
 10
3575.5204777528228988
 20
159.2488421114344135
 30
0.0
 40
0.0227349298809705
 50
6.2686179672248743
 51
96.4991379234113538
  0
LINE
  5
FDFD
  8
0
 10
3575.5179044255692133
 20
159.2714309366259045
 30
0.0
 11
3574.691725859483995
 21
159.1287441471750128
 31
0.0
  0
ARC
  5
FDFE
  8
0
 10
3574.6891521919169463
 20
159.1513329336146114
 30
0.0
 40
0.0227349298999991
 50
202.4999999999957083
 51
276.5000011102879967
  0
LINE
  5
FDFF
  8
0
 10
3574.6681478555101421
 20
159.1426326526058119
 30
0.0
 11
3574.5940338162649823
 21
159.3215597713129057
 31
0.0
  0
ARC
  5
FE00
  8
0
 10
-68375.2757545422937255
 20
-14148.1052328464102175
 30
0.0
 40
73358.6138363305508392
 50
11.2467120947124393
 51
11.2467190210836296
  0
LINE
  5
FE02
  8
0
 10
3574.5923042199178781
 20
160.3381229641466064
 30
0.0
 11
3573.8836428027079819
 21
160.3381229641466064
 31
0.0
  0
ARC
  5
FE03
  8
0
 10
3573.8836428027079819
 20
156.243634775146603
 30
0.0
 40
4.0944881890000051
 50
90.0
 51
150.0000000000027001
  0
LINE
  5
FE04
  8
0
 10
3570.3377120155378179
 20
158.2908788696466047
 30
0.0
 11
3570.1408616218332099
 21
157.9499239862589945
 31
0.0
  0
LINE
  5
FE05
  8
0
 10
3570.9591533419470579
 20
157.4774830413238078
 30
0.0
 11
3570.1408616217840972
 21
157.9499239862055902
 31
0.0
  0
ARC
  5
FE06
  8
0
 10
3570.1113340627471189
 20
157.8987807537257879
 30
0.0
 40
0.0590551180779936
 50
60.0000000015668817
 51
239.9999999958457977
  0
LINE
  5
FE07
  8
0
 10
3570.0818065037037741
 20
157.8476375212489131
 30
0.0
 11
3570.9000982238221695
 21
157.3751965762843099
 31
0.0
  0
ARC
  5
FE08
  8
0
 10
3570.9296257820269602
 20
157.426339808445789
 30
0.0
 40
0.0590551188640787
 50
270.000000834675177
 51
59.9999994515939505
  0
LINE
  5
FE09
  8
0
 10
3570.9591533419579719
 20
157.4774830413446978
 30
0.0
 11
3571.1560037357148758
 21
157.8184379248048117
 31
0.0
  0
ARC
  5
FE0A
  8
0
 10
3573.8836428027079819
 20
156.243634775146603
 30
0.0
 40
3.149606299199994
 50
90.0
 51
149.9999999987734043
  0
LINE
  5
FE0B
  8
0
 10
3573.8836428027079819
 20
159.393241074346605
 30
0.0
 11
3574.5923042199178781
 21
159.393241074346605
 31
0.0
  0
ARC
  5
FE0C
  8
0
 10
3570.9296257895480267
 20
157.426339825132203
 30
0.0
 40
0.0590551355505164
 50
240.0000022799023895
 51
269.999993537917419
  0
ENDSEC
  0
EOF
