  0
SECTION
  2
HEADER
  9
$ACADVER
  1
AC1009
  9
$INSBASE
 10
3393.9638562370359978
 20
134.009925467625493
 30
0.0
  9
$EXTMIN
 10
3392.7827538748369989
 20
132.8288231054254993
 30
0.0
  9
$EXTMAX
 10
3395.1449585992368156
 20
135.1910278298254866
 30
0.0
  9
$LIMMIN
 10
0.0
 20
0.0
  9
$LIMMAX
 10
11.6929133858000007
 20
8.2677165353999982
  9
$ORTHOMODE
 70
     1
  9
$REGENMODE
 70
     1
  9
$FILLMODE
 70
     1
  9
$QTEXTMODE
 70
     0
  9
$MIRRTEXT
 70
     0
  9
$DRAGMODE
 70
     2
  9
$LTSCALE
 40
0.6431102362
  9
$OSMODE
 70
  4095
  9
$ATTMODE
 70
     1
  9
$TEXTSIZE
 40
0.2
  9
$TRACEWID
 40
0.05
  9
$TEXTSTYLE
  7
STANDARD
  9
$CLAYER
  8
0
  9
$CELTYPE
  6
BYLAYER
  9
$CECOLOR
 62
   256
  9
$DIMSCALE
 40
1.0
  9
$DIMASZ
 40
0.1875
  9
$DIMEXO
 40
0.0625
  9
$DIMDLI
 40
0.4443307087
  9
$DIMRND
 40
0.0
  9
$DIMDLE
 40
0.0
  9
$DIMEXE
 40
0.125
  9
$DIMTP
 40
0.01
  9
$DIMTM
 40
0.01
  9
$DIMTXT
 40
2.0
  9
$DIMCEN
 40
0.1052362205
  9
$DIMTSZ
 40
0.0
  9
$DIMTOL
 70
     1
  9
$DIMLIM
 70
     0
  9
$DIMTIH
 70
     1
  9
$DIMTOH
 70
     1
  9
$DIMSE1
 70
     0
  9
$DIMSE2
 70
     0
  9
$DIMTAD
 70
     0
  9
$DIMZIN
 70
     0
  9
$DIMBLK
  1

  9
$DIMASO
 70
     1
  9
$DIMSHO
 70
     1
  9
$DIMPOST
  1
\X
  9
$DIMAPOST
  1

  9
$DIMALT
 70
     1
  9
$DIMALTD
 70
     2
  9
$DIMALTF
 40
25.3999999999999986
  9
$DIMLFAC
 40
1.0
  9
$DIMTOFL
 70
     0
  9
$DIMTVP
 40
0.0
  9
$DIMTIX
 70
     0
  9
$DIMSOXD
 70
     0
  9
$DIMSAH
 70
     0
  9
$DIMBLK1
  1

  9
$DIMBLK2
  1

  9
$DIMSTYLE
  2
STANDARD
  9
$DIMCLRD
 70
     0
  9
$DIMCLRE
 70
     0
  9
$DIMCLRT
 70
     0
  9
$DIMTFAC
 40
1.0
  9
$DIMGAP
 40
0.09
  9
$LUNITS
 70
     2
  9
$LUPREC
 70
     4
  9
$SKETCHINC
 40
0.1
  9
$FILLETRAD
 40
0.0
  9
$AUNITS
 70
     0
  9
$AUPREC
 70
     0
  9
$MENU
  1
.
  9
$ELEVATION
 40
0.0
  9
$PELEVATION
 40
0.0
  9
$THICKNESS
 40
0.0
  9
$LIMCHECK
 70
     0
  9
$BLIPMODE
 70
     0
  9
$CHAMFERA
 40
0.0
  9
$CHAMFERB
 40
0.0
  9
$SKPOLY
 70
     0
  9
$TDCREATE
 40
2458060.468368056230247
  9
$TDUPDATE
 40
2459538.44585648085922
  9
$TDINDWG
 40
0.386546412
  9
$TDUSRTIMER
 40
0.386546412
  9
$USRTIMER
 70
     1
  9
$ANGBASE
 50
0.0
  9
$ANGDIR
 70
     0
  9
$PDMODE
 70
     0
  9
$PDSIZE
 40
0.3125
  9
$PLINEWID
 40
0.0
  9
$COORDS
 70
     1
  9
$SPLFRAME
 70
     0
  9
$SPLINETYPE
 70
     6
  9
$SPLINESEGS
 70
     8
  9
$ATTDIA
 70
     1
  9
$ATTREQ
 70
     1
  9
$HANDLING
 70
     1
  9
$HANDSEED
  5
1A5F7
  9
$SURFTAB1
 70
     6
  9
$SURFTAB2
 70
     6
  9
$SURFTYPE
 70
     6
  9
$SURFU
 70
     6
  9
$SURFV
 70
     6
  9
$UCSNAME
  2

  9
$UCSORG
 10
0.0
 20
0.0
 30
0.0
  9
$UCSXDIR
 10
1.0
 20
0.0
 30
0.0
  9
$UCSYDIR
 10
0.0
 20
1.0
 30
0.0
  9
$PUCSNAME
  2

  9
$PUCSORG
 10
0.0
 20
0.0
 30
0.0
  9
$PUCSXDIR
 10
1.0
 20
0.0
 30
0.0
  9
$PUCSYDIR
 10
0.0
 20
1.0
 30
0.0
  9
$USERI1
 70
     0
  9
$USERI2
 70
     0
  9
$USERI3
 70
     0
  9
$USERI4
 70
     0
  9
$USERI5
 70
     0
  9
$USERR1
 40
0.0
  9
$USERR2
 40
0.0
  9
$USERR3
 40
0.0
  9
$USERR4
 40
0.0
  9
$USERR5
 40
0.0
  9
$WORLDVIEW
 70
     1
  9
$SHADEDGE
 70
     3
  9
$SHADEDIF
 70
    70
  9
$TILEMODE
 70
     1
  9
$MAXACTVP
 70
    64
  9
$PLIMCHECK
 70
     0
  9
$PEXTMIN
 10
1.0000000000000000E+20
 20
1.0000000000000000E+20
 30
1.0000000000000000E+20
  9
$PEXTMAX
 10
-1.0000000000000000E+20
 20
-1.0000000000000000E+20
 30
-1.0000000000000000E+20
  9
$PLIMMIN
 10
0.0
 20
0.0
  9
$PLIMMAX
 10
12.0
 20
9.0
  9
$UNITMODE
 70
     0
  9
$VISRETAIN
 70
     1
  9
$PLINEGEN
 70
     0
  9
$PSLTSCALE
 70
     1
  0
ENDSEC
  0
SECTION
  2
TABLES
  0
TABLE
  2
VPORT
 70
     1
  0
VPORT
  2
*ACTIVE
 70
     0
 10
0.0
 20
0.0
 11
1.0
 21
1.0
 12
-409.5802111457759906
 22
8.01466327087563
 13
0.0
 23
0.0
 14
1.0
 24
1.0
 15
0.0
 25
0.0
 16
0.0
 26
0.0
 36
17.1152628219792007
 17
3803.5440673828129547
 27
125.9952621967499056
 37
0.0
 40
2.3795738767852801
 41
2.344785276073619
 42
50.0
 43
0.0
 44
0.0
 50
0.0
 51
0.0
 71
     0
 72
   100
 73
     1
 74
     1
 75
     0
 76
     0
 77
     0
 78
     0
  0
ENDTAB
  0
TABLE
  2
LTYPE
 70
     2
  0
LTYPE
  2
CONTINUOUS
 70
     0
  3
Solid line
 72
    65
 73
     0
 40
0.0
  0
LTYPE
  2
PHANTOM2
 70
     0
  3
___ _ _ ___ _ _ ___ _ _ ___ _ _
 72
    65
 73
     6
 40
1.25
 49
0.625
 49
-0.125
 49
0.125
 49
-0.125
 49
0.125
 49
-0.125
  0
ENDTAB
  0
TABLE
  2
LAYER
 70
     2
  0
LAYER
  2
0
 70
     0
 62
   255
  6
CONTINUOUS
  0
LAYER
  2
DEFPOINTS
 70
     0
 62
     7
  6
CONTINUOUS
  0
ENDTAB
  0
TABLE
  2
STYLE
 70
     1
  0
STYLE
  2
STANDARD
 70
     0
 40
0.0
 41
0.8
 50
0.0
 71
     0
 42
0.2
  3
txt
  4

  0
ENDTAB
  0
TABLE
  2
VIEW
 70
     0
  0
ENDTAB
  0
TABLE
  2
UCS
 70
     0
  0
ENDTAB
  0
TABLE
  2
APPID
 70
     9
  0
APPID
  2
ACAD
 70
     0
  0
APPID
  2
ACAD_MLEADERVER
 70
     0
  0
APPID
  2
ACAD_EXEMPT_FROM_CAD_STANDARDS
 70
     0
  0
APPID
  2
ACAD_NAV_VCDISPLAY
 70
     0
  0
APPID
  2
ACAECLAYERSTANDARD
 70
     0
  0
APPID
  2
ACCMTRANSPARENCY
 70
     0
  0
APPID
  2
ACAD_DSTYLE_DIMJAG
 70
     0
  0
APPID
  2
ACAD_DSTYLE_DIMTALN
 70
     0
  0
APPID
  2
ACDBATTR
 70
     0
  0
ENDTAB
  0
TABLE
  2
DIMSTYLE
 70
     1
  0
DIMSTYLE
  2
STANDARD
 70
     0
  3

  4

  5

  6

  7

 40
1.0
 41
0.1875
 42
0.0625
 43
0.38
 44
0.125
 45
0.0
 46
0.0
 47
0.01
 48
0.01
140
0.15625
141
0.09
142
0.0
143
25.3999999999999986
144
1.0
145
0.0
146
1.0
147
0.09
 71
     1
 72
     0
 73
     1
 74
     1
 75
     0
 76
     0
 77
     0
 78
     4
170
     0
171
     2
172
     0
173
     0
174
     0
175
     0
176
     0
177
     0
178
     0
  0
ENDTAB
  0
ENDSEC
  0
SECTION
  2
BLOCKS
  0
BLOCK
  8
0
  2
$MODEL_SPACE
 70
     0
 10
0.0
 20
0.0
 30
0.0
  3
$MODEL_SPACE
  1

  0
ENDBLK
  5
21
  8
0
  0
BLOCK
 67
     1
  8
0
  2
$PAPER_SPACE
 70
     0
 10
0.0
 20
0.0
 30
0.0
  3
$PAPER_SPACE
  1

  0
ENDBLK
  5
1D
 67
     1
  8
0
  0
BLOCK
  8
0
  2
_FILLED
 70
     0
 10
0.0
 20
0.0
 30
0.0
  3
_FILLED
  1

  0
SOLID
  5
19486
  8
0
  6
BYBLOCK
 62
     0
 10
0.0
 20
0.0
 30
0.0
 11
-1.0
 21
0.1666666667
 31
0.0
 12
-1.0
 22
-0.1666666667
 32
0.0
 13
-1.0
 23
-0.1666666667
 33
0.0
  0
ENDBLK
  5
19487
  8
0
  6
BYBLOCK
 62
     0
  0
ENDSEC
  0
SECTION
  2
ENTITIES
  0
CIRCLE
  5
1A1E1
  8
0
 10
3393.9638562370359978
 20
134.009925467625493
 30
0.0
 40
0.6692913386000005
  0
ARC
  5
1A1E2
  8
0
 10
3393.9638562370359978
 20
134.009925467625493
 30
0.0
 40
0.6774901818000174
 50
307.6019714118172033
 51
235.2330147265139999
  0
LINE
  5
1A1E3
  8
0
 10
3394.318186945636171
 20
133.2933900345755092
 30
0.0
 11
3393.6095255283357801
 21
133.2933900345755092
 31
0.0
  0
CIRCLE
  5
1A210
  8
0
 10
3393.9638562370359978
 20
134.009925467625493
 30
0.0
 40
1.1811023622000001
  0
ARC
  5
1A211
  8
0
 10
3393.575232848313135
 20
133.4626720054689031
 30
0.0
 40
0.0092858452410772
 50
299.6369199700502008
 51
336.893392113545417
  0
LINE
  5
1A212
  8
0
 10
3393.579824717772226
 20
133.4546009673258027
 30
0.0
 11
3393.5775240230918826
 21
133.4533822375848899
 31
0.0
  0
ARC
  5
1A213
  8
0
 10
3394.2687845871378158
 20
132.1178703606751128
 30
0.0
 40
1.5038062229152711
 50
117.3660065234896024
 51
118.5329485186874052
  0
LINE
  5
1A214
  8
0
 10
3393.5504704102359028
 20
133.4390281481254874
 30
0.0
 11
3393.5504704102359028
 21
133.4151883143254906
 31
0.0
  0
LINE
  5
1A215
  8
0
 10
3393.5504704102359028
 20
133.4151883143254906
 30
0.0
 11
3393.5798389753372248
 21
133.3996089938254954
 31
0.0
  0
ARC
  5
1A216
  8
0
 10
3393.57499802211305
 20
133.3914092348288136
 30
0.0
 40
0.009522125588111
 50
299.8038696335738109
 51
59.4433535897443122
  0
LINE
  5
1A217
  8
0
 10
3393.5797308286369116
 20
133.3831465828255034
 30
0.0
 11
3393.5504704102359028
 21
133.3675989398255126
 31
0.0
  0
LINE
  5
1A218
  8
0
 10
3393.5504705584357907
 20
133.3675994498254909
 30
0.0
 11
3393.5504705584357907
 21
133.3524451526255064
 31
0.0
  0
LINE
  5
1A219
  8
0
 10
3393.5504705584357907
 20
133.3524451526255064
 30
0.0
 11
3393.6095255283357801
 21
133.2933900345755092
 31
0.0
  0
LINE
  5
1A21A
  8
0
 10
3394.318186945636171
 20
133.293390034525487
 30
0.0
 11
3394.3637004371357762
 21
133.33890352602549
 31
0.0
  0
LINE
  5
1A21B
  8
0
 10
3394.3637004371357762
 20
133.33890352602549
 30
0.0
 11
3394.3479153490370663
 21
133.3474484891254974
 31
0.0
  0
ARC
  5
1A21C
  8
0
 10
3394.3523816963620447
 20
133.3556991609183058
 30
0.0
 40
0.0093819957080047
 50
118.8635344263832962
 51
241.571927343371101
  0
LINE
  5
1A21D
  8
0
 10
3394.3478527715369637
 20
133.3639156494255076
 30
0.0
 11
3394.3772420637369578
 21
133.3795435920254988
 31
0.0
  0
LINE
  5
1A21E
  8
0
 10
3394.3772420637369578
 20
133.3795435920254988
 30
0.0
 11
3394.3772420637369578
 21
133.4033081409255033
 31
0.0
  0
LINE
  5
1A21F
  8
0
 10
3394.3772420637369578
 20
133.4033081409255033
 30
0.0
 11
3394.3480147566369851
 21
133.4188282468255125
 31
0.0
  0
ARC
  5
1A220
  8
0
 10
3394.3524071017877759
 20
133.4270998669711048
 30
0.0
 40
0.0093654896167098
 50
118.3898281574760034
 51
242.0310773343294102
  0
LINE
  5
1A221
  8
0
 10
3394.3479541108367812
 20
133.4353389972255002
 30
0.0
 11
3394.3766948807829067
 21
133.4503173925633064
 31
0.0
  0
ARC
  5
1A222
  8
0
 10
3394.3761086406411778
 20
133.4515636209096954
 30
0.0
 40
0.0013772300449683
 50
295.1928326968003944
 51
317.9393476352482253
  0
ARC
  5
1A223
  8
0
 10
3394.3768089999398399
 20
133.4509316708299025
 30
0.0
 40
0.0004339039870571
 50
317.9393476352802281
 51
356.1663994016786887
  0
LINE
  5
1A224
  8
0
 10
3394.3772419330371122
 20
133.4509026604254984
 30
0.0
 11
3394.3772420637369578
 21
133.4747425118254966
 31
0.0
  0
LINE
  5
1A225
  8
0
 10
3394.3772420635359595
 20
133.4747425117255091
 30
0.0
 11
3394.3766956866370492
 21
133.4752513553254971
 31
0.0
  0
LINE
  5
1A226
  8
0
 10
3394.3766956866370492
 20
133.4752513553254971
 30
0.0
 11
3394.3706167712480237
 21
133.4784212214212005
 31
0.0
  0
ARC
  5
1A227
  8
0
 10
3393.4675533194390482
 20
134.592607212161198
 30
0.0
 40
1.15657003687029
 50
274.1104581550288231
 51
276.8739926827080922
  0
ARC
  5
1A228
  8
0
 10
3393.951188347175048
 20
129.2010349988701137
 30
0.0
 40
4.2331622967494393
 50
94.18410071356044
 51
95.4318434294485343
  0
ARC
  5
1A229
  8
0
 10
3392.577037664997988
 20
148.3124577032980937
 30
0.0
 40
14.9531297783829107
 50
273.8626239343968791
 51
274.2569453039266136
  0
ARC
  5
1A22A
  8
0
 10
3393.7134733508378304
 20
131.999431263898714
 30
0.0
 40
1.377844002531724
 50
91.3431978423287205
 51
96.7941619907940094
  0
ARC
  5
1A22B
  8
0
 10
3393.6203013581912273
 20
135.9730707253050923
 30
0.0
 40
2.5968876348822278
 50
271.3431978423287205
 51
272.6549563845995863
  0
ARC
  5
1A22C
  8
0
 10
3394.1739481537902066
 20
135.7127491734611908
 30
0.0
 40
2.3814174533005872
 50
269.9267090883002993
 51
274.5701950731804004
  0
ARC
  5
1A22D
  8
0
 10
3394.1644583646561841
 20
128.2940316733013901
 30
0.0
 40
5.0373061163759942
 50
89.9267090883003277
 51
92.367766511498786
  0
ARC
  5
1A22E
  8
0
 10
3394.5909946802598824
 20
97.6265877954192547
 30
0.0
 40
35.7060898816936216
 50
91.0184373557176372
 51
91.6154006226957733
  0
ARC
  5
1A22F
  8
0
 10
3393.3752911619458246
 20
146.3658635018726102
 30
0.0
 40
13.0158630215789604
 50
271.110499256018727
 51
271.9354217694402109
  0
ARC
  5
1A230
  8
0
 10
3393.589008760768138
 20
135.340567451596911
 30
0.0
 40
1.9884957832816159
 50
268.889500743981273
 51
271.110499256018727
  0
ARC
  5
1A231
  8
0
 10
3394.3578660536018106
 20
133.5299037994518869
 30
0.0
 40
0.0584653523436255
 50
273.5417046667899967
 51
289.3543869148122099
  0
ARC
  5
1A232
  8
0
 10
3394.4106510074848302
 20
132.5998744618501064
 30
0.0
 40
0.8491302609794765
 50
93.6847678571111828
 51
96.012656006178716
  0
ARC
  5
1A233
  8
0
 10
3395.3792372847651677
 20
127.6394515089785955
 30
0.0
 40
5.8972338169044134
 50
99.7825490739267025
 51
99.9912536245859656
  0
ARC
  5
1A234
  8
0
 10
3394.4238185072340457
 20
132.1779272060977917
 30
0.0
 40
1.2513852826864349
 50
93.6939116395668066
 51
96.4891898727468345
  0
ARC
  5
1A235
  8
0
 10
3393.2030935641641918
 20
156.0050725308377082
 30
0.0
 40
22.6353822581990691
 50
272.5814297748867716
 51
272.8298340958720019
  0
ARC
  5
1A236
  8
0
 10
3394.2956619822612083
 20
133.901780344156407
 30
0.0
 40
0.5051036508694696
 50
272.8298340958720019
 51
279.2946190658229284
  0
ARC
  5
1A237
  8
0
 10
3394.2956053026009613
 20
133.85044406981919
 30
0.0
 40
0.4779244927339288
 50
270.970807967320809
 51
279.8352190658615086
  0
ARC
  5
1A238
  8
0
 10
3393.8574263928371693
 20
143.3981422944270037
 30
0.0
 40
10.0354819472347607
 50
271.667804545524973
 51
272.5487752558132115
  0
ATTDEF
  5
1A25B
  8
DEFPOINTS
 10
3393.967214013352077
 20
134.0141915156578136
 30
0.0
 40
0.001
  1
K-8465D
  3

  2
MODELNUMBER
 70
     0
1001
ACDBATTR
1070
     0
1070
     1
  0
ATTDEF
  5
1A25C
  8
DEFPOINTS
 10
3393.967214013352077
 20
134.0125248489912053
 30
0.0
 40
0.001
  1

  3

  2
TRADENAME
 70
     0
1001
ACDBATTR
1070
     0
1070
     1
  0
ATTDEF
  5
1A25D
  8
DEFPOINTS
 10
3393.967214013352077
 20
134.0108581823245117
 30
0.0
 40
0.001
  1
SUPPLY ELBOW
  3

  2
PRODUCT
 70
     0
1001
ACDBATTR
1070
     0
1070
     1
  0
ENDSEC
  0
EOF
