  0
SECTION
  2
HEADER
  9
$ACADVER
  1
AC1009
  9
$INSBASE
 10
3397.6873952400092094
 20
134.0100435759077868
 30
0.0
  9
$EXTMIN
 10
3396.5017933922599696
 20
132.8244417282087113
 30
0.0
  9
$EXTMAX
 10
3398.8729970877579944
 20
135.1956454236039065
 30
0.0
  9
$LIMMIN
 10
0.0
 20
0.0
  9
$LIMMAX
 10
11.6929133858000007
 20
8.2677165353999982
  9
$ORTHOMODE
 70
     1
  9
$REGENMODE
 70
     1
  9
$FILLMODE
 70
     1
  9
$QTEXTMODE
 70
     0
  9
$MIRRTEXT
 70
     0
  9
$DRAGMODE
 70
     2
  9
$LTSCALE
 40
0.6431102362
  9
$OSMODE
 70
  4095
  9
$ATTMODE
 70
     1
  9
$TEXTSIZE
 40
0.2
  9
$TRACEWID
 40
0.05
  9
$TEXTSTYLE
  7
STANDARD
  9
$CLAYER
  8
0
  9
$CELTYPE
  6
BYLAYER
  9
$CECOLOR
 62
   256
  9
$DIMSCALE
 40
1.0
  9
$DIMASZ
 40
0.1875
  9
$DIMEXO
 40
0.0625
  9
$DIMDLI
 40
0.4443307087
  9
$DIMRND
 40
0.0
  9
$DIMDLE
 40
0.0
  9
$DIMEXE
 40
0.125
  9
$DIMTP
 40
0.01
  9
$DIMTM
 40
0.01
  9
$DIMTXT
 40
2.0
  9
$DIMCEN
 40
0.1052362205
  9
$DIMTSZ
 40
0.0
  9
$DIMTOL
 70
     1
  9
$DIMLIM
 70
     0
  9
$DIMTIH
 70
     1
  9
$DIMTOH
 70
     1
  9
$DIMSE1
 70
     0
  9
$DIMSE2
 70
     0
  9
$DIMTAD
 70
     0
  9
$DIMZIN
 70
     0
  9
$DIMBLK
  1

  9
$DIMASO
 70
     1
  9
$DIMSHO
 70
     1
  9
$DIMPOST
  1
\X
  9
$DIMAPOST
  1

  9
$DIMALT
 70
     1
  9
$DIMALTD
 70
     2
  9
$DIMALTF
 40
25.3999999999999986
  9
$DIMLFAC
 40
1.0
  9
$DIMTOFL
 70
     0
  9
$DIMTVP
 40
0.0
  9
$DIMTIX
 70
     0
  9
$DIMSOXD
 70
     0
  9
$DIMSAH
 70
     0
  9
$DIMBLK1
  1

  9
$DIMBLK2
  1

  9
$DIMSTYLE
  2
STANDARD
  9
$DIMCLRD
 70
     0
  9
$DIMCLRE
 70
     0
  9
$DIMCLRT
 70
     0
  9
$DIMTFAC
 40
1.0
  9
$DIMGAP
 40
0.09
  9
$LUNITS
 70
     2
  9
$LUPREC
 70
     4
  9
$SKETCHINC
 40
0.1
  9
$FILLETRAD
 40
0.0
  9
$AUNITS
 70
     0
  9
$AUPREC
 70
     0
  9
$MENU
  1
.
  9
$ELEVATION
 40
0.0
  9
$PELEVATION
 40
0.0
  9
$THICKNESS
 40
0.0
  9
$LIMCHECK
 70
     0
  9
$BLIPMODE
 70
     0
  9
$CHAMFERA
 40
0.0
  9
$CHAMFERB
 40
0.0
  9
$SKPOLY
 70
     0
  9
$TDCREATE
 40
2458060.468368056230247
  9
$TDUPDATE
 40
2459538.3844907409511507
  9
$TDINDWG
 40
0.3854700231
  9
$TDUSRTIMER
 40
0.3854700231
  9
$USRTIMER
 70
     1
  9
$ANGBASE
 50
0.0
  9
$ANGDIR
 70
     0
  9
$PDMODE
 70
     0
  9
$PDSIZE
 40
0.3125
  9
$PLINEWID
 40
0.0
  9
$COORDS
 70
     1
  9
$SPLFRAME
 70
     0
  9
$SPLINETYPE
 70
     6
  9
$SPLINESEGS
 70
     8
  9
$ATTDIA
 70
     1
  9
$ATTREQ
 70
     1
  9
$HANDLING
 70
     1
  9
$HANDSEED
  5
1A0E2
  9
$SURFTAB1
 70
     6
  9
$SURFTAB2
 70
     6
  9
$SURFTYPE
 70
     6
  9
$SURFU
 70
     6
  9
$SURFV
 70
     6
  9
$UCSNAME
  2

  9
$UCSORG
 10
0.0
 20
0.0
 30
0.0
  9
$UCSXDIR
 10
1.0
 20
0.0
 30
0.0
  9
$UCSYDIR
 10
0.0
 20
1.0
 30
0.0
  9
$PUCSNAME
  2

  9
$PUCSORG
 10
0.0
 20
0.0
 30
0.0
  9
$PUCSXDIR
 10
1.0
 20
0.0
 30
0.0
  9
$PUCSYDIR
 10
0.0
 20
1.0
 30
0.0
  9
$USERI1
 70
     0
  9
$USERI2
 70
     0
  9
$USERI3
 70
     0
  9
$USERI4
 70
     0
  9
$USERI5
 70
     0
  9
$USERR1
 40
0.0
  9
$USERR2
 40
0.0
  9
$USERR3
 40
0.0
  9
$USERR4
 40
0.0
  9
$USERR5
 40
0.0
  9
$WORLDVIEW
 70
     1
  9
$SHADEDGE
 70
     3
  9
$SHADEDIF
 70
    70
  9
$TILEMODE
 70
     1
  9
$MAXACTVP
 70
    64
  9
$PLIMCHECK
 70
     0
  9
$PEXTMIN
 10
1.0000000000000000E+20
 20
1.0000000000000000E+20
 30
1.0000000000000000E+20
  9
$PEXTMAX
 10
-1.0000000000000000E+20
 20
-1.0000000000000000E+20
 30
-1.0000000000000000E+20
  9
$PLIMMIN
 10
0.0
 20
0.0
  9
$PLIMMAX
 10
12.0
 20
9.0
  9
$UNITMODE
 70
     0
  9
$VISRETAIN
 70
     1
  9
$PLINEGEN
 70
     0
  9
$PSLTSCALE
 70
     1
  0
ENDSEC
  0
SECTION
  2
TABLES
  0
TABLE
  2
VPORT
 70
     1
  0
VPORT
  2
*ACTIVE
 70
     0
 10
0.0
 20
0.0
 11
1.0
 21
1.0
 12
-405.8566721428036885
 22
8.0147813791564175
 13
0.0
 23
0.0
 14
1.0
 24
1.0
 15
0.0
 25
0.0
 16
0.0
 26
0.0
 36
17.1152628219792007
 17
3803.5440673828129547
 27
125.9952621967499056
 37
0.0
 40
2.3886390166849232
 41
2.344785276073619
 42
50.0
 43
0.0
 44
0.0
 50
0.0
 51
0.0
 71
     0
 72
   100
 73
     1
 74
     1
 75
     0
 76
     0
 77
     0
 78
     0
  0
ENDTAB
  0
TABLE
  2
LTYPE
 70
     2
  0
LTYPE
  2
CONTINUOUS
 70
     0
  3
Solid line
 72
    65
 73
     0
 40
0.0
  0
LTYPE
  2
PHANTOM2
 70
     0
  3
___ _ _ ___ _ _ ___ _ _ ___ _ _
 72
    65
 73
     6
 40
1.25
 49
0.625
 49
-0.125
 49
0.125
 49
-0.125
 49
0.125
 49
-0.125
  0
ENDTAB
  0
TABLE
  2
LAYER
 70
     2
  0
LAYER
  2
0
 70
     0
 62
   255
  6
CONTINUOUS
  0
LAYER
  2
DEFPOINTS
 70
     0
 62
     7
  6
CONTINUOUS
  0
ENDTAB
  0
TABLE
  2
STYLE
 70
     1
  0
STYLE
  2
STANDARD
 70
     0
 40
0.0
 41
0.8
 50
0.0
 71
     0
 42
0.2
  3
txt
  4

  0
ENDTAB
  0
TABLE
  2
VIEW
 70
     0
  0
ENDTAB
  0
TABLE
  2
UCS
 70
     0
  0
ENDTAB
  0
TABLE
  2
APPID
 70
     9
  0
APPID
  2
ACAD
 70
     0
  0
APPID
  2
ACAD_MLEADERVER
 70
     0
  0
APPID
  2
ACAD_EXEMPT_FROM_CAD_STANDARDS
 70
     0
  0
APPID
  2
ACAD_NAV_VCDISPLAY
 70
     0
  0
APPID
  2
ACAECLAYERSTANDARD
 70
     0
  0
APPID
  2
ACCMTRANSPARENCY
 70
     0
  0
APPID
  2
ACAD_DSTYLE_DIMJAG
 70
     0
  0
APPID
  2
ACAD_DSTYLE_DIMTALN
 70
     0
  0
APPID
  2
ACDBATTR
 70
     0
  0
ENDTAB
  0
TABLE
  2
DIMSTYLE
 70
     1
  0
DIMSTYLE
  2
STANDARD
 70
     0
  3

  4

  5

  6

  7

 40
1.0
 41
0.1875
 42
0.0625
 43
0.38
 44
0.125
 45
0.0
 46
0.0
 47
0.01
 48
0.01
140
0.15625
141
0.09
142
0.0
143
25.3999999999999986
144
1.0
145
0.0
146
1.0
147
0.09
 71
     1
 72
     0
 73
     1
 74
     1
 75
     0
 76
     0
 77
     0
 78
     4
170
     0
171
     2
172
     0
173
     0
174
     0
175
     0
176
     0
177
     0
178
     0
  0
ENDTAB
  0
ENDSEC
  0
SECTION
  2
BLOCKS
  0
BLOCK
  8
0
  2
$MODEL_SPACE
 70
     0
 10
0.0
 20
0.0
 30
0.0
  3
$MODEL_SPACE
  1

  0
ENDBLK
  5
21
  8
0
  0
BLOCK
 67
     1
  8
0
  2
$PAPER_SPACE
 70
     0
 10
0.0
 20
0.0
 30
0.0
  3
$PAPER_SPACE
  1

  0
ENDBLK
  5
1D
 67
     1
  8
0
  0
BLOCK
  8
0
  2
_FILLED
 70
     0
 10
0.0
 20
0.0
 30
0.0
  3
_FILLED
  1

  0
SOLID
  5
19486
  8
0
  6
BYBLOCK
 62
     0
 10
0.0
 20
0.0
 30
0.0
 11
-1.0
 21
0.1666666667
 31
0.0
 12
-1.0
 22
-0.1666666667
 32
0.0
 13
-1.0
 23
-0.1666666667
 33
0.0
  0
ENDBLK
  5
19487
  8
0
  6
BYBLOCK
 62
     0
  0
ENDSEC
  0
SECTION
  2
ENTITIES
  0
LINE
  5
19ED8
  8
0
 10
3396.5214664403088136
 20
135.1956454233578029
 30
0.0
 11
3398.8533240397091504
 21
135.1956454233578029
 31
0.0
  0
LINE
  5
19ED9
  8
0
 10
3396.5214664403088136
 20
132.8244417284577992
 30
0.0
 11
3398.8533240397091504
 21
132.8244417284577992
 31
0.0
  0
CIRCLE
  5
19EDA
  8
0
 10
3397.6873952400092094
 20
134.0100435759077868
 30
0.0
 40
0.6692913386000005
  0
ARC
  5
19EDB
  8
0
 10
3397.6873952400092094
 20
134.0100435759077868
 30
0.0
 40
0.6774901818000174
 50
304.5645883119498194
 51
232.7356618850944869
  0
LINE
  5
19EDC
  8
0
 10
3396.5017933925091711
 20
132.8441147762578112
 30
0.0
 11
3396.5017933925091711
 21
135.1759723755577909
 31
0.0
  0
LINE
  5
19EDD
  8
0
 10
3398.8729970875087929
 20
134.7895711349578107
 30
0.0
 11
3398.8729970875087929
 21
133.2305160168577913
 31
0.0
  0
LINE
  5
19EDE
  8
0
 10
3398.0417259486089279
 20
133.293508142857803
 30
0.0
 11
3397.3330645313089917
 21
133.293508142857803
 31
0.0
  0
LINE
  5
19EE0
  8
0
 10
3398.8729970875087929
 20
132.8441147762578112
 30
0.0
 11
3398.8729970875087929
 21
135.1759723755577909
 31
0.0
  0
ARC
  5
19EFC
  8
0
 10
3397.2874802553938025
 20
133.4551319927601867
 30
0.0
 40
0.0211898417992882
 50
99.6117483460067916
 51
110.9649132408278973
  0
ARC
  5
19EFD
  8
0
 10
3397.2844667832277992
 20
133.4656315897796901
 30
0.0
 40
0.0103501360591854
 50
116.190909845426205
 51
178.858865793721094
  0
ARC
  5
19EFE
  8
0
 10
3397.2845219184559937
 20
133.4656396552032902
 30
0.0
 40
0.010405103762154
 50
178.9093156203439037
 51
243.4276902317234885
  0
ARC
  5
19EFF
  8
0
 10
120675.1120108010945842
 20
225070.0333503778965678
 30
0.0
 40
253674.1090301799122244
 50
242.4632846969971922
 51
242.4632936756752031
  0
ARC
  5
19F00
  8
0
 10
3397.3104247933920306
 20
133.429913789372705
 30
0.0
 40
0.0093102154421328
 50
301.3425756890462139
 51
59.7384008336641088
  0
ARC
  5
19F01
  8
0
 10
3382.7907926839811807
 20
161.2310834938188862
 30
0.0
 40
31.3736768244789701
 50
297.5045135634778148
 51
297.5776942675985879
  0
ARC
  5
19F02
  8
0
 10
3397.2843940126322195
 20
133.3942198049552132
 30
0.0
 40
0.0103239774944132
 50
116.8155590971412039
 51
243.7395413910163029
  0
LINE
  5
19F03
  8
0
 10
3397.2798261440589158
 20
133.3849613446078024
 30
0.0
 11
3397.3150943144091798
 21
133.3665498041578132
 31
0.0
  0
ARC
  5
19F04
  8
0
 10
3397.3108927473508629
 20
133.3585015051502864
 30
0.0
 40
0.0090790022941002
 50
297.6673975788315261
 51
62.4334551667208189
  0
LINE
  5
19F05
  8
0
 10
3397.3151084746091328
 20
133.3504606142577984
 30
0.0
 11
3397.2895804906847843
 21
133.3370766473437072
 31
0.0
  0
LINE
  5
19F06
  8
0
 10
3397.2895804906847843
 20
133.3370766473437072
 30
0.0
 11
3397.3330645313089917
 21
133.293508142857803
 31
0.0
  0
ARC
  5
19F07
  8
0
 10
3397.3814902919971246
 20
132.447763533720007
 30
0.0
 40
0.8940499010906616
 50
91.2404465773333442
 51
95.9005246909990205
  0
ARC
  5
19F08
  8
0
 10
3397.9576952539459853
 20
112.4287267971412945
 30
0.0
 40
20.9213556080210417
 50
90.9893395552212638
 51
91.6312354639902651
  0
ARC
  5
19F09
  8
0
 10
3397.7117048834647903
 20
127.3651038484654947
 30
0.0
 40
6.0079134369836718
 50
92.0701154738708851
 51
93.7424285287854246
  0
ARC
  5
19F0A
  8
0
 10
3386.1624651310012268
 20
110.6351358799785061
 30
0.0
 40
25.7372834844711385
 50
62.3787836116432288
 51
62.459369511195888
  0
ARC
  5
19F0B
  8
0
 10
3398.0901808715261723
 20
133.4299131536863001
 30
0.0
 40
0.0104058408989727
 50
295.6375720965120877
 51
63.0829970077413265
  0
ARC
  5
19F0C
  8
0
 10
3411.5089163169941457
 20
107.6746002323883999
 30
0.0
 40
29.0309255831446613
 50
117.5205687275017965
 51
117.5993606128861018
  0
ARC
  5
19F0D
  8
0
 10
3398.0643349989859416
 20
133.3942235595345096
 30
0.0
 40
0.0093199961946723
 50
122.7676767037532954
 51
246.5253241190949041
  0
LINE
  5
19F0E
  8
0
 10
3398.0606224372240831
 20
133.385674921383611
 30
0.0
 11
3398.0949155452090054
 21
133.3677940202578043
 31
0.0
  0
ARC
  5
19F0F
  8
0
 10
3398.0901688266058045
 20
133.3585111321494026
 30
0.0
 40
0.010426089829428
 50
295.4571258164194774
 51
62.9174904046796613
  0
LINE
  5
19F10
  8
0
 10
3398.0946503309301079
 20
133.3490973407704132
 30
0.0
 11
3398.0597734630141531
 21
133.3309814215286053
 31
0.0
  0
ARC
  5
19F11
  8
0
 10
3398.0644731026759473
 20
133.3227338021451942
 30
0.0
 40
0.0094926202095351
 50
119.6752567400915979
 51
252.868826099668297
  0
LINE
  5
19F12
  8
0
 10
3398.0616769534631203
 20
133.3136623420629974
 30
0.0
 11
3398.0417259486089279
 21
133.293508142857803
 31
0.0
  0
ARC
  5
19F13
  8
0
 10
3397.297443010502775
 20
133.3879570250261111
 30
0.0
 40
0.0812563137344251
 50
92.946171540468967
 51
106.6817441843001006
  0
ARC
  5
19F14
  8
0
 10
3397.3115326196248134
 20
133.261503473247501
 30
0.0
 40
0.1454724670870304
 50
94.0413055712206614
 51
102.5925446284641964
  0
ARC
  5
19F15
  8
0
 10
3397.4995402337899577
 20
130.6004394071368893
 30
0.0
 40
2.8131697563102138
 50
92.2700416969816501
 51
94.0413055712206614
  0
ARC
  5
19F16
  8
0
 10
3397.9112913470958119
 20
135.1940561170465003
 30
0.0
 40
1.8863977787303681
 50
269.5143369699147797
 51
274.5725317060022803
  0
ARC
  5
19F17
  8
0
 10
3397.7433144769311184
 20
146.0659593282813091
 30
0.0
 40
12.7591384913199999
 50
269.9674599945328737
 51
270.6825248420356047
  0
ARC
  5
19F18
  8
0
 10
3398.2456361871932131
 20
129.6420753968162956
 30
0.0
 40
3.7961009754743098
 50
93.0051822990652965
 51
93.3429463180829657
  0
ARC
  5
19F19
  8
0
 10
3398.0058970401109946
 20
134.2086678752914111
 30
0.0
 40
0.776780142935562
 50
273.005182299065325
 51
275.2813262208792935
  0
ARC
  5
19F1A
  8
0
 10
3398.0655457674029094
 20
133.5633876156730082
 30
0.0
 40
0.1287488287842033
 50
275.2813262208792935
 51
283.8027485078388281
  0
ARC
  5
19F1B
  8
0
 10
3398.9580668371759202
 20
101.566660292514797
 30
0.0
 40
31.8065029005635189
 50
91.8552402478922829
 51
92.0643097924783689
  0
ARC
  5
19F1C
  8
0
 10
3397.730134256285055
 20
139.4759091533520916
 30
0.0
 40
6.1226279570782234
 50
271.8552402478923113
 51
272.7895130021285013
  0
ARC
  5
19F1D
  8
0
 10
3397.9900894891570715
 20
134.1407242676480109
 30
0.0
 40
0.7811137066299155
 50
272.7895130021285013
 51
277.8215827399636169
  0
ARC
  5
19F1E
  8
0
 10
3397.995344303506954
 20
133.8250821259507006
 30
0.0
 40
0.4862861441919831
 50
276.2922059425446264
 51
281.7628410517323232
  0
ARC
  5
19F1F
  8
0
 10
3397.744462168237078
 20
136.1003817448448956
 30
0.0
 40
2.775375526793245
 50
274.1422698637572921
 51
276.2922059425446264
  0
ARC
  5
19F20
  8
0
 10
3396.6692544537158938
 20
150.9467094165715082
 30
0.0
 40
17.6605868778503385
 50
273.4681544071303279
 51
274.1422698637572921
  0
LINE
  5
19F21
  8
0
 10
3397.7376096939087802
 20
133.3184665673578024
 30
0.0
 11
3397.7360681768091126
 21
133.3068228946578131
 31
0.0
  0
ARC
  5
19F22
  8
0
 10
3398.0344150236301175
 20
133.5020736338638017
 30
0.0
 40
0.1030150738216772
 50
274.3320877700560914
 51
284.0493392707504086
  0
ARC
  5
19F23
  8
0
 10
3397.8329253387769313
 20
136.1618768871180123
 30
0.0
 40
2.7704391944151041
 50
272.3944242651099898
 51
274.3320877700560914
  0
ARC
  5
19F4A
  8
0
 10
3396.5214633287469042
 20
135.175975487120013
 30
0.0
 40
0.0196699364839556
 50
89.9909364537063254
 51
180.009063546279009
  0
ARC
  5
19F4B
  8
0
 10
3396.5214633097521073
 20
132.844111645700707
 30
0.0
 40
0.0196699174920423
 50
179.9908811153370891
 51
270.0091188846514001
  0
ARC
  5
19F4C
  8
0
 10
3398.8533271702658567
 20
132.844111645700707
 30
0.0
 40
0.0196699174920419
 50
269.9908811153484862
 51
0.0091188846661432
  0
ARC
  5
19F4D
  8
0
 10
3398.8533271512710598
 20
135.175975487120013
 30
0.0
 40
0.0196699364839689
 50
359.9909364537584224
 51
90.0090635462415634
  0
ATTDEF
  5
19F4F
  8
DEFPOINTS
 10
3397.6726366698048878
 20
134.0141915156578136
 30
0.0
 40
0.001
  1
K-8467D
  3

  2
MODELNUMBER
 70
     0
1001
ACDBATTR
1070
     0
1070
     1
  0
ATTDEF
  5
19F50
  8
DEFPOINTS
 10
3397.6726366698048878
 20
134.0125248489912053
 30
0.0
 40
0.001
  1

  3

  2
TRADENAME
 70
     0
1001
ACDBATTR
1070
     0
1070
     1
  0
ATTDEF
  5
19F51
  8
DEFPOINTS
 10
3397.6726366698048878
 20
134.0108581823245117
 30
0.0
 40
0.001
  1
SUPPLY ELBOW
  3

  2
PRODUCT
 70
     0
1001
ACDBATTR
1070
     0
1070
     1
  0
ENDSEC
  0
EOF
