  0
SECTION
  2
HEADER
  9
$ACADVER
  1
AC1009
  9
$INSBASE
 10
3773.5027514041089489
 20
104.7342488575443014
 30
0.0
  9
$EXTMIN
 10
3772.3171495566089106
 20
102.8638922140881959
 30
0.0
  9
$EXTMAX
 10
3774.6883532516098967
 20
104.7398979106399963
 30
0.0
  9
$LIMMIN
 10
0.0
 20
0.0
  9
$LIMMAX
 10
11.6929133858000007
 20
8.2677165353999982
  9
$ORTHOMODE
 70
     0
  9
$REGENMODE
 70
     1
  9
$FILLMODE
 70
     1
  9
$QTEXTMODE
 70
     0
  9
$MIRRTEXT
 70
     0
  9
$DRAGMODE
 70
     2
  9
$LTSCALE
 40
0.6431102362
  9
$OSMODE
 70
  4095
  9
$ATTMODE
 70
     1
  9
$TEXTSIZE
 40
0.2
  9
$TRACEWID
 40
0.05
  9
$TEXTSTYLE
  7
STANDARD
  9
$CLAYER
  8
0
  9
$CELTYPE
  6
BYLAYER
  9
$CECOLOR
 62
   256
  9
$DIMSCALE
 40
1.0
  9
$DIMASZ
 40
0.1875
  9
$DIMEXO
 40
0.0625
  9
$DIMDLI
 40
0.4443307087
  9
$DIMRND
 40
0.0
  9
$DIMDLE
 40
0.0
  9
$DIMEXE
 40
0.125
  9
$DIMTP
 40
0.01
  9
$DIMTM
 40
0.01
  9
$DIMTXT
 40
2.0
  9
$DIMCEN
 40
0.1052362205
  9
$DIMTSZ
 40
0.0
  9
$DIMTOL
 70
     1
  9
$DIMLIM
 70
     0
  9
$DIMTIH
 70
     1
  9
$DIMTOH
 70
     1
  9
$DIMSE1
 70
     0
  9
$DIMSE2
 70
     0
  9
$DIMTAD
 70
     0
  9
$DIMZIN
 70
     0
  9
$DIMBLK
  1

  9
$DIMASO
 70
     1
  9
$DIMSHO
 70
     1
  9
$DIMPOST
  1
\X
  9
$DIMAPOST
  1

  9
$DIMALT
 70
     1
  9
$DIMALTD
 70
     2
  9
$DIMALTF
 40
25.3999999999999986
  9
$DIMLFAC
 40
1.0
  9
$DIMTOFL
 70
     0
  9
$DIMTVP
 40
0.0
  9
$DIMTIX
 70
     0
  9
$DIMSOXD
 70
     0
  9
$DIMSAH
 70
     0
  9
$DIMBLK1
  1

  9
$DIMBLK2
  1

  9
$DIMSTYLE
  2
STANDARD
  9
$DIMCLRD
 70
     0
  9
$DIMCLRE
 70
     0
  9
$DIMCLRT
 70
     0
  9
$DIMTFAC
 40
1.0
  9
$DIMGAP
 40
0.09
  9
$LUNITS
 70
     2
  9
$LUPREC
 70
     4
  9
$SKETCHINC
 40
0.1
  9
$FILLETRAD
 40
0.0
  9
$AUNITS
 70
     0
  9
$AUPREC
 70
     0
  9
$MENU
  1
.
  9
$ELEVATION
 40
0.0
  9
$PELEVATION
 40
0.0
  9
$THICKNESS
 40
0.0
  9
$LIMCHECK
 70
     0
  9
$BLIPMODE
 70
     0
  9
$CHAMFERA
 40
0.0
  9
$CHAMFERB
 40
0.0
  9
$SKPOLY
 70
     0
  9
$TDCREATE
 40
2458060.468368056230247
  9
$TDUPDATE
 40
2459386.7046527778729796
  9
$TDINDWG
 40
0.3832709491
  9
$TDUSRTIMER
 40
0.3832709491
  9
$USRTIMER
 70
     1
  9
$ANGBASE
 50
0.0
  9
$ANGDIR
 70
     0
  9
$PDMODE
 70
     0
  9
$PDSIZE
 40
0.3125
  9
$PLINEWID
 40
0.0
  9
$COORDS
 70
     1
  9
$SPLFRAME
 70
     0
  9
$SPLINETYPE
 70
     6
  9
$SPLINESEGS
 70
     8
  9
$ATTDIA
 70
     1
  9
$ATTREQ
 70
     1
  9
$HANDLING
 70
     1
  9
$HANDSEED
  5
141F5
  9
$SURFTAB1
 70
     6
  9
$SURFTAB2
 70
     6
  9
$SURFTYPE
 70
     6
  9
$SURFU
 70
     6
  9
$SURFV
 70
     6
  9
$UCSNAME
  2

  9
$UCSORG
 10
0.0
 20
0.0
 30
0.0
  9
$UCSXDIR
 10
1.0
 20
0.0
 30
0.0
  9
$UCSYDIR
 10
0.0
 20
1.0
 30
0.0
  9
$PUCSNAME
  2

  9
$PUCSORG
 10
0.0
 20
0.0
 30
0.0
  9
$PUCSXDIR
 10
1.0
 20
0.0
 30
0.0
  9
$PUCSYDIR
 10
0.0
 20
1.0
 30
0.0
  9
$USERI1
 70
     0
  9
$USERI2
 70
     0
  9
$USERI3
 70
     0
  9
$USERI4
 70
     0
  9
$USERI5
 70
     0
  9
$USERR1
 40
0.0
  9
$USERR2
 40
0.0
  9
$USERR3
 40
0.0
  9
$USERR4
 40
0.0
  9
$USERR5
 40
0.0
  9
$WORLDVIEW
 70
     1
  9
$SHADEDGE
 70
     3
  9
$SHADEDIF
 70
    70
  9
$TILEMODE
 70
     1
  9
$MAXACTVP
 70
    64
  9
$PLIMCHECK
 70
     0
  9
$PEXTMIN
 10
1.0000000000000000E+20
 20
1.0000000000000000E+20
 30
1.0000000000000000E+20
  9
$PEXTMAX
 10
-1.0000000000000000E+20
 20
-1.0000000000000000E+20
 30
-1.0000000000000000E+20
  9
$PLIMMIN
 10
0.0
 20
0.0
  9
$PLIMMAX
 10
12.0
 20
9.0
  9
$UNITMODE
 70
     0
  9
$VISRETAIN
 70
     1
  9
$PLINEGEN
 70
     0
  9
$PSLTSCALE
 70
     1
  0
ENDSEC
  0
SECTION
  2
TABLES
  0
TABLE
  2
VPORT
 70
     1
  0
VPORT
  2
*ACTIVE
 70
     0
 10
0.0
 20
0.0
 11
1.0
 21
1.0
 12
-491.5035962521409942
 22
-0.5021172362198243
 13
0.0
 23
0.0
 14
1.0
 24
1.0
 15
0.0
 25
0.0
 16
0.0
 26
0.0
 36
122.0237731519760018
 17
4265.00634765625
 27
104.3040122985839986
 37
0.0
 40
1.891424921454951
 41
2.6159122085048012
 42
50.0
 43
0.0
 44
0.0
 50
0.0
 51
0.0
 71
     0
 72
   100
 73
     1
 74
     1
 75
     0
 76
     0
 77
     0
 78
     0
  0
ENDTAB
  0
TABLE
  2
LTYPE
 70
     2
  0
LTYPE
  2
CONTINUOUS
 70
     0
  3
Solid line
 72
    65
 73
     0
 40
0.0
  0
LTYPE
  2
PHANTOM2
 70
     0
  3
___ _ _ ___ _ _ ___ _ _ ___ _ _
 72
    65
 73
     6
 40
1.25
 49
0.625
 49
-0.125
 49
0.125
 49
-0.125
 49
0.125
 49
-0.125
  0
ENDTAB
  0
TABLE
  2
LAYER
 70
     2
  0
LAYER
  2
0
 70
     0
 62
   255
  6
CONTINUOUS
  0
LAYER
  2
DEFPOINTS
 70
     0
 62
     7
  6
CONTINUOUS
  0
ENDTAB
  0
TABLE
  2
STYLE
 70
     1
  0
STYLE
  2
STANDARD
 70
     0
 40
0.0
 41
0.8
 50
0.0
 71
     0
 42
0.2
  3
txt
  4

  0
ENDTAB
  0
TABLE
  2
VIEW
 70
     0
  0
ENDTAB
  0
TABLE
  2
UCS
 70
     0
  0
ENDTAB
  0
TABLE
  2
APPID
 70
     9
  0
APPID
  2
ACAD
 70
     0
  0
APPID
  2
ACAD_MLEADERVER
 70
     0
  0
APPID
  2
ACAD_EXEMPT_FROM_CAD_STANDARDS
 70
     0
  0
APPID
  2
ACAD_NAV_VCDISPLAY
 70
     0
  0
APPID
  2
ACAECLAYERSTANDARD
 70
     0
  0
APPID
  2
ACCMTRANSPARENCY
 70
     0
  0
APPID
  2
ACAD_DSTYLE_DIMJAG
 70
     0
  0
APPID
  2
ACAD_DSTYLE_DIMTALN
 70
     0
  0
APPID
  2
ACDBATTR
 70
     0
  0
ENDTAB
  0
TABLE
  2
DIMSTYLE
 70
     1
  0
DIMSTYLE
  2
STANDARD
 70
     0
  3

  4

  5

  6

  7

 40
1.0
 41
0.1875
 42
0.0625
 43
0.38
 44
0.125
 45
0.0
 46
0.0
 47
0.01
 48
0.01
140
0.15625
141
0.09
142
0.0
143
25.3999999999999986
144
1.0
145
0.0
146
1.0
147
0.09
 71
     1
 72
     0
 73
     1
 74
     1
 75
     0
 76
     0
 77
     0
 78
     4
170
     0
171
     2
172
     0
173
     0
174
     0
175
     0
176
     0
177
     0
178
     0
  0
ENDTAB
  0
ENDSEC
  0
SECTION
  2
BLOCKS
  0
BLOCK
  8
0
  2
$MODEL_SPACE
 70
     0
 10
0.0
 20
0.0
 30
0.0
  3
$MODEL_SPACE
  1

  0
ENDBLK
  5
21
  8
0
  0
BLOCK
 67
     1
  8
0
  2
$PAPER_SPACE
 70
     0
 10
0.0
 20
0.0
 30
0.0
  3
$PAPER_SPACE
  1

  0
ENDBLK
  5
1D
 67
     1
  8
0
  0
BLOCK
  8
0
  2
_FILLED
 70
     0
 10
0.0
 20
0.0
 30
0.0
  3
_FILLED
  1

  0
SOLID
  5
10F92
  8
0
  6
BYBLOCK
 62
     0
 10
0.0
 20
0.0
 30
0.0
 11
-1.0
 21
0.1666666667
 31
0.0
 12
-1.0
 22
-0.1666666667
 32
0.0
 13
-1.0
 23
-0.1666666667
 33
0.0
  0
ENDBLK
  5
10F93
  8
0
  6
BYBLOCK
 62
     0
  0
ENDSEC
  0
SECTION
  2
ENTITIES
  0
ATTDEF
  5
13ECE
  8
DEFPOINTS
 10
3773.5041298791888948
 20
104.7388979106400058
 30
0.0
 40
0.001
  1
K-8468D
  3

  2
MODELNUMBER
 70
     0
1001
ACDBATTR
1070
     0
1070
     1
  0
ATTDEF
  5
13ECF
  8
DEFPOINTS
 10
3773.5041298791888948
 20
104.737231243973298
 30
0.0
 40
0.001
  1

  3

  2
TRADENAME
 70
     0
1001
ACDBATTR
1070
     0
1070
     1
  0
ATTDEF
  5
13ED0
  8
DEFPOINTS
 10
3773.5041298791888948
 20
104.7355645773067039
 30
0.0
 40
0.001
  1
HANDSHOWER HOLDER
  3

  2
PRODUCT
 70
     0
1001
ACDBATTR
1070
     0
1070
     1
  0
LINE
  5
140C9
  8
0
 10
3772.3171495566089106
 20
104.7342488575443014
 30
0.0
 11
3774.6883532516098967
 21
104.7342488575443014
 31
0.0
  0
LINE
  5
140CA
  8
0
 10
3772.3171495566089106
 20
104.7342488575443014
 30
0.0
 11
3772.3288605514371739
 21
104.3988908791313008
 31
0.0
  0
ARC
  5
140CB
  8
0
 10
3772.3494921015671935
 20
104.3996113509622035
 30
0.0
 40
0.0206441260513253
 50
182.0000061702795904
 51
265.2642107578241166
  0
ARC
  5
140CC
  8
0
 10
3773.3522985198701463
 20
129.3771273215052986
 30
0.0
 40
25.0182638590773294
 50
267.6988928606518243
 51
268.811050959119882
  0
LINE
  5
140CD
  8
0
 10
3772.8331798980088934
 20
104.3642497905443065
 30
0.0
 11
3774.2020425832088222
 21
104.3645094394443049
 31
0.0
  0
LINE
  5
140CE
  8
0
 10
3774.6883532516098967
 20
104.7342488575443014
 30
0.0
 11
3774.6766298991087751
 21
104.3984362601443934
 31
0.0
  0
ARC
  5
140CF
  8
0
 10
3774.6564648602761736
 20
104.3991402297396007
 30
0.0
 40
0.0201773230223058
 50
271.0414484266207182
 51
358.0005933377681231
  0
ARC
  5
140D0
  8
0
 10
3773.4235115153041988
 20
136.0166307505060104
 30
0.0
 40
31.6616944289761015
 50
271.4089909416134105
 51
272.2324110954727985
  0
LINE
  5
140D1
  8
0
 10
3772.8331859269010238
 20
102.8830901430393965
 30
0.0
 11
3772.8331859269010238
 21
104.3642497916878966
 31
0.0
  0
LINE
  5
140D2
  8
0
 10
3774.1723168813168741
 20
103.9236689459083038
 30
0.0
 11
3774.1723168813168741
 21
104.3645038010075012
 31
0.0
  0
ARC
  5
140D3
  8
0
 10
3772.8528649381619289
 20
102.8835773040978978
 30
0.0
 40
0.0196850402535556
 50
180.0000010290650039
 51
269.9999978066812787
  0
LINE
  5
140D4
  8
0
 10
3772.8528649374088673
 20
102.8638922638444058
 30
0.0
 11
3774.1526378708090306
 21
102.8638922140881959
 31
0.0
  0
ARC
  5
140D5
  8
0
 10
3774.1526378715620922
 20
102.8835712247816048
 30
0.0
 40
0.0196790106933085
 50
269.9999978066812787
 51
0.0176990054640943
  0
LINE
  5
140D6
  8
0
 10
3772.3453710718840739
 20
104.3793827312668014
 30
0.0
 11
3774.660559444313094
 21
104.3793827312668014
 31
0.0
  0
ARC
  5
140D7
  8
0
 10
3774.1627866271769562
 20
103.9226716847597061
 30
0.0
 40
0.0095822895887269
 50
5.9737819505682896
 51
46.4245709961043076
  0
ARC
  5
140D8
  8
0
 10
3773.8917580199931763
 20
103.522020036663406
 30
0.0
 40
0.4931664388715173
 50
55.7391397879268524
 51
142.0729300803556043
  0
ARC
  5
140D9
  8
0
 10
3773.8693313545641104
 20
103.5331856748464929
 30
0.0
 40
0.4686398091602216
 50
141.4643901003232997
 51
218.5356098389194983
  0
ARC
  5
140DA
  8
0
 10
3773.9002138759187801
 20
103.5587142882320961
 30
0.0
 40
0.5087016413032343
 50
218.6177385673317985
 51
284.757265340157403
  0
ARC
  5
140DB
  8
0
 10
3773.9326297751690618
 20
103.4442116200590931
 30
0.0
 40
0.389724969585446
 50
284.4367727825730867
 51
304.9723821810159734
  0
ARC
  5
140DC
  8
0
 10
3773.8964521915099795
 20
103.5331836031442947
 30
0.0
 40
0.4176798327999965
 50
212.9298585564366988
 51
246.7259177787204862
  0
ARC
  5
140DD
  8
0
 10
3773.8964521915099795
 20
103.5331836031443942
 30
0.0
 40
0.4176798328000068
 50
246.7259177787204862
 51
279.3991698819064027
  0
ARC
  5
140DE
  8
0
 10
3773.8964521655179851
 20
103.5331837601558931
 30
0.0
 40
0.4176799919481583
 50
279.3991698819064027
 51
301.1647986594934991
  0
ARC
  5
140DF
  8
0
 10
3774.1329489765439575
 20
103.1421391121487972
 30
0.0
 40
0.0393174460756712
 50
63.3477193994023224
 51
121.164798659493897
  0
ARC
  5
140E0
  8
0
 10
3774.1329118398321043
 20
103.1420651205591952
 30
0.0
 40
0.0394002343036694
 50
19.83366690465283
 51
63.347719399401953
  0
ARC
  5
140E1
  8
0
 10
3774.1327414098600457
 20
103.1420036488450052
 30
0.0
 40
0.0395814114188556
 50
0.9926342496788961
 51
19.8336669046451703
  0
ARC
  5
140E2
  8
0
 10
3774.1105564846739071
 20
103.1890709505574932
 30
0.0
 40
0.0786724018824143
 50
305.2955329086610732
 51
319.6475466498623064
  0
ARC
  5
140E3
  8
0
 10
3774.164757438245033
 20
103.1430480807880059
 30
0.0
 40
0.0075679499117054
 50
319.4845265369497724
 51
357.2831020278856045
  0
ARC
  5
140E4
  8
0
 10
3773.8964521915099795
 20
103.5331836031443942
 30
0.0
 40
0.4176798327999986
 50
138.2256282255692099
 51
212.9298585564366988
  0
ARC
  5
140E5
  8
0
 10
3773.8964521915099795
 20
103.5331836031442947
 30
0.0
 40
0.4176798328000013
 50
91.2832157981561068
 51
138.2256282255692099
  0
ARC
  5
140E6
  8
0
 10
3773.8964521915099795
 20
103.5331836031442947
 30
0.0
 40
0.4176798328000007
 50
60.2522180731203605
 51
91.2832157981561068
  0
ARC
  5
140E7
  8
0
 10
3768.6648229746620018
 20
94.3789083480036339
 30
0.0
 40
10.9614315232301198
 50
60.1765052956328432
 51
60.2522180731203605
  0
ARC
  5
140E8
  8
0
 10
3774.1329480273439003
 20
103.924198548745494
 30
0.0
 40
0.0392892267717269
 50
244.8798195513647897
 51
290.6563431665725261
  0
ARC
  5
140E9
  8
0
 10
3774.1329070162728385
 20
103.924307260955004
 30
0.0
 40
0.0394054173558956
 50
290.6563796082663202
 51
333.2298200015993075
  0
ARC
  5
140EA
  8
0
 10
3774.1328386730720013
 20
103.9243424695471987
 30
0.0
 40
0.0394822939681277
 50
333.2288734186324177
 51
354.3681435979647176
  0
ARC
  5
140EB
  8
0
 10
3774.1328695089728171
 20
103.9243611383050023
 30
0.0
 40
0.0394534449091209
 50
354.3367683459318869
 51
358.9947205388573934
  0
LINE
  5
140EC
  8
0
 10
3774.1723168813168741
 20
102.8835773037444028
 30
0.0
 11
3774.1723168813168741
 21
103.1426893520422965
 31
0.0
  0
ENDSEC
  0
EOF
