  0
SECTION
  2
HEADER
  9
$ACADVER
  1
AC1009
  9
$INSBASE
 10
4556.026652549490791
 20
263.9782704140430951
 30
0.0
  9
$EXTMIN
 10
4554.556418362891236
 20
258.0132704140431201
 30
0.0
  9
$EXTMAX
 10
4557.496886735991211
 20
263.9826772356361744
 30
0.0
  9
$LIMMIN
 10
0.0
 20
0.0
  9
$LIMMAX
 10
11.6929133858000007
 20
8.2677165353999982
  9
$ORTHOMODE
 70
     1
  9
$REGENMODE
 70
     1
  9
$FILLMODE
 70
     1
  9
$QTEXTMODE
 70
     0
  9
$MIRRTEXT
 70
     0
  9
$DRAGMODE
 70
     2
  9
$LTSCALE
 40
0.6431102362
  9
$OSMODE
 70
   563
  9
$ATTMODE
 70
     1
  9
$TEXTSIZE
 40
0.2
  9
$TRACEWID
 40
0.05
  9
$TEXTSTYLE
  7
STANDARD
  9
$CLAYER
  8
0
  9
$CELTYPE
  6
BYLAYER
  9
$CECOLOR
 62
   256
  9
$DIMSCALE
 40
1.0
  9
$DIMASZ
 40
0.1875
  9
$DIMEXO
 40
0.0625
  9
$DIMDLI
 40
0.4443307087
  9
$DIMRND
 40
0.0
  9
$DIMDLE
 40
0.0
  9
$DIMEXE
 40
0.125
  9
$DIMTP
 40
0.01
  9
$DIMTM
 40
0.01
  9
$DIMTXT
 40
2.0
  9
$DIMCEN
 40
0.1052362205
  9
$DIMTSZ
 40
0.0
  9
$DIMTOL
 70
     1
  9
$DIMLIM
 70
     0
  9
$DIMTIH
 70
     1
  9
$DIMTOH
 70
     1
  9
$DIMSE1
 70
     0
  9
$DIMSE2
 70
     0
  9
$DIMTAD
 70
     0
  9
$DIMZIN
 70
     0
  9
$DIMBLK
  1

  9
$DIMASO
 70
     1
  9
$DIMSHO
 70
     1
  9
$DIMPOST
  1
\X
  9
$DIMAPOST
  1

  9
$DIMALT
 70
     1
  9
$DIMALTD
 70
     2
  9
$DIMALTF
 40
25.3999999999999986
  9
$DIMLFAC
 40
1.0
  9
$DIMTOFL
 70
     0
  9
$DIMTVP
 40
0.0
  9
$DIMTIX
 70
     0
  9
$DIMSOXD
 70
     0
  9
$DIMSAH
 70
     0
  9
$DIMBLK1
  1

  9
$DIMBLK2
  1

  9
$DIMSTYLE
  2
STANDARD
  9
$DIMCLRD
 70
     0
  9
$DIMCLRE
 70
     0
  9
$DIMCLRT
 70
     0
  9
$DIMTFAC
 40
1.0
  9
$DIMGAP
 40
0.09
  9
$LUNITS
 70
     2
  9
$LUPREC
 70
     4
  9
$SKETCHINC
 40
0.1
  9
$FILLETRAD
 40
0.0
  9
$AUNITS
 70
     0
  9
$AUPREC
 70
     0
  9
$MENU
  1
.
  9
$ELEVATION
 40
0.0
  9
$PELEVATION
 40
0.0
  9
$THICKNESS
 40
0.0
  9
$LIMCHECK
 70
     0
  9
$BLIPMODE
 70
     0
  9
$CHAMFERA
 40
0.0
  9
$CHAMFERB
 40
0.0
  9
$SKPOLY
 70
     0
  9
$TDCREATE
 40
2458060.468368056230247
  9
$TDUPDATE
 40
2459264.4941782411187887
  9
$TDINDWG
 40
0.4890116898
  9
$TDUSRTIMER
 40
0.4890116898
  9
$USRTIMER
 70
     1
  9
$ANGBASE
 50
0.0
  9
$ANGDIR
 70
     0
  9
$PDMODE
 70
     0
  9
$PDSIZE
 40
0.3125
  9
$PLINEWID
 40
0.0
  9
$COORDS
 70
     1
  9
$SPLFRAME
 70
     0
  9
$SPLINETYPE
 70
     6
  9
$SPLINESEGS
 70
     8
  9
$ATTDIA
 70
     1
  9
$ATTREQ
 70
     1
  9
$HANDLING
 70
     1
  9
$HANDSEED
  5
22D64
  9
$SURFTAB1
 70
     6
  9
$SURFTAB2
 70
     6
  9
$SURFTYPE
 70
     6
  9
$SURFU
 70
     6
  9
$SURFV
 70
     6
  9
$UCSNAME
  2

  9
$UCSORG
 10
0.0
 20
0.0
 30
0.0
  9
$UCSXDIR
 10
1.0
 20
0.0
 30
0.0
  9
$UCSYDIR
 10
0.0
 20
1.0
 30
0.0
  9
$PUCSNAME
  2

  9
$PUCSORG
 10
0.0
 20
0.0
 30
0.0
  9
$PUCSXDIR
 10
1.0
 20
0.0
 30
0.0
  9
$PUCSYDIR
 10
0.0
 20
1.0
 30
0.0
  9
$USERI1
 70
     0
  9
$USERI2
 70
     0
  9
$USERI3
 70
     0
  9
$USERI4
 70
     0
  9
$USERI5
 70
     0
  9
$USERR1
 40
0.0
  9
$USERR2
 40
0.0
  9
$USERR3
 40
0.0
  9
$USERR4
 40
0.0
  9
$USERR5
 40
0.0
  9
$WORLDVIEW
 70
     1
  9
$SHADEDGE
 70
     3
  9
$SHADEDIF
 70
    70
  9
$TILEMODE
 70
     1
  9
$MAXACTVP
 70
    64
  9
$PLIMCHECK
 70
     0
  9
$PEXTMIN
 10
1.0000000000000000E+20
 20
1.0000000000000000E+20
 30
1.0000000000000000E+20
  9
$PEXTMAX
 10
-1.0000000000000000E+20
 20
-1.0000000000000000E+20
 30
-1.0000000000000000E+20
  9
$PLIMMIN
 10
0.0
 20
0.0
  9
$PLIMMAX
 10
12.0
 20
9.0
  9
$UNITMODE
 70
     0
  9
$VISRETAIN
 70
     1
  9
$PLINEGEN
 70
     0
  9
$PSLTSCALE
 70
     1
  0
ENDSEC
  0
SECTION
  2
TABLES
  0
TABLE
  2
VPORT
 70
     1
  0
VPORT
  2
*ACTIVE
 70
     0
 10
0.0
 20
0.0
 11
1.0
 21
1.0
 12
644.6612960911071468
 22
128.4183687153050073
 13
0.0
 23
0.0
 14
1.0
 24
1.0
 15
0.0
 25
0.0
 16
0.0
 26
0.0
 36
60.4960186965801583
 17
3911.3653564453120453
 27
132.5796051025390057
 37
0.0
 40
7.9920639725067701
 41
1.8614190687361409
 42
50.0
 43
0.0
 44
0.0
 50
0.0
 51
0.0
 71
     0
 72
   100
 73
     1
 74
     1
 75
     0
 76
     0
 77
     0
 78
     0
  0
ENDTAB
  0
TABLE
  2
LTYPE
 70
     2
  0
LTYPE
  2
CONTINUOUS
 70
     0
  3
Solid line
 72
    65
 73
     0
 40
0.0
  0
LTYPE
  2
PHANTOM2
 70
     0
  3
___ _ _ ___ _ _ ___ _ _ ___ _ _
 72
    65
 73
     6
 40
1.25
 49
0.625
 49
-0.125
 49
0.125
 49
-0.125
 49
0.125
 49
-0.125
  0
ENDTAB
  0
TABLE
  2
LAYER
 70
     2
  0
LAYER
  2
0
 70
     0
 62
   255
  6
CONTINUOUS
  0
LAYER
  2
DEFPOINTS
 70
     0
 62
     7
  6
CONTINUOUS
  0
ENDTAB
  0
TABLE
  2
STYLE
 70
     1
  0
STYLE
  2
STANDARD
 70
     0
 40
0.0
 41
0.8
 50
0.0
 71
     0
 42
0.2
  3
txt
  4

  0
ENDTAB
  0
TABLE
  2
VIEW
 70
     0
  0
ENDTAB
  0
TABLE
  2
UCS
 70
     0
  0
ENDTAB
  0
TABLE
  2
APPID
 70
    11
  0
APPID
  2
ACAD
 70
     0
  0
APPID
  2
ACAD_MLEADERVER
 70
     0
  0
APPID
  2
ACAD_EXEMPT_FROM_CAD_STANDARDS
 70
     0
  0
APPID
  2
ACAD_NAV_VCDISPLAY
 70
     0
  0
APPID
  2
ACAECLAYERSTANDARD
 70
     0
  0
APPID
  2
ACCMTRANSPARENCY
 70
     0
  0
APPID
  2
ACAD_DSTYLE_DIMJAG
 70
     0
  0
APPID
  2
ACAD_DSTYLE_DIMTALN
 70
     0
  0
APPID
  2
ACDBATTR
 70
     0
  0
APPID
  2
ACADANNOTATIVE
 70
     0
  0
APPID
  2
DCO15
 70
     0
  0
ENDTAB
  0
TABLE
  2
DIMSTYLE
 70
     1
  0
DIMSTYLE
  2
STANDARD
 70
     0
  3

  4

  5

  6

  7

 40
1.0
 41
0.1875
 42
0.0625
 43
0.38
 44
0.125
 45
0.0
 46
0.0
 47
0.01
 48
0.01
140
0.15625
141
0.09
142
0.0
143
25.3999999999999986
144
1.0
145
0.0
146
1.0
147
0.09
 71
     1
 72
     0
 73
     1
 74
     1
 75
     0
 76
     0
 77
     0
 78
     4
170
     0
171
     2
172
     0
173
     0
174
     0
175
     0
176
     0
177
     0
178
     0
  0
ENDTAB
  0
ENDSEC
  0
SECTION
  2
BLOCKS
  0
BLOCK
  8
0
  2
$MODEL_SPACE
 70
     0
 10
0.0
 20
0.0
 30
0.0
  3
$MODEL_SPACE
  1

  0
ENDBLK
  5
21
  8
0
  0
BLOCK
 67
     1
  8
0
  2
$PAPER_SPACE
 70
     0
 10
0.0
 20
0.0
 30
0.0
  3
$PAPER_SPACE
  1

  0
ENDBLK
  5
1D
 67
     1
  8
0
  0
ENDSEC
  0
SECTION
  2
ENTITIES
  0
LINE
  5
228D1
  8
0
 10
4555.3666525494909365
 20
258.1192704140431147
 30
0.0
 11
4556.6866525494906455
 21
258.1192704140431147
 31
0.0
  0
LINE
  5
228D2
  8
0
 10
4555.7036525494922898
 20
258.0381667421431189
 30
0.0
 11
4555.5996525494911111
 21
258.0569762826431202
 31
0.0
  0
LINE
  5
228D3
  8
0
 10
4556.6971525494282105
 20
258.1470942034430891
 30
0.0
 11
4555.3561525495533715
 21
258.1470942034430891
 31
0.0
  0
LINE
  5
228D4
  8
0
 10
4555.1416525494905727
 20
258.2318293949430767
 30
0.0
 11
4556.9116525494910093
 21
258.2318293949430767
 31
0.0
  0
LINE
  5
228D5
  8
0
 10
4556.9271525494914385
 20
258.2390258360430835
 30
0.0
 11
4555.1261525494901434
 21
258.2390258360430835
 31
0.0
  0
LINE
  5
228D6
  8
0
 10
4554.7762702079653536
 20
258.4462704140431129
 30
0.0
 11
4557.2770348910180473
 21
258.4462704140431129
 31
0.0
  0
LINE
  5
228D7
  8
0
 10
4557.2966525494330199
 20
258.4607722549430946
 30
0.0
 11
4554.7566525495485621
 21
258.4607722549430946
 31
0.0
  0
LINE
  5
228D8
  8
0
 10
4554.6476525662901622
 20
258.4962704140431242
 30
0.0
 11
4557.4056372167906375
 21
258.4962704140431242
 31
0.0
  0
LINE
  5
228D9
  8
0
 10
4555.0462613094905464
 20
263.0695279093430941
 30
0.0
 11
4555.2493481693900321
 21
263.2046416663430932
 31
0.0
  0
LINE
  5
228DA
  8
0
 10
4555.0462613094905464
 20
262.5495279093429986
 30
0.0
 11
4555.2493481693900321
 21
262.6846416663429977
 31
0.0
  0
LINE
  5
228DB
  8
0
 10
4557.4356525499906638
 20
259.4362704140431219
 30
0.0
 11
4554.6176525488899642
 21
259.4362704140431219
 31
0.0
  0
LINE
  5
228DC
  8
0
 10
4554.607652549490922
 20
259.4262704140430742
 30
0.0
 11
4554.607652549490922
 21
259.2860986798746126
 31
0.0
  0
LINE
  5
228DD
  8
0
 10
4554.607652549490922
 20
258.9144408549800005
 30
0.0
 11
4554.607652549490922
 21
258.5362704140430878
 31
0.0
  0
LINE
  5
228DE
  8
0
 10
4554.6116525494908274
 20
260.4580750274431011
 30
0.0
 11
4554.6116525494908274
 21
259.4862704140430765
 31
0.0
  0
LINE
  5
228DF
  8
0
 10
4554.63315254949066
 20
263.8309572408430768
 30
0.0
 11
4554.63315254949066
 21
263.9282704140430837
 31
0.0
  0
LINE
  5
228E0
  8
0
 10
4555.0462613094905464
 20
262.0295279093430736
 30
0.0
 11
4555.2493481693900321
 21
262.1646416663430728
 31
0.0
  0
LINE
  5
228E1
  8
0
 10
4556.8047196288916894
 20
263.2883966266430775
 30
0.0
 11
4557.0055183755912367
 21
263.4167750485431156
 31
0.0
  0
LINE
  5
228E2
  8
0
 10
4554.6216525494910456
 20
259.4762704140430856
 30
0.0
 11
4557.4316525494923553
 21
259.4762704140430856
 31
0.0
  0
LINE
  5
228E3
  8
0
 10
4554.7796525494914022
 20
258.4462704140431129
 30
0.0
 11
4554.7796525494914022
 21
258.4607722549430946
 31
0.0
  0
LINE
  5
228E4
  8
0
 10
4557.2224958387323568
 20
258.4186925495105243
 30
0.0
 11
4557.2213187085089885
 21
258.41965069034012
 31
0.0
  0
LINE
  5
228E5
  8
0
 10
4555.0016525494911548
 20
263.5010274812429998
 30
0.0
 11
4555.0016525494911548
 21
263.5107943270430724
 31
0.0
  0
LINE
  5
228E6
  8
0
 10
4555.1416525494905727
 20
258.2390258360430835
 30
0.0
 11
4555.1416525494905727
 21
258.231829394961494
 31
0.0
  0
LINE
  5
228E7
  8
0
 10
4554.6848961059922658
 20
259.4762704140430856
 30
0.0
 11
4554.6761641264911304
 21
259.4436822230430835
 31
0.0
  0
LINE
  5
228E8
  8
0
 10
4556.8039569294905959
 20
262.7678991617431166
 30
0.0
 11
4557.0070437893909912
 21
262.9030129186431282
 31
0.0
  0
LINE
  5
228E9
  8
0
 10
4555.3666525494909365
 20
258.1470942034430891
 30
0.0
 11
4555.3666525494909365
 21
258.1192704140431147
 31
0.0
  0
LINE
  5
228EA
  8
0
 10
4555.9728851438912898
 20
258.2832720369431172
 30
0.0
 11
4555.9521836810909008
 21
258.365965437943089
 31
0.0
  0
LINE
  5
228EB
  8
0
 10
4556.8039569294905959
 20
262.2478991617430779
 30
0.0
 11
4557.0070437893909912
 21
262.3830129186430895
 31
0.0
  0
LINE
  5
228EC
  8
0
 10
4556.3623614035914215
 20
258.2816758769430976
 30
0.0
 11
4556.342699673392417
 21
258.3513347951430887
 31
0.0
  0
LINE
  5
228ED
  8
0
 10
4556.8443495454921504
 20
261.7244347420430017
 30
0.0
 11
4557.0162585572907119
 21
261.8699417579430815
 31
0.0
  0
LINE
  5
228EE
  8
0
 10
4555.2089555533912062
 20
261.7244347420430017
 30
0.0
 11
4555.0370465415908257
 21
261.8699417579430815
 31
0.0
  0
LINE
  5
228EF
  8
0
 10
4556.7048965091917125
 20
258.2802952453430976
 30
0.0
 11
4556.6864514730914379
 21
258.3396954817430924
 31
0.0
  0
LINE
  5
228F0
  8
0
 10
4557.0944510022909526
 20
258.2787546820430862
 30
0.0
 11
4557.0776745891917017
 21
258.3276819705430967
 31
0.0
  0
LINE
  5
228F1
  8
0
 10
4556.959155730591192
 20
258.2792859663430818
 30
0.0
 11
4556.9417687755912993
 21
258.3317166155430868
 31
0.0
  0
LINE
  5
228F2
  8
0
 10
4556.6866525494906455
 20
258.1470942034430891
 30
0.0
 11
4556.6866525494906455
 21
258.1192704140431147
 31
0.0
  0
LINE
  5
228F4
  8
0
 10
4555.2493481693900321
 20
262.2478991617430779
 30
0.0
 11
4555.0462613094905464
 21
262.3830129186430895
 31
0.0
  0
LINE
  5
228F5
  8
0
 10
4556.9116525494910093
 20
258.2390258360430835
 30
0.0
 11
4556.9116525494910093
 21
258.231829394961494
 31
0.0
  0
LINE
  5
228F6
  8
0
 10
4556.0804199549911573
 20
258.2832720369431172
 30
0.0
 11
4556.1011214177915463
 21
258.365965437943089
 31
0.0
  0
LINE
  5
228F7
  8
0
 10
4557.3684089928910907
 20
259.4762704140430856
 30
0.0
 11
4557.3771409723904071
 21
259.4436822230430835
 31
0.0
  0
LINE
  5
228F8
  8
0
 10
4557.0516525494922462
 20
263.5010274833430799
 30
0.0
 11
4557.0516525494922462
 21
263.5107943270430724
 31
0.0
  0
LINE
  5
228F9
  8
0
 10
4556.4698511177921318
 20
258.2848922793431257
 30
0.0
 11
4556.4911511029913527
 21
258.3823033281431094
 31
0.0
  0
LINE
  5
228FA
  8
0
 10
4555.2493481693900321
 20
262.7678991617431166
 30
0.0
 11
4555.0462613094905464
 21
262.9030129186431282
 31
0.0
  0
LINE
  5
228FB
  8
0
 10
4557.2736525494910893
 20
258.4462704140431129
 30
0.0
 11
4557.2736525494910893
 21
258.4607722549430946
 31
0.0
  0
LINE
  5
228FC
  8
0
 10
4556.8122722856905966
 20
258.2863336970431192
 30
0.0
 11
4556.8336590142916975
 21
258.3983065140430995
 31
0.0
  0
LINE
  5
228FD
  8
0
 10
4557.4201525494900125
 20
263.8309573907430945
 30
0.0
 11
4557.4201525494900125
 21
263.9282704140430837
 31
0.0
  0
LINE
  5
228FE
  8
0
 10
4557.4416525494907546
 20
260.4580750274431011
 30
0.0
 11
4557.4416525494907546
 21
259.4862704140430765
 31
0.0
  0
LINE
  5
228FF
  8
0
 10
4557.4456525494915695
 20
259.4262704140430742
 30
0.0
 11
4557.4456525494915695
 21
259.2860986798746126
 31
0.0
  0
LINE
  5
22900
  8
0
 10
4557.4456525494915695
 20
259.1524421482116054
 30
0.0
 11
4557.4456525494915695
 21
259.0480973866430077
 31
0.0
  0
LINE
  5
22901
  8
0
 10
4557.4456525494915695
 20
258.9144408549801142
 30
0.0
 11
4557.4456525494915695
 21
258.5362704140430878
 31
0.0
  0
LINE
  5
22902
  8
0
 10
4557.0664023784911478
 20
258.2874117666431175
 30
0.0
 11
4557.0875396185911086
 21
258.4113208839430058
 31
0.0
  0
LINE
  5
22903
  8
0
 10
4555.2485854699916672
 20
263.2883966266430775
 30
0.0
 11
4555.0477867232912104
 21
263.4167750485431156
 31
0.0
  0
LINE
  5
22904
  8
0
 10
4557.0070437893909912
 20
262.0295279093430736
 30
0.0
 11
4556.8039569294905959
 21
262.1646416663430728
 31
0.0
  0
LINE
  5
22905
  8
0
 10
4557.2016136169913807
 20
258.2879877608430093
 30
0.0
 11
4557.2224958387323568
 21
258.4186925495105243
 31
0.0
  0
LINE
  5
22906
  8
0
 10
4557.0070437893909912
 20
262.5495279093429986
 30
0.0
 11
4556.8039569294905959
 21
262.6846416663429977
 31
0.0
  0
LINE
  5
22907
  8
0
 10
4557.0070437893909912
 20
263.0695279093430941
 30
0.0
 11
4556.8039569294905959
 21
263.2046416663430932
 31
0.0
  0
LINE
  5
22908
  8
0
 10
4557.2281525494900052
 20
263.5107943270430724
 30
0.0
 11
4554.8251525494915768
 21
263.5107943270430724
 31
0.0
  0
LINE
  5
22909
  8
0
 10
4557.3701525364913323
 20
263.9782704140430951
 30
0.0
 11
4554.6831667476908478
 21
263.9782704140430951
 31
0.0
  0
ARC
  5
2290A
  8
0
 10
4550.8611316450906088
 20
273.6432425596431131
 30
0.0
 40
16.5596175340999991
 50
290.7374088657858806
 51
291.1820256400225162
  0
ARC
  5
2290B
  8
0
 10
4554.6476525494899761
 20
258.5362704140430878
 30
0.0
 40
0.04
 50
180.0
 51
270.0000241674115955
  0
ARC
  5
2290C
  8
0
 10
4554.6176525494911402
 20
259.4262704140430742
 30
0.0
 40
0.01
 50
90.0000031282799853
 51
180.0
  0
ARC
  5
2290D
  8
0
 10
4554.6665048683917121
 20
259.4462704140429992
 30
0.0
 40
0.01
 50
270.0
 51
344.9999970360995007
  0
ARC
  5
2290E
  8
0
 10
4554.6216525494910456
 20
259.4862704140430765
 30
0.0
 40
0.01
 50
180.0
 51
270.0
  0
ARC
  5
2290F
  8
0
 10
4555.8267995745909502
 20
260.0782450866431077
 30
0.0
 40
1.8577064744999989
 50
290.6479215083970189
 51
292.6951255011032913
  0
ARC
  5
22910
  8
0
 10
4555.8297564439908456
 20
260.0696885006429966
 30
0.0
 40
1.8486498264999991
 50
284.7787305496036083
 51
286.5950908601453762
  0
ARC
  5
22911
  8
0
 10
4556.0152367432447136
 20
260.459502332797797
 30
0.0
 40
1.4035849194679719
 50
129.6715310062679123
 51
180.0582640821085931
  0
ARC
  5
22912
  8
0
 10
4555.838082537491573
 20
260.7178839570431137
 30
0.0
 40
1.3700000000000001
 50
36.8689220559104101
 51
42.9972540630965625
  0
ARC
  5
22913
  8
0
 10
4555.0111525494912712
 20
263.8309572408430768
 30
0.0
 40
0.3779999999999999
 50
180.0
 51
235.4536195939890888
  0
ARC
  5
22914
  8
0
 10
4555.1016525494906091
 20
263.5010274833430799
 30
0.0
 40
0.1000000000000023
 50
180.0000012032116103
 51
237.4076524488089035
  0
ARC
  5
22915
  8
0
 10
4555.1016525494906091
 20
262.9862704140430765
 30
0.0
 40
0.1
 50
123.6358362024861037
 51
236.3641637975138963
  0
ARC
  5
22916
  8
0
 10
4555.1016525494906091
 20
262.4662704140430947
 30
0.0
 40
0.1
 50
123.6358362024120936
 51
236.3641637975879064
  0
ARC
  5
22917
  8
0
 10
4555.1016525494906091
 20
261.9462704140431129
 30
0.0
 40
0.1
 50
123.6358362024120936
 51
229.7547968559090918
  0
ARC
  5
22918
  8
0
 10
4554.6831525529296414
 20
263.9282704126183035
 30
0.0
 40
0.0500000034396718
 50
89.9837340037514934
 51
179.9999983673465067
  0
ARC
  5
22919
  8
0
 10
4554.8251525494915768
 20
263.5607943270430837
 30
0.0
 40
0.05
 50
235.4536181761936007
 51
270.0
  0
ARC
  5
2291A
  8
0
 10
4555.2216525494914094
 20
263.2462704140431242
 30
0.0
 40
0.05
 50
303.6358362024860753
 51
57.407642288815083
  0
ARC
  5
2291B
  8
0
 10
4555.2216525494914094
 20
262.7262704140430856
 30
0.0
 40
0.05
 50
303.6358362027211228
 51
56.3641637975138607
  0
ARC
  5
2291C
  8
0
 10
4555.2216525494914094
 20
262.2062704140431038
 30
0.0
 40
0.05
 50
303.6358362027211228
 51
56.3641637972789695
  0
ARC
  5
2291D
  8
0
 10
4555.1766525493649169
 20
261.6862704139799121
 30
0.0
 40
0.0500000001299639
 50
317.0050042185592929
 51
49.7547967918072231
  0
ARC
  5
2291E
  8
0
 10
4556.635150100491046
 20
258.8160663044430976
 30
0.0
 40
0.6522729690000001
 50
312.3207770182787044
 51
316.1731096739131885
  0
ARC
  5
2291F
  8
0
 10
4556.4038656934908431
 20
258.6934592058431122
 30
0.0
 40
0.4282609845000001
 50
270.0510635941107012
 51
272.6441617179038985
  0
ARC
  5
22920
  8
0
 10
4556.4069576978899931
 20
258.6325614595430125
 30
0.0
 40
0.3672855384
 50
272.6005883946224913
 51
274.0191382202069121
  0
ARC
  5
22921
  8
0
 10
4556.4041693905910506
 20
258.5948375359430997
 30
0.0
 40
0.3296391537
 50
268.753677300590482
 51
270.0135541422192773
  0
ARC
  5
22922
  8
0
 10
4556.4202974328500204
 20
258.1432183064395076
 30
0.0
 40
0.1266964491693283
 50
82.6318505620277648
 51
100.7960367984402978
  0
ARC
  5
22923
  8
0
 10
4556.6144453725901258
 20
258.1949053015430877
 30
0.0
 40
0.183703492
 50
106.8732946752805049
 51
112.6997170643003017
  0
ARC
  5
22924
  8
0
 10
4556.6112777802900382
 20
258.2051892727430982
 30
0.0
 40
0.1729428493
 50
104.3761980646215051
 51
106.8579761255871006
  0
ARC
  5
22925
  8
0
 10
4556.6081026870915593
 20
258.2179996170431195
 30
0.0
 40
0.1597453417
 50
101.0028073624178973
 51
104.413850737986607
  0
ARC
  5
22926
  8
0
 10
4556.6052485841901216
 20
258.2329969696431249
 30
0.0
 40
0.1444789598
 50
97.7295853246199755
 51
101.026884135286906
  0
ARC
  5
22927
  8
0
 10
4556.6029601964910398
 20
258.2506550809430905
 30
0.0
 40
0.1266735545
 50
94.2555950098754067
 51
97.7781558900884562
  0
ARC
  5
22928
  8
0
 10
4556.026652549490791
 20
260.1582704140431019
 30
0.0
 40
2.1200000000000001
 50
233.8569708879990117
 51
235.7260369154512034
  0
ARC
  5
22929
  8
0
 10
4556.026652549490791
 20
260.1582704140431019
 30
0.0
 40
2.1200000000000001
 50
304.273963084548825
 51
306.1430291120009883
  0
ARC
  5
2292A
  8
0
 10
4556.026652549490791
 20
260.1582704140431019
 30
0.0
 40
2.1200000000000001
 50
299.5067620402072066
 51
299.8142840871685735
  0
ARC
  5
2292B
  8
0
 10
4556.026652549490791
 20
260.1582704140431019
 30
0.0
 40
2.1200000000000001
 50
243.2479969460922007
 51
244.8642641487849119
  0
ARC
  5
2292C
  8
0
 10
4556.026652549490791
 20
260.1582704140431019
 30
0.0
 40
2.1200000000000001
 50
295.1357358512150881
 51
296.7526836703872846
  0
ARC
  5
2292D
  8
0
 10
4556.026652549490791
 20
260.1582704140431019
 30
0.0
 40
2.1200000000000001
 50
231.6248019947938985
 51
233.1976382971336079
  0
ARC
  5
2292E
  8
0
 10
4556.026652549490791
 20
260.1582704140431019
 30
0.0
 40
2.1200000000000001
 50
306.8023617028662784
 51
308.375198005206073
  0
ARC
  5
2292F
  8
0
 10
4556.026652549490791
 20
260.1582704140431019
 30
0.0
 40
2.1200000000000001
 50
292.6964608516984185
 51
294.6738781401631968
  0
ARC
  5
22930
  8
0
 10
4556.026652549490791
 20
260.1582704140431019
 30
0.0
 40
2.1200000000000001
 50
288.4377160777194717
 51
289.2229736541104899
  0
ARC
  5
22931
  8
0
 10
4556.026652549490791
 20
260.1582704140431019
 30
0.0
 40
2.1200000000000001
 50
245.3261218598368032
 51
251.5622839222804998
  0
ARC
  5
22932
  8
0
 10
4556.026652549490791
 20
260.1209873951431177
 30
0.0
 40
2.1077169810999998
 50
251.7517366655135049
 51
258.311609959791781
  0
ARC
  5
22933
  8
0
 10
4556.4047121154899287
 20
259.8135213955430913
 30
0.0
 40
1.5938279373999999
 50
289.1693037942856108
 51
289.9047407477428919
  0
ARC
  5
22934
  8
0
 10
4556.4069777920913111
 20
259.8069655666431004
 30
0.0
 40
1.5868916543
 50
288.2233059879943085
 51
289.1697596602182898
  0
ARC
  5
22935
  8
0
 10
4556.4086036839908047
 20
259.8019906068431055
 30
0.0
 40
1.5816577629999999
 50
286.0775994463821803
 51
288.2237200693793966
  0
ARC
  5
22936
  8
0
 10
4556.5078657166914127
 20
259.6354050597431069
 30
0.0
 40
1.4154086281999989
 50
252.4502358349739097
 51
252.9512799758983874
  0
ARC
  5
22937
  8
0
 10
4556.0380683713628969
 20
260.4595023400465266
 30
0.0
 40
1.4035849038489969
 50
359.9417356213401717
 51
50.3284692989409024
  0
ARC
  5
22938
  8
0
 10
4556.2152225224399444
 20
260.7178839879164798
 30
0.0
 40
1.3699999503150351
 50
137.0027457704173912
 51
143.131077999669003
  0
ARC
  5
22939
  8
0
 10
4557.0053637025393982
 20
258.6111730362741241
 30
0.0
 40
0.4417816761592661
 50
218.9957616020909086
 51
226.601085284289212
  0
ARC
  5
2293A
  8
0
 10
4556.7437402765908701
 20
258.6142175320430852
 30
0.0
 40
0.3473251891
 50
279.421919596398709
 51
282.1624297295130077
  0
ARC
  5
2293B
  8
0
 10
4557.169529591790706
 20
258.1509278462430075
 30
0.0
 40
0.2361416916
 50
111.4374946599944991
 51
112.1687664384856049
  0
ARC
  5
2293C
  8
0
 10
4557.1530573648906284
 20
258.1933844691430977
 30
0.0
 40
0.1906020734
 50
109.7560965553183934
 51
111.4930087001075947
  0
ARC
  5
2293D
  8
0
 10
4557.4243867359900833
 20
259.2192704140430806
 30
0.0
 40
0.0725
 50
287.0569183506872832
 51
72.9430816493126741
  0
ARC
  5
2293E
  8
0
 10
4557.4056525444766521
 20
258.5362704161195779
 30
0.0
 40
0.0400000050133043
 50
269.9780447082758883
 51
359.9999970255183825
  0
ARC
  5
2293F
  8
0
 10
4557.4356525494913512
 20
259.4262704140430742
 30
0.0
 40
0.01
 50
0.0
 51
89.9999968717200005
  0
ARC
  5
22940
  8
0
 10
4557.386800230490735
 20
259.4462704140429992
 30
0.0
 40
0.01
 50
195.0000029638989076
 51
270.0
  0
ARC
  5
22941
  8
0
 10
4557.4316525494923553
 20
259.4862704140430765
 30
0.0
 40
0.01
 50
270.0
 51
0.0
  0
ARC
  5
22942
  8
0
 10
4557.0421525494912203
 20
263.8309572408431904
 30
0.0
 40
0.3780000000001243
 50
304.5463804060128155
 51
0.0000227212491797
  0
ARC
  5
22943
  8
0
 10
4556.9516525494909729
 20
263.5010274833430799
 30
0.0
 40
0.1
 50
302.5923475511909828
 51
0.0
  0
ARC
  5
22944
  8
0
 10
4556.9516525494909729
 20
262.9862704140430765
 30
0.0
 40
0.1
 50
303.6358362024860753
 51
56.3641637975138607
  0
ARC
  5
22945
  8
0
 10
4556.9516525494909729
 20
262.4662704140430947
 30
0.0
 40
0.1
 50
303.635836202412122
 51
56.3641637975879206
  0
ARC
  5
22946
  8
0
 10
4556.9516525494909729
 20
261.9462704140431129
 30
0.0
 40
0.1
 50
310.2452031440907945
 51
56.3641637975879206
  0
ARC
  5
22947
  8
0
 10
4557.3701525494907401
 20
263.9282704140430837
 30
0.0
 40
0.05
 50
0.0
 51
90.0000147995074826
  0
ARC
  5
22948
  8
0
 10
4557.2281525494900052
 20
263.5607943270430837
 30
0.0
 40
0.05
 50
270.0
 51
304.5463818238064277
  0
ARC
  5
22949
  8
0
 10
4556.831652549491082
 20
263.2462704140431242
 30
0.0
 40
0.05
 50
122.5923577113017018
 51
236.3641637975138963
  0
ARC
  5
2294A
  8
0
 10
4556.831652549491082
 20
262.7262704140430856
 30
0.0
 40
0.05
 50
123.6358362024861037
 51
236.3641637972789908
  0
ARC
  5
2294B
  8
0
 10
4556.831652549491082
 20
262.2062704140431038
 30
0.0
 40
0.05
 50
123.6358362027209949
 51
236.3641637972789908
  0
ARC
  5
2294C
  8
0
 10
4556.8766525495093447
 20
261.6862704140339133
 30
0.0
 40
0.0500000000188014
 50
130.2452031536361972
 51
222.9949958304914901
  0
LINE
  5
2294D
  8
0
 10
4556.9976375230917256
 20
258.2656926391430829
 30
0.0
 11
4556.9827562018899698
 21
258.2651983914431071
 31
0.0
  0
LINE
  5
2294E
  8
0
 10
4556.7448489893913575
 20
258.2653190984431149
 30
0.0
 11
4556.7362986852913309
 21
258.2651983914431071
 31
0.0
  0
LINE
  5
2294F
  8
0
 10
4557.1683325424910436
 20
258.2694692470429914
 30
0.0
 11
4557.1138935073895482
 21
258.2651983914431071
 31
0.0
  0
LINE
  5
22950
  8
0
 10
4556.3965654941875982
 20
258.2676722550287991
 30
0.0
 11
4556.4042051127917148
 21
258.2666147956430791
 31
0.0
  0
LINE
  5
22951
  8
0
 10
4556.4042051127917148
 20
258.2666147956430791
 30
0.0
 11
4556.4097411397906399
 21
258.2665272991430925
 31
0.0
  0
LINE
  5
22952
  8
0
 10
4557.1113231294912111
 20
258.3762550474431237
 30
0.0
 11
4557.1099403558910126
 21
258.3769709040431053
 31
0.0
  0
LINE
  5
22953
  8
0
 10
4557.1099403558910126
 20
258.3769709040431053
 30
0.0
 11
4557.107177377491098
 21
258.3772868606430961
 31
0.0
  0
LINE
  5
22954
  8
0
 10
4557.107177377491098
 20
258.3772868606430961
 30
0.0
 11
4557.1042285059902497
 21
258.3770526529431208
 31
0.0
  0
LINE
  5
22955
  8
0
 10
4557.1042285059902497
 20
258.3770526529431208
 30
0.0
 11
4557.0989701142907506
 21
258.3759942659431204
 31
0.0
  0
LINE
  5
22956
  8
0
 10
4557.0989701142907506
 20
258.3759942659431204
 30
0.0
 11
4557.0951457860910523
 21
258.3749315553430961
 31
0.0
  0
LINE
  5
22957
  8
0
 10
4557.0951457860910523
 20
258.3749315553430961
 30
0.0
 11
4557.0886306501906802
 21
258.3727677147430768
 31
0.0
  0
ARC
  5
22958
  8
0
 10
4557.4322068432138622
 20
259.4404245901216086
 30
0.0
 40
0.154910534150704
 50
257.1635231895220954
 51
274.9793438429194907
  0
ARC
  5
22959
  8
0
 10
4557.4322068432138622
 20
258.9981162379646094
 30
0.0
 40
0.154910534150704
 50
85.0206561570805235
 51
102.8364758506953933
  0
ARC
  5
2295A
  8
0
 10
4557.3565272611822365
 20
259.160023741690793
 30
0.0
 40
0.1357834093496942
 50
72.3086033822697232
 51
104.0059106973444045
  0
ARC
  5
2295B
  8
0
 10
4557.3576446447286799
 20
259.2437866597985021
 30
0.0
 40
0.1027948892584325
 50
250.6971863628097026
 51
292.9883003217545934
  0
ARC
  5
2295C
  8
0
 10
4557.2229727446410834
 20
258.2977826178370719
 30
0.0
 40
0.8549380948262773
 50
83.2361824166497684
 51
96.7638175833502601
  0
ARC
  5
2295D
  8
0
 10
4557.2229727446410834
 20
259.8397814462147721
 30
0.0
 40
0.55718485196603
 50
259.5885609166339805
 51
280.4114390833660195
  0
ARC
  5
2295E
  8
0
 10
4557.061908966640658
 20
259.4995276549984737
 30
0.0
 40
0.3578860561853709
 50
260.2883328960929248
 51
279.7116671039070752
  0
ARC
  5
2295F
  8
0
 10
4557.061908966640658
 20
259.0360829265632105
 30
0.0
 40
0.2627181939250224
 50
76.7148839523299273
 51
103.2851160476701011
  0
ARC
  5
22960
  8
0
 10
4556.8386141439395942
 20
256.104051712235389
 30
0.0
 40
3.04707745209235
 50
86.9350128232179742
 51
93.0649871767820258
  0
ARC
  5
22961
  8
0
 10
4556.8386141439395942
 20
260.9788260580049268
 30
0.0
 40
1.6949043178134959
 50
264.4839154639769845
 51
275.5160845360229018
  0
ARC
  5
22962
  8
0
 10
4556.5932671653399666
 20
259.6555592876014771
 30
0.0
 40
0.5154219938349736
 50
260.7980058804512851
 51
279.2019941195487149
  0
ARC
  5
22963
  8
0
 10
4556.5932671653399666
 20
258.9320703695133261
 30
0.0
 40
0.3690228121766339
 50
77.0936918387592414
 51
102.9063081612407018
  0
ARC
  5
22964
  8
0
 10
4556.3138600071415567
 20
266.9749898054383266
 30
0.0
 40
7.6857441139734037
 50
268.5313666334093909
 51
271.4686333665904954
  0
ARC
  5
22965
  8
0
 10
4556.3138600071415567
 20
256.183673850972923
 30
0.0
 40
2.9696369494002668
 50
86.1966403684757267
 51
93.8033596315242733
  0
ARC
  5
22966
  8
0
 10
4556.0266525494416783
 20
258.9029797780793274
 30
0.0
 40
0.3991222629085251
 50
76.9349724276398064
 51
103.0650275723601936
  0
ARC
  5
22967
  8
0
 10
4556.0266525494416783
 20
259.7032850276885938
 30
0.0
 40
0.5637809302708892
 50
260.7911127328695216
 51
279.2088872671304784
  0
ARC
  5
22968
  8
0
 10
4556.2398507232855991
 20
257.7677694726052096
 30
0.0
 40
0.2891115126298544
 50
93.5822828552486072
 51
101.7729744193402013
  0
ARC
  5
22969
  8
0
 10
4556.2387280062912396
 20
257.8381430833679246
 30
0.0
 40
0.2188297869953843
 50
86.4113509433192348
 51
94.4402086765278312
  0
ARC
  5
2296A
  8
0
 10
4556.2490244667997104
 20
258.0023973739238272
 30
0.0
 40
0.0542530906815512
 50
76.0375298715396752
 51
86.4062131680724264
  0
ARC
  5
2296B
  8
0
 10
4556.2595828528155835
 20
258.0448180404139862
 30
0.0
 40
0.0105381979247354
 50
58.4653480236322665
 51
76.0968085482033132
  0
ARC
  5
2296C
  8
0
 10
4556.2636850316721393
 20
258.0515091458344159
 30
0.0
 40
0.0026897124615197
 50
32.6974319165025591
 51
58.3980934833532288
  0
ARC
  5
2296D
  8
0
 10
4556.2647889846730322
 20
258.0522447965137189
 30
0.0
 40
0.0013634862320212
 50
0.5442554862474697
 51
31.742763290108801
  0
ARC
  5
2296E
  8
0
 10
4556.2644510533964421
 20
258.052312482774596
 30
0.0
 40
0.0017022362064079
 50
321.541068508406795
 51
358.1573626351731718
  0
ARC
  5
2296F
  8
0
 10
4556.2614581787265706
 20
258.0546282252598758
 30
0.0
 40
0.0054863140160849
 50
301.8530181419092742
 51
322.0431637936472953
  0
ARC
  5
22970
  8
0
 10
4556.247030976654969
 20
258.0797549360141829
 30
0.0
 40
0.0344575863214091
 50
284.3631128013814759
 51
300.180199570404227
  0
ARC
  5
22971
  8
0
 10
4556.2179384784385547
 20
258.1767313574820264
 30
0.0
 40
0.135682455890838
 50
280.4449351000459956
 51
286.1059465431732747
  0
ARC
  5
22972
  8
0
 10
4556.1923717855897848
 20
258.3088600509391881
 30
0.0
 40
0.2702593380861127
 50
277.0090457799528849
 51
280.6970857284256908
  0
ARC
  5
22973
  8
0
 10
4556.1846805474206121
 20
258.3672203484459828
 30
0.0
 40
0.3291224332330988
 50
272.3882746497620815
 51
277.0982276515247236
  0
ARC
  5
22974
  8
0
 10
4556.1889618618397435
 20
258.2336200331528744
 30
0.0
 40
0.1954640133285552
 50
266.1867898362173719
 51
272.7663197835246933
  0
ARC
  5
22975
  8
0
 10
4556.1779257002426675
 20
258.0833290607739059
 30
0.0
 40
0.0447833568210028
 50
253.3930173774421064
 51
267.4877760737650192
  0
ARC
  5
22976
  8
0
 10
4556.1665369742868279
 20
258.0457495514785933
 30
0.0
 40
0.0055191369715371
 50
220.9693615399320095
 51
255.1919656308232902
  0
ARC
  5
22977
  8
0
 10
4556.2026313900432797
 20
257.948806280961719
 30
0.0
 40
0.1042902260598228
 50
102.0484072149040031
 51
108.2297463151474943
  0
ARC
  5
22978
  8
0
 10
4556.180150654494355
 20
258.0166116299728856
 30
0.0
 40
0.0328557405910421
 50
107.9838519325081023
 51
117.2368234563212042
  0
ARC
  5
22979
  8
0
 10
4556.1696843563931907
 20
258.0368037574748996
 30
0.0
 40
0.0101125681636606
 50
116.8713750409777958
 51
131.3296741185426981
  0
ARC
  5
2297A
  8
0
 10
4556.1648651105497265
 20
258.0422563061350161
 30
0.0
 40
0.0028356008453592
 50
130.9646226044125967
 51
158.1145445664510021
  0
ARC
  5
2297B
  8
0
 10
4556.1634767698469659
 20
258.0428570660484979
 30
0.0
 40
0.0013239850577377
 50
159.8439382611975077
 51
213.2621230169629882
  0
ARC
  5
2297C
  8
0
 10
4555.6178232483762258
 20
258.1139028993001716
 30
0.0
 40
0.0885808466555437
 50
86.2629211066924029
 51
101.340449947359204
  0
ARC
  5
2297D
  8
0
 10
4555.6134111628398387
 20
258.0205138547972865
 30
0.0
 40
0.1820666745660958
 50
72.8122975494646028
 51
86.7929458899908752
  0
ARC
  5
2297E
  8
0
 10
4555.6313874031484374
 20
258.0724100171872806
 30
0.0
 40
0.1271893486187327
 50
61.1609786515635534
 51
73.6402934886428966
  0
ARC
  5
2297F
  8
0
 10
4555.6751277822277189
 20
258.1489547433845928
 30
0.0
 40
0.0390645243567559
 50
38.7921146024595913
 51
63.2063526658345936
  0
ARC
  5
22980
  8
0
 10
4555.6979160531482194
 20
258.1674002698067056
 30
0.0
 40
0.0097472501853393
 50
2.7311384589038741
 51
38.2036040748862717
  0
ARC
  5
22981
  8
0
 10
4555.7014350676017784
 20
258.167852149730777
 30
0.0
 40
0.0062171767959058
 50
332.4299454673993068
 51
0.1158399878384067
  0
ARC
  5
22982
  8
0
 10
4555.6987151525709123
 20
258.1695641740521978
 30
0.0
 40
0.0094241673196109
 50
302.4045543806611818
 51
330.8566312100625169
  0
ARC
  5
22983
  8
0
 10
4555.6908260411419178
 20
258.1820172380834038
 30
0.0
 40
0.0241658367768716
 50
284.2805135209968057
 51
302.3740638348365906
  0
ARC
  5
22984
  8
0
 10
4555.6791195071673428
 20
258.2304424764226951
 30
0.0
 40
0.0739847986997383
 50
268.8638748329631198
 51
283.8156762201239189
  0
ARC
  5
22985
  8
0
 10
4555.6793773905401395
 20
258.3231919144516837
 30
0.0
 40
0.1667286141611352
 50
258.3871876958421012
 51
269.4072530632569737
  0
ARC
  5
22986
  8
0
 10
4555.6782448023777761
 20
258.3271569113387045
 30
0.0
 40
0.1703951397064813
 50
247.0396038646788099
 51
259.0286181426844792
  0
ARC
  5
22987
  8
0
 10
4555.6380446413922982
 20
258.2352730770637095
 30
0.0
 40
0.0701187496334637
 50
230.6086699121914876
 51
247.9972281154329892
  0
ARC
  5
22988
  8
0
 10
4555.6059958983350953
 20
258.196210482668107
 30
0.0
 40
0.0195914642517892
 50
205.165303637521788
 51
230.5459822871511903
  0
ARC
  5
22989
  8
0
 10
4555.5945434887544252
 20
258.1907192649377976
 30
0.0
 40
0.0068917526528358
 50
148.3707794621682865
 51
204.3331215450726006
  0
ARC
  5
2298A
  8
0
 10
4555.603020191874748
 20
258.1820528082669171
 30
0.0
 40
0.0188834798265797
 50
97.9609865401114348
 51
139.4329631803688869
  0
ARC
  5
2298B
  8
0
 10
4555.7172457352880883
 20
258.1670222485174122
 30
0.0
 40
0.0520621560518149
 50
98.7033337118774057
 51
114.0615344577089019
  0
ARC
  5
2298C
  8
0
 10
4555.7265647300609999
 20
258.1056548304085254
 30
0.0
 40
0.1141330924781434
 50
85.1216444274221544
 51
98.6660203310331525
  0
ARC
  5
2298D
  8
0
 10
4555.724518025254838
 20
258.0612903738011141
 30
0.0
 40
0.1585203698652566
 50
72.7412946180410529
 51
85.7482101577882787
  0
ARC
  5
2298E
  8
0
 10
4555.744611191174954
 20
258.1213645858147174
 30
0.0
 40
0.0951994220123955
 50
57.4226205648064578
 51
73.5629988758086171
  0
ARC
  5
2298F
  8
0
 10
4555.7781365206428745
 20
258.173513714259002
 30
0.0
 40
0.0332043016966785
 50
37.6612014918345182
 51
57.7186290430158095
  0
ARC
  5
22990
  8
0
 10
4555.7939016327345598
 20
258.1856135794595275
 30
0.0
 40
0.0133312462818647
 50
12.1919734685874008
 51
37.8917257946251027
  0
ARC
  5
22991
  8
0
 10
4555.7985698185193542
 20
258.1867087772646983
 30
0.0
 40
0.0085374761428439
 50
336.0974157271783156
 51
11.6239914629167398
  0
ARC
  5
22992
  8
0
 10
4555.7950517220197071
 20
258.1887443529046777
 30
0.0
 40
0.0125861633231438
 50
304.8396380348864909
 51
334.114393048128818
  0
ARC
  5
22993
  8
0
 10
4555.781955465813553
 20
258.2089707325167183
 30
0.0
 40
0.0366775585063345
 50
279.7198787653071008
 51
303.5802114072985773
  0
ARC
  5
22994
  8
0
 10
4555.7675906984268295
 20
258.2828491402985946
 30
0.0
 40
0.1119333533660509
 50
265.0680006788060723
 51
280.5827101460744757
  0
ARC
  5
22995
  8
0
 10
4555.7688232889777282
 20
258.327057590966092
 30
0.0
 40
0.1561052909245253
 50
249.9053585911437949
 51
266.0123172002694787
  0
ARC
  5
22996
  8
0
 10
4555.7394646094935524
 20
258.2498363509690762
 30
0.0
 40
0.0735053346693626
 50
232.6784697613207982
 51
250.7164052894162012
  0
ARC
  5
22997
  8
0
 10
4555.7072986399070942
 20
258.2086546424047242
 30
0.0
 40
0.0212627460928457
 50
203.8126378448523894
 51
234.3275665492888891
  0
ARC
  5
22998
  8
0
 10
4555.6961765344021842
 20
258.2036622339675205
 30
0.0
 40
0.0090721137786573
 50
152.4835270685196065
 51
203.3270259399176894
  0
ARC
  5
22999
  8
0
 10
4555.702579100834555
 20
258.1988526914432214
 30
0.0
 40
0.0170227212197367
 50
112.6666155709517056
 51
148.0784560097528129
  0
ARC
  5
2299A
  8
0
 10
4555.9799300974927974
 20
258.3729603036592835
 30
0.0
 40
0.028614537730539
 50
166.902484706860406
 51
194.1494194406083125
  0
ARC
  5
2299B
  8
0
 10
4555.9866514951199861
 20
258.3709289932069169
 30
0.0
 40
0.0356243070219009
 50
140.3676775527127063
 51
166.1701294912066942
  0
ARC
  5
2299C
  8
0
 10
4556.0087598901118326
 20
258.3509083064855076
 30
0.0
 40
0.0654347862160727
 50
108.8355399372550067
 51
139.2144359253653931
  0
ARC
  5
2299D
  8
0
 10
4556.0261159703859448
 20
258.3075663319191904
 30
0.0
 40
0.1120856436935394
 50
97.2562440276499842
 51
110.0796259390252061
  0
ARC
  5
2299E
  8
0
 10
4556.0408140481922601
 20
258.3441184916042062
 30
0.0
 40
0.0730778894009901
 50
49.1146627556317981
 51
70.114385009670471
  0
ARC
  5
2299F
  8
0
 10
4556.0609632877622062
 20
258.3673929273242038
 30
0.0
 40
0.0422932956611958
 50
25.9901503585511513
 51
49.1133457426158415
  0
ARC
  5
229A0
  8
0
 10
4556.0723923718942387
 20
258.3729780734694828
 30
0.0
 40
0.0295725402219801
 50
346.2825901156709278
 51
25.9670902651595412
  0
ARC
  5
229A1
  8
0
 10
4556.3657197463026023
 20
258.3577550350395882
 30
0.0
 40
0.0238986032479649
 50
174.709163915359909
 51
195.5836514321347011
  0
ARC
  5
229A2
  8
0
 10
4556.3743306179831052
 20
258.356805813850201
 30
0.0
 40
0.0325606677674577
 50
152.1985576582335966
 51
174.4431775673253071
  0
ARC
  5
229A3
  8
0
 10
4556.4044706331051202
 20
258.339742423427424
 30
0.0
 40
0.067188105641873
 50
124.6306757039028952
 51
151.3149039724958129
  0
ARC
  5
229A4
  8
0
 10
4556.4405330713416333
 20
258.2923941239151873
 30
0.0
 40
0.1266717359585454
 50
107.8802816448218067
 51
125.8819012703862938
  0
ARC
  5
229A5
  8
0
 10
4556.4436722444334009
 20
258.286347316303079
 30
0.0
 40
0.1333950957949207
 50
94.2925665773122859
 51
108.3660762403516031
  0
ARC
  5
229A6
  8
0
 10
4556.4413740879799661
 20
258.3235272512068263
 30
0.0
 40
0.0961486951979791
 50
79.1815637209815151
 51
94.5852685259781936
  0
ARC
  5
229A7
  8
0
 10
4556.4503948435822167
 20
258.3663834312673089
 30
0.0
 40
0.0523673946207661
 50
54.7812620408105886
 51
80.0748722969790236
  0
ARC
  5
229A8
  8
0
 10
4556.4646881416329052
 20
258.3867539001648197
 30
0.0
 40
0.0274827635341318
 50
20.6924385396952601
 51
54.6339936371710166
  0
ARC
  5
229A9
  8
0
 10
4556.4664790020406144
 20
258.3880921537397057
 30
0.0
 40
0.0253421204142505
 50
346.7955172091428153
 51
19.2925344987756695
  0
ARC
  5
229AA
  8
0
 10
4556.7010734045152276
 20
258.3441083758099808
 30
0.0
 40
0.0152733268352551
 50
175.5145883097289072
 51
196.7937968096562997
  0
ARC
  5
229AB
  8
0
 10
4556.7140164529591857
 20
258.3425591723639059
 30
0.0
 40
0.0283028951319158
 50
148.9224434293500963
 51
174.4370610545385034
  0
ARC
  5
229AC
  8
0
 10
4556.753327887994601
 20
258.3198614784179767
 30
0.0
 40
0.0736933681406528
 50
134.0037245939151944
 51
149.5853454512786982
  0
ARC
  5
229AD
  8
0
 10
4556.8124888015836405
 20
258.2581983142961235
 30
0.0
 40
0.1591469945498869
 50
119.8067145871766996
 51
133.9016276327706976
  0
ARC
  5
229AE
  8
0
 10
4556.8321641025186182
 20
258.2272915338101029
 30
0.0
 40
0.1957526074488093
 50
109.0973481551712041
 51
120.3070512725236938
  0
ARC
  5
229AF
  8
0
 10
4556.8154579692281914
 20
258.277407708903695
 30
0.0
 40
0.142930109972293
 50
99.2160866200820237
 51
109.3418858671964955
  0
ARC
  5
229B0
  8
0
 10
4556.8062215935160566
 20
258.3369426582116262
 30
0.0
 40
0.0826854506187467
 50
86.6072202693000861
 51
99.5056465777118149
  0
ARC
  5
229B1
  8
0
 10
4556.8101598784687667
 20
258.3866829353580101
 30
0.0
 40
0.0328141524800848
 50
57.9832475364782098
 51
88.3321151697782625
  0
ARC
  5
229B2
  8
0
 10
4556.8192006450863119
 20
258.4021418225772209
 30
0.0
 40
0.0149229718936512
 50
23.5022888792547988
 51
55.9471847132847628
  0
ARC
  5
229B3
  8
0
 10
4556.8175415210371284
 20
258.401956611390176
 30
0.0
 40
0.0165256406663539
 50
347.2395814253349045
 51
21.7969665245998314
  0
ARC
  5
229B4
  8
0
 10
4556.9479748807298165
 20
258.3336695607933962
 30
0.0
 40
0.0065061306583032
 50
174.0814370225195091
 51
197.4678140987240909
  0
ARC
  5
229B5
  8
0
 10
4556.9557308636303787
 20
258.3326727144242909
 30
0.0
 40
0.0143248433813854
 50
152.8609258645005013
 51
173.3143581673664926
  0
ARC
  5
229B6
  8
0
 10
4556.9821326645096633
 20
258.3191178793264839
 30
0.0
 40
0.0440029249174922
 50
138.466045198752397
 51
152.8358707632501989
  0
ARC
  5
229B7
  8
0
 10
4557.0606399094640437
 20
258.2495783593373062
 30
0.0
 40
0.1488796732973428
 50
127.125929477462293
 51
138.4662782226986053
  0
ARC
  5
229B8
  8
0
 10
4557.1688912347790392
 20
258.1126329953622758
 30
0.0
 40
0.3234254720892247
 50
119.420055958830801
 51
127.773259825352298
  0
ARC
  5
229B9
  8
0
 10
4557.1566815785918152
 20
258.1382331871196243
 30
0.0
 40
0.2951355182881045
 50
112.3624545853021033
 51
119.7966615781254944
  0
ARC
  5
229BA
  8
0
 10
4557.0960262241142118
 20
258.2882709698358212
 30
0.0
 40
0.133307716902771
 50
101.8013126843606955
 51
112.7880647423973954
  0
ARC
  5
229BB
  8
0
 10
4557.0769446100821369
 20
258.3804818624270752
 30
0.0
 40
0.0391437870355331
 50
85.6615247126761687
 51
102.065591021748503
  0
ARC
  5
229BC
  8
0
 10
4557.0790879238156776
 20
258.4077343831352209
 30
0.0
 40
0.0118074604897555
 50
61.1217781766673411
 51
86.0282031853924849
  0
ARC
  5
229BD
  8
0
 10
4557.0820732077718276
 20
258.4131935241583733
 30
0.0
 40
0.0055854770977091
 50
15.8151890097780505
 51
60.8916756177528598
  0
ARC
  5
229BE
  8
0
 10
4557.0797904291457598
 20
258.4128087412203172
 30
0.0
 40
0.0078907323073333
 50
349.1313826454438072
 51
13.9856457689298299
  0
ARC
  5
229BF
  8
0
 10
4557.0794492287586763
 20
258.3906370801294088
 30
0.0
 40
0.037145439745305
 50
315.0170831192427272
 51
328.3576625997263818
  0
ARC
  5
229C0
  8
0
 10
4557.1033928075039512
 20
258.3756058571112817
 30
0.0
 40
0.0088788420727028
 50
329.8776063597381949
 51
346.7517817278662164
  0
ARC
  5
229C1
  8
0
 10
4557.1092669997879057
 20
258.3743247802015048
 30
0.0
 40
0.0028691143918817
 50
344.7702472249494008
 51
30.0676076436801587
  0
ARC
  5
229C2
  8
0
 10
4557.109779577682275
 20
258.3744865407164184
 30
0.0
 40
0.0023473747527142
 50
32.9201660711827273
 51
48.8855601234443213
  0
ARC
  5
229C3
  8
0
 10
4557.0785231715190093
 20
258.3279354341206044
 30
0.0
 40
0.0008856273213953
 50
168.3243030235757089
 51
196.6303917232638128
  0
ARC
  5
229C4
  8
0
 10
4557.0805698802059851
 20
258.3274457744431061
 30
0.0
 40
0.0029897942776547
 50
145.3055417407501011
 51
167.0722019591437117
  0
ARC
  5
229C5
  8
0
 10
4557.0897807710844063
 20
258.3214332427344857
 30
0.0
 40
0.0139885166879953
 50
136.0443629856002872
 51
146.5317105099209982
  0
ARC
  5
229C6
  8
0
 10
4557.1407756456446805
 20
258.2711376014731854
 30
0.0
 40
0.0856126834668685
 50
127.7861768850159052
 51
135.5015346831121121
  0
ARC
  5
229C7
  8
0
 10
4557.4304906377992666
 20
257.9000265139346197
 30
0.0
 40
0.556418198995691
 50
122.9511865134116988
 51
127.9485375152296029
  0
ARC
  5
229C8
  8
0
 10
4557.6986635997973281
 20
257.5092750812769964
 30
0.0
 40
1.0302526757231509
 50
119.6038818661602932
 51
123.6460316340950953
  0
ARC
  5
229C9
  8
0
 10
4557.3076899643047
 20
258.2037304528997197
 30
0.0
 40
0.2333301412565813
 50
113.5911436360313047
 51
120.3712652938279035
  0
ARC
  5
229CA
  8
0
 10
4557.2255578771791988
 20
258.3926446013102804
 30
0.0
 40
0.0273367773465953
 50
98.9209718981689576
 51
114.2974283329032943
  0
ARC
  5
229CB
  8
0
 10
4556.1890971063849065
 20
258.606017937689785
 30
0.0
 40
0.337811967167831
 50
253.4533196602505996
 51
267.9154111482151848
  0
ARC
  5
229CC
  8
0
 10
4556.1929909815153223
 20
258.6920634680520266
 30
0.0
 40
0.4239428768961745
 50
267.8125081228644717
 51
284.8052120744437161
  0
ARC
  5
229CD
  8
0
 10
4557.1199627820024034
 20
258.7074051782161064
 30
0.0
 40
0.5914086024914768
 50
216.2019179445107966
 51
219.2552029013307049
  0
ARC
  5
229CE
  8
0
 10
4556.5951565838759052
 20
258.328458791927801
 30
0.0
 40
0.0560530247063631
 50
31.9247716261224603
 51
44.857676642121433
  0
ARC
  5
229CF
  8
0
 10
4556.6158121844564448
 20
258.3458668840373207
 30
0.0
 40
0.0292174936207256
 50
49.2339438331178201
 51
65.8470264838048251
  0
ARC
  5
229D0
  8
0
 10
4556.6059866335872357
 20
258.3218702780105218
 30
0.0
 40
0.0551403140023975
 50
66.7338301448091613
 51
85.1247807468905933
  0
ARC
  5
229D1
  8
0
 10
4556.6012012109240459
 20
258.2838194698321104
 30
0.0
 40
0.0934727473656989
 50
84.1842473232922401
 51
94.6888793619894358
  0
ARC
  5
229D2
  8
0
 10
4556.7350617450601931
 20
258.3876510914194
 30
0.0
 40
0.122458947213471
 50
265.0926897717055795
 51
270.5787462781909767
  0
ARC
  5
229D3
  8
0
 10
4556.7265865963690885
 20
258.2919026298624772
 30
0.0
 40
0.0263376824496755
 50
246.257758180897099
 51
265.6438902333155738
  0
ARC
  5
229D4
  8
0
 10
4556.724506271080827
 20
258.2866001492428154
 30
0.0
 40
0.0206476738631884
 50
223.5804599738393108
 51
245.6177350527242993
  0
ARC
  5
229D5
  8
0
 10
4556.7242196500819773
 20
258.2863038435453973
 30
0.0
 40
0.0202357857827208
 50
197.2732642365832874
 51
223.5321638422111903
  0
ARC
  5
229D6
  8
0
 10
4556.7313799937392105
 20
258.7632693653233105
 30
0.0
 40
0.4981323941784807
 50
271.5494087107630889
 51
275.6312532589411717
  0
ARC
  5
229D7
  8
0
 10
4556.7632075706324031
 20
258.4405668480732174
 30
0.0
 40
0.173864127027627
 50
275.6284357060200136
 51
279.6236154590657748
  0
ARC
  5
229D8
  8
0
 10
4556.7867847415791402
 20
258.3036671386882972
 30
0.0
 40
0.0349513063116595
 50
279.034852594164704
 51
292.2470649543517993
  0
ARC
  5
229D9
  8
0
 10
4556.7912749997822175
 20
258.2916190306203248
 30
0.0
 40
0.0221037619031895
 50
293.2980381496022915
 51
306.9587079180631122
  0
ARC
  5
229DA
  8
0
 10
4556.7921596814612712
 20
258.290323236982772
 30
0.0
 40
0.0205365547306123
 50
307.1600314414682771
 51
326.5233047669673851
  0
ARC
  5
229DB
  8
0
 10
4556.7923689950002881
 20
258.290148436387085
 30
0.0
 40
0.0202655672654867
 50
326.6091007589354263
 51
349.1500565258559732
  0
ARC
  5
229DC
  8
0
 10
4556.7230008872129474
 20
258.7089137951005
 30
0.0
 40
0.4442654955365725
 50
282.2040741511780766
 51
286.1569478775393804
  0
ARC
  5
229DD
  8
0
 10
4557.1136476832189146
 20
258.286178528627886
 30
0.0
 40
0.0209815772958129
 50
250.2115648528202883
 51
270.671303669057977
  0
ARC
  5
229DE
  8
0
 10
4557.1133974738077086
 20
258.2852635348194781
 30
0.0
 40
0.0200360446733343
 50
226.1635544687071047
 51
249.9989933788816927
  0
ARC
  5
229DF
  8
0
 10
4557.1133838954856401
 20
258.2852479996632837
 30
0.0
 40
0.0200154345048775
 50
198.930168296181904
 51
226.1607910233308019
  0
ARC
  5
229E0
  8
0
 10
4557.1361370964687012
 20
258.6349943306894943
 30
0.0
 40
0.3669402315354691
 50
275.0336214689476151
 51
277.5558371231056753
  0
ARC
  5
229E1
  8
0
 10
4557.1815562152933126
 20
258.2915696637300016
 30
0.0
 40
0.0205256212807373
 50
277.9269823601616736
 51
312.1550942543437941
  0
ARC
  5
229E2
  8
0
 10
4557.181848808741961
 20
258.2911464441568228
 30
0.0
 40
0.0200156170379575
 50
312.3472605521118908
 51
350.9201419512385769
  0
ARC
  5
229E3
  8
0
 10
4556.9816177402663016
 20
258.3062649723080995
 30
0.0
 40
0.0410823582430799
 50
260.5983320314293792
 51
271.5879662363029183
  0
ARC
  5
229E4
  8
0
 10
4556.9786413988040294
 20
258.2862533582443234
 30
0.0
 40
0.0208560054379134
 50
233.1866664371021898
 51
259.6844912034475783
  0
ARC
  5
229E5
  8
0
 10
4556.97825505460969
 20
258.2856319521508794
 30
0.0
 40
0.0201271101987047
 50
212.076470339446189
 51
233.0071857644227862
  0
ARC
  5
229E6
  8
0
 10
4556.9782554384428295
 20
258.2856269687205213
 30
0.0
 40
0.0201247894696526
 50
198.3658945061932002
 51
212.0638679954211057
  0
ARC
  5
229E7
  8
0
 10
4556.9568292290614409
 20
259.0216016813093916
 30
0.0
 40
0.7570097733124067
 50
273.0901542082050923
 51
274.7391429823401268
  0
ARC
  5
229E8
  8
0
 10
4556.9659034662572594
 20
258.9211892975744718
 30
0.0
 40
0.6561913995434783
 50
274.6739001476373119
 51
275.7889231152146863
  0
ARC
  5
229E9
  8
0
 10
4557.007619735211847
 20
258.5244880465273809
 30
0.0
 40
0.2573098847307793
 50
275.456990905283817
 51
278.6200257396736788
  0
ARC
  5
229EA
  8
0
 10
4557.0433468090759561
 20
258.2971825390284266
 30
0.0
 40
0.0272461081067738
 50
275.9804931339753011
 51
301.1407584253449841
  0
ARC
  5
229EB
  8
0
 10
4557.046497936970809
 20
258.2908541522767791
 30
0.0
 40
0.0202082639369097
 50
302.7730371893625261
 51
329.1820937449983262
  0
ARC
  5
229EC
  8
0
 10
4557.0465976539735493
 20
258.2907929707141079
 30
0.0
 40
0.0200912830399936
 50
329.186247777560709
 51
350.3114674470597834
  0
ARC
  5
229ED
  8
0
 10
4557.0311854274996222
 20
258.0404163236743216
 30
0.0
 40
0.2293807313211377
 50
89.330890195770877
 51
99.3348599993121582
  0
ARC
  5
229EE
  8
0
 10
4556.9966575906983053
 20
258.4961245207688876
 30
0.0
 40
0.2293807477620939
 50
269.330890564423612
 51
279.3348596491309763
  0
ARC
  5
229EF
  8
0
 10
4556.7678012998358099
 20
258.1194194834474729
 30
0.0
 40
0.150421471286251
 50
85.5785737270975631
 51
100.8588892963061028
  0
ARC
  5
229F0
  8
0
 10
4556.7511024706709577
 20
258.4163581139602002
 30
0.0
 40
0.1496638553426675
 50
265.5396657067483943
 51
280.8977973166678908
  0
ARC
  5
229F1
  8
0
 10
4556.3993595393640135
 20
258.4181807779597193
 30
0.0
 40
0.1529226235534351
 50
263.9999557307359055
 51
269.1157256452347042
  0
ARC
  5
229F2
  8
0
 10
4556.3864358052724128
 20
258.2985987243486079
 30
0.0
 40
0.0326466643588769
 50
248.2498011347537101
 51
264.6196947113327269
  0
ARC
  5
229F3
  8
0
 10
4556.3825014485773863
 20
258.2877824232867852
 30
0.0
 40
0.0211454372972476
 50
222.5110408232717987
 51
247.2910097198989092
  0
ARC
  5
229F4
  8
0
 10
4556.3819436126550499
 20
258.287214258624374
 30
0.0
 40
0.0203503460281894
 50
195.7923469548161108
 51
222.3931479575014976
  0
ARC
  5
229F5
  8
0
 10
4556.4199934597781976
 20
258.4629233214649275
 30
0.0
 40
0.1971540663202086
 50
273.6954445634409012
 51
277.9350054176803155
  0
ARC
  5
229F6
  8
0
 10
4556.4444258171215552
 20
258.2997400211596073
 30
0.0
 40
0.0322037003167173
 50
274.9606409630409871
 51
301.2446382265009106
  0
ARC
  5
229F7
  8
0
 10
4556.4498476279131864
 20
258.2893046215248773
 30
0.0
 40
0.0204843445302266
 50
303.4194146997937764
 51
347.5609633638657101
  0
ARC
  5
229F8
  8
0
 10
4556.4095129107136017
 20
258.5037262026136773
 30
0.0
 40
0.2371990132698209
 50
270.055129086597276
 51
273.3271023529248964
  0
ARC
  5
229F9
  8
0
 10
4556.4217894672383409
 20
258.3233996588904233
 30
0.0
 40
0.0564923069542071
 50
271.5109484811205789
 51
285.1415653619322939
  0
ARC
  5
229FA
  8
0
 10
4556.0606816475210508
 20
258.2882190220714733
 30
0.0
 40
0.0203487946481475
 50
326.5452169978347001
 51
345.9298619394608068
  0
ARC
  5
229FB
  8
0
 10
4556.0604796550987885
 20
258.2883534018238265
 30
0.0
 40
0.0205914019091946
 50
308.8168559904208905
 51
326.5430974380881821
  0
ARC
  5
229FC
  8
0
 10
4556.059090639322676
 20
258.2902603267920085
 30
0.0
 40
0.0229481488963666
 50
285.7781316926071895
 51
308.5345549067735078
  0
ARC
  5
229FD
  8
0
 10
4556.050178027392576
 20
258.3241842659373901
 30
0.0
 40
0.0580209651740572
 50
274.4755627674293805
 51
285.1386540303673769
  0
ARC
  5
229FE
  8
0
 10
4556.0247984695051855
 20
258.564828136345227
 30
0.0
 40
0.2996354812813318
 50
264.9838668910715
 51
268.3758729967215118
  0
ARC
  5
229FF
  8
0
 10
4556.0019330287159391
 20
258.3152729827727967
 30
0.0
 40
0.049046177560114
 50
249.9966330363627947
 51
266.102728053175781
  0
ARC
  5
22A00
  8
0
 10
4555.9933625711073546
 20
258.2889036235118283
 30
0.0
 40
0.0213577699541471
 50
220.7038210014295885
 51
247.4019169172399017
  0
ARC
  5
22A01
  8
0
 10
4555.992671602700284
 20
258.2882384359843968
 30
0.0
 40
0.0204002223431847
 50
194.0901504315565091
 51
220.5531170234320086
  0
ARC
  5
22A02
  8
0
 10
4556.026652550011022
 20
258.1544183596104745
 30
0.0
 40
0.1155951692325663
 50
80.0372775877592062
 51
99.9627229852349757
  0
ARC
  5
22A03
  8
0
 10
4556.0266525488714251
 20
258.3821224618441192
 30
0.0
 40
0.1155951627010285
 50
260.0372770191032146
 51
279.9627235538910099
  0
ARC
  5
22A04
  8
0
 10
4554.6289183628914543
 20
259.2192704140430806
 30
0.0
 40
0.0725
 50
107.0569182680009988
 51
252.9430817319984897
  0
ARC
  5
22A05
  8
0
 10
4554.6210982557677198
 20
259.4404245901216086
 30
0.0
 40
0.154910534150704
 50
265.0206561570805093
 51
282.8364768104777909
  0
ARC
  5
22A06
  8
0
 10
4554.6210982557677198
 20
258.9981162379646094
 30
0.0
 40
0.154910534150704
 50
77.1635241493046067
 51
94.9793438429195049
  0
ARC
  5
22A07
  8
0
 10
4554.6967778378002549
 20
259.160023741690793
 30
0.0
 40
0.1357834093496942
 50
75.9940893026555813
 51
107.6913966177303053
  0
ARC
  5
22A08
  8
0
 10
4554.6956604542529021
 20
259.2437866597985021
 30
0.0
 40
0.1027948892584325
 50
247.0116996782454066
 51
289.3028136371902974
  0
ARC
  5
22A09
  8
0
 10
4554.8303323543414081
 20
258.2977826178370719
 30
0.0
 40
0.8549380948262773
 50
83.2361824166497684
 51
96.7638175833502601
  0
ARC
  5
22A0A
  8
0
 10
4554.8303323543414081
 20
259.8397814462147721
 30
0.0
 40
0.55718485196603
 50
259.5885609166339805
 51
280.4114390833660195
  0
ARC
  5
22A0B
  8
0
 10
4554.9913961323409239
 20
259.4995276549984737
 30
0.0
 40
0.3578860561853709
 50
260.2883328960929248
 51
279.7116671039070752
  0
ARC
  5
22A0C
  8
0
 10
4554.9913961323409239
 20
259.0360829265632105
 30
0.0
 40
0.2627181939250224
 50
76.7148839523299273
 51
103.2851160476701011
  0
ARC
  5
22A0D
  8
0
 10
4555.2146909550410783
 20
256.104051712235389
 30
0.0
 40
3.04707745209235
 50
86.9350128232179742
 51
93.0649871767820258
  0
ARC
  5
22A0E
  8
0
 10
4555.2146909550410783
 20
260.9788260580049268
 30
0.0
 40
1.6949043178134959
 50
264.4839154639769845
 51
275.5160845360229018
  0
ARC
  5
22A0F
  8
0
 10
4555.4600379336407059
 20
259.6555592876014771
 30
0.0
 40
0.5154219938349736
 50
260.7980058804512851
 51
279.2019941195487149
  0
ARC
  5
22A10
  8
0
 10
4555.4600379336407059
 20
258.9320703695133261
 30
0.0
 40
0.3690228121766339
 50
77.0936918387592414
 51
102.9063081612407018
  0
ARC
  5
22A11
  8
0
 10
4555.7394450918400253
 20
266.9749898054383266
 30
0.0
 40
7.6857441139734037
 50
268.5313666334093909
 51
271.4686333665904954
  0
ARC
  5
22A12
  8
0
 10
4555.7394450918400253
 20
256.183673850972923
 30
0.0
 40
2.9696369494002668
 50
86.1966403684757267
 51
93.8033596315242733
  0
ARC
  5
22A13
  8
0
 10
4557.4243867359900833
 20
258.9812691208114757
 30
0.0
 40
0.0725
 50
287.0569183506872832
 51
72.9430816493126741
  0
ARC
  5
22A14
  8
0
 10
4557.4322068432138622
 20
259.2024232968900037
 30
0.0
 40
0.154910534150704
 50
257.1635231895220954
 51
274.9793438429194907
  0
ARC
  5
22A15
  8
0
 10
4557.4322068432138622
 20
258.7601149447331181
 30
0.0
 40
0.154910534150704
 50
85.0206561570805235
 51
102.8364758506953933
  0
ARC
  5
22A16
  8
0
 10
4557.3565272611822365
 20
258.9220224484593018
 30
0.0
 40
0.1357834093496942
 50
72.3086033822697232
 51
104.0059106973444045
  0
ARC
  5
22A17
  8
0
 10
4557.3576446447286799
 20
259.0057853665670109
 30
0.0
 40
0.1027948892584325
 50
250.6971863628097026
 51
292.9883003217545934
  0
ARC
  5
22A18
  8
0
 10
4557.2229727446410834
 20
258.0597813246055807
 30
0.0
 40
0.8549380948262773
 50
83.2361824166497684
 51
96.7638175833502601
  0
ARC
  5
22A19
  8
0
 10
4557.2229727446410834
 20
259.6017801529832809
 30
0.0
 40
0.55718485196603
 50
259.5885609166339805
 51
280.4114390833660195
  0
ARC
  5
22A1A
  8
0
 10
4557.061908966640658
 20
259.2615263617669825
 30
0.0
 40
0.3578860561853709
 50
260.2883328960929248
 51
279.7116671039070752
  0
ARC
  5
22A1B
  8
0
 10
4557.061908966640658
 20
258.7980816333317193
 30
0.0
 40
0.2627181939250224
 50
76.7148839523299273
 51
103.2851160476701011
  0
ARC
  5
22A1C
  8
0
 10
4556.8386141439395942
 20
255.8660504190038978
 30
0.0
 40
3.04707745209235
 50
86.9350128232179742
 51
93.0649871767820258
  0
ARC
  5
22A1D
  8
0
 10
4556.8386141439395942
 20
260.7408247647733788
 30
0.0
 40
1.6949043178134959
 50
264.4839154639769845
 51
275.5160845360229018
  0
ARC
  5
22A1E
  8
0
 10
4556.5932671653399666
 20
259.4175579943698722
 30
0.0
 40
0.5154219938349736
 50
260.7980058804512851
 51
279.2019941195487149
  0
ARC
  5
22A1F
  8
0
 10
4556.5932671653399666
 20
258.6940690762817212
 30
0.0
 40
0.3690228121766339
 50
77.0936918387592414
 51
102.9063081612407018
  0
ARC
  5
22A20
  8
0
 10
4556.3138600071415567
 20
266.7369885122067785
 30
0.0
 40
7.6857441139734037
 50
268.5313666334093909
 51
271.4686333665904954
  0
ARC
  5
22A21
  8
0
 10
4556.3138600071415567
 20
255.9456725577412897
 30
0.0
 40
2.9696369494002668
 50
86.1966403684757267
 51
93.8033596315242733
  0
ARC
  5
22A22
  8
0
 10
4556.0266525494416783
 20
258.6649784848477225
 30
0.0
 40
0.3991222629085251
 50
76.9349724276398064
 51
103.0650275723601936
  0
ARC
  5
22A23
  8
0
 10
4556.0266525494416783
 20
259.4652837344569889
 30
0.0
 40
0.5637809302708892
 50
260.7911127328695216
 51
279.2088872671304784
  0
ARC
  5
22A24
  8
0
 10
4554.6210982557677198
 20
259.2024232968900037
 30
0.0
 40
0.154910534150704
 50
265.0206561570805093
 51
282.8364768104777909
  0
ARC
  5
22A25
  8
0
 10
4554.6210982557677198
 20
258.7601149447331181
 30
0.0
 40
0.154910534150704
 50
77.1635241493046067
 51
94.9793438429193486
  0
ARC
  5
22A26
  8
0
 10
4554.6967778378002549
 20
258.9220224484593018
 30
0.0
 40
0.1357834093496942
 50
75.9940893026555813
 51
107.6913966177303053
  0
ARC
  5
22A27
  8
0
 10
4554.6956604542529021
 20
259.0057853665670109
 30
0.0
 40
0.1027948892584325
 50
247.0116996782454066
 51
289.3028136371902974
  0
ARC
  5
22A28
  8
0
 10
4554.8303323543414081
 20
258.0597813246055807
 30
0.0
 40
0.8549380948262773
 50
83.2361824166497684
 51
96.7638175833502601
  0
ARC
  5
22A29
  8
0
 10
4554.8303323543414081
 20
259.6017801529832809
 30
0.0
 40
0.55718485196603
 50
259.5885609166339805
 51
280.4114390833660195
  0
ARC
  5
22A2A
  8
0
 10
4554.9913961323409239
 20
259.2615263617669825
 30
0.0
 40
0.3578860561853709
 50
260.2883328960929248
 51
279.7116671039070752
  0
ARC
  5
22A2B
  8
0
 10
4554.9913961323409239
 20
258.7980816333317193
 30
0.0
 40
0.2627181939250224
 50
76.7148839523299273
 51
103.2851160476701011
  0
ARC
  5
22A2C
  8
0
 10
4555.2146909550410783
 20
255.8660504190038978
 30
0.0
 40
3.04707745209235
 50
86.9350128232179742
 51
93.0649871767820258
  0
ARC
  5
22A2D
  8
0
 10
4555.2146909550410783
 20
260.7408247647733788
 30
0.0
 40
1.6949043178134959
 50
264.4839154639769845
 51
275.5160845360229018
  0
ARC
  5
22A2E
  8
0
 10
4555.4600379336407059
 20
259.4175579943698722
 30
0.0
 40
0.5154219938349736
 50
260.7980058804512851
 51
279.2019941195487149
  0
ARC
  5
22A2F
  8
0
 10
4555.4600379336407059
 20
258.6940690762817212
 30
0.0
 40
0.3690228121766339
 50
77.0936918387592414
 51
102.9063081612407018
  0
ARC
  5
22A30
  8
0
 10
4555.7394450918400253
 20
266.7369885122067785
 30
0.0
 40
7.6857441139734037
 50
268.5313666334093909
 51
271.4686333665904954
  0
ARC
  5
22A31
  8
0
 10
4555.7394450918400253
 20
255.9456725577412897
 30
0.0
 40
2.9696369494002668
 50
86.1966403684757267
 51
93.8033596315242733
  0
LINE
  5
22A32
  8
0
 10
4554.607652549490922
 20
259.1524421482116054
 30
0.0
 11
4554.607652549490922
 21
259.0480973866430077
 31
0.0
  0
LINE
  5
22A33
  8
0
 10
4554.8308092602510442
 20
258.4186925495105243
 30
0.0
 11
4554.8319863904744125
 21
258.41965069034012
 31
0.0
  0
LINE
  5
22A34
  8
0
 10
4555.6909436953910699
 20
258.2816758769430976
 30
0.0
 11
4555.7106054255900744
 21
258.3513347951430887
 31
0.0
  0
LINE
  5
22A35
  8
0
 10
4555.3484085897916884
 20
258.2802952453430976
 30
0.0
 11
4555.3668536258910535
 21
258.3396954817430924
 31
0.0
  0
LINE
  5
22A36
  8
0
 10
4554.9588540966924484
 20
258.2787546820430862
 30
0.0
 11
4554.9756305097907898
 21
258.3276819705430967
 31
0.0
  0
LINE
  5
22A37
  8
0
 10
4555.0941493683912995
 20
258.2792859663430818
 30
0.0
 11
4555.1115363233911921
 21
258.3317166155430868
 31
0.0
  0
LINE
  5
22A38
  8
0
 10
4555.5834539811912691
 20
258.2848922793431257
 30
0.0
 11
4555.5621539959920483
 21
258.3823033281431094
 31
0.0
  0
LINE
  5
22A39
  8
0
 10
4555.2410328132909854
 20
258.2863336970431192
 30
0.0
 11
4555.2196460846907939
 21
258.3983065140430995
 31
0.0
  0
LINE
  5
22A3A
  8
0
 10
4554.9869027204913436
 20
258.2874117666431175
 30
0.0
 11
4554.9657654803922924
 21
258.4113208839430058
 31
0.0
  0
LINE
  5
22A3B
  8
0
 10
4554.8516914819911108
 20
258.2879877608430093
 30
0.0
 11
4554.8308092602510442
 21
258.4186925495105243
 31
0.0
  0
ARC
  5
22A3C
  8
0
 10
4556.2265055243906318
 20
260.0782450866431077
 30
0.0
 40
1.8577064744999989
 50
247.304874498896595
 51
249.3520784916030095
  0
ARC
  5
22A3D
  8
0
 10
4556.2235486549907364
 20
260.0696885006429966
 30
0.0
 40
1.8486498264999991
 50
253.4049091398545954
 51
255.2212694503963917
  0
ARC
  5
22A3E
  8
0
 10
4555.4181549984914454
 20
258.8160663044430976
 30
0.0
 40
0.6522729690000001
 50
223.8268903260866978
 51
227.6792229817214093
  0
ARC
  5
22A3F
  8
0
 10
4555.6494394054907389
 20
258.6934592058431122
 30
0.0
 40
0.4282609845000001
 50
267.3558382820961015
 51
269.9489364058892988
  0
ARC
  5
22A40
  8
0
 10
4555.6463474010915888
 20
258.6325614595430125
 30
0.0
 40
0.3672855384
 50
265.9808617797930879
 51
267.3994116053775087
  0
ARC
  5
22A41
  8
0
 10
4555.6491357083914409
 20
258.5948375359430997
 30
0.0
 40
0.3296391537
 50
269.9864458577807227
 51
271.246322699409518
  0
ARC
  5
22A42
  8
0
 10
4555.6330076661306521
 20
258.1432183064395076
 30
0.0
 40
0.1266964491693283
 50
79.2039632015596879
 51
97.3681494379722636
  0
ARC
  5
22A43
  8
0
 10
4555.4388597263905467
 20
258.1949053015430877
 30
0.0
 40
0.183703492
 50
67.3002829356997267
 51
73.1267053247194809
  0
ARC
  5
22A44
  8
0
 10
4555.4420273186906343
 20
258.2051892727430982
 30
0.0
 40
0.1729428493
 50
73.1420238744128426
 51
75.6238019353785234
  0
ARC
  5
22A45
  8
0
 10
4555.4452024118909321
 20
258.2179996170431195
 30
0.0
 40
0.1597453417
 50
75.5861492620133362
 51
78.9971926375821027
  0
ARC
  5
22A46
  8
0
 10
4555.4480565147905509
 20
258.2329969696431249
 30
0.0
 40
0.1444789598
 50
78.9731158647130513
 51
82.2704146753800387
  0
ARC
  5
22A47
  8
0
 10
4555.4503449024914516
 20
258.2506550809430905
 30
0.0
 40
0.1266735545
 50
82.2218441099115722
 51
85.7444049901245933
  0
ARC
  5
22A48
  8
0
 10
4556.026652549490791
 20
260.1582704140431019
 30
0.0
 40
2.1200000000000001
 50
240.1857159128313128
 51
240.4932379597927934
  0
ARC
  5
22A49
  8
0
 10
4555.6485929834916533
 20
259.8135213955430913
 30
0.0
 40
1.5938279373999999
 50
250.0952592522569944
 51
250.8306962057143892
  0
ARC
  5
22A4A
  8
0
 10
4555.6463273068911803
 20
259.8069655666431004
 30
0.0
 40
1.5868916543
 50
250.8302403397817102
 51
251.7766940120056915
  0
ARC
  5
22A4B
  8
0
 10
4555.6447014149907773
 20
259.8019906068431055
 30
0.0
 40
1.5816577629999999
 50
251.7762799306206034
 51
253.922400553617706
  0
ARC
  5
22A4C
  8
0
 10
4555.5454393822910788
 20
259.6354050597431069
 30
0.0
 40
1.4154086281999989
 50
287.0487200241014989
 51
287.5497641650260903
  0
ARC
  5
22A4D
  8
0
 10
4555.0479413964430933
 20
258.6111730362741241
 30
0.0
 40
0.4417816761592661
 50
313.3989147157107027
 51
321.0042383979090914
  0
ARC
  5
22A4E
  8
0
 10
4555.3095648223907119
 20
258.6142175320430852
 30
0.0
 40
0.3473251891
 50
257.837570270487106
 51
260.578080403601291
  0
ARC
  5
22A4F
  8
0
 10
4554.8837755071908759
 20
258.1509278462430075
 30
0.0
 40
0.2361416916
 50
67.8312335615143809
 51
68.5625053400054441
  0
ARC
  5
22A50
  8
0
 10
4554.9002477340909536
 20
258.1933844691430977
 30
0.0
 40
0.1906020734
 50
68.5069912998923911
 51
70.2439034446815924
  0
LINE
  5
22A51
  8
0
 10
4555.0556675758907659
 20
258.2656926391430829
 30
0.0
 11
4555.0705488970907027
 21
258.2651983914431071
 31
0.0
  0
LINE
  5
22A52
  8
0
 10
4555.3084561095920435
 20
258.2653190984431149
 30
0.0
 11
4555.3170064136911606
 21
258.2651983914431071
 31
0.0
  0
LINE
  5
22A53
  8
0
 10
4554.8849725564914479
 20
258.2694692470429914
 30
0.0
 11
4554.9394115915911243
 21
258.2651983914431071
 31
0.0
  0
LINE
  5
22A54
  8
0
 10
4555.6567396047939837
 20
258.2676722550287991
 30
0.0
 11
4555.6490999861907767
 21
258.2666147956430791
 31
0.0
  0
LINE
  5
22A55
  8
0
 10
4555.6490999861907767
 20
258.2666147956430791
 30
0.0
 11
4555.6435639591909421
 21
258.2665272991430925
 31
0.0
  0
LINE
  5
22A56
  8
0
 10
4554.9419819694903708
 20
258.3762550474431237
 30
0.0
 11
4554.9433647430905694
 21
258.3769709040431053
 31
0.0
  0
LINE
  5
22A57
  8
0
 10
4554.9433647430905694
 20
258.3769709040431053
 30
0.0
 11
4554.946127721492303
 21
258.3772868606430961
 31
0.0
  0
LINE
  5
22A58
  8
0
 10
4554.946127721492303
 20
258.3772868606430961
 30
0.0
 11
4554.9490765929922418
 21
258.3770526529431208
 31
0.0
  0
LINE
  5
22A59
  8
0
 10
4554.9490765929922418
 20
258.3770526529431208
 30
0.0
 11
4554.9543349846908313
 21
258.3759942659431204
 31
0.0
  0
LINE
  5
22A5A
  8
0
 10
4554.9543349846908313
 20
258.3759942659431204
 30
0.0
 11
4554.9581593128914392
 21
258.3749315553430961
 31
0.0
  0
LINE
  5
22A5B
  8
0
 10
4554.9581593128914392
 20
258.3749315553430961
 30
0.0
 11
4554.9646744487909018
 21
258.3727677147430768
 31
0.0
  0
ARC
  5
22A5C
  8
0
 10
4555.6875853526789797
 20
258.3577550350395882
 30
0.0
 40
0.0238986032479649
 50
344.4163485678652137
 51
5.2908360846400493
  0
ARC
  5
22A5D
  8
0
 10
4555.6789744810002958
 20
258.356805813850201
 30
0.0
 40
0.0325606677674577
 50
5.556822432674652
 51
27.8014423417664283
  0
ARC
  5
22A5E
  8
0
 10
4555.6488344658773713
 20
258.339742423427424
 30
0.0
 40
0.067188105641873
 50
28.6850960275042013
 51
55.3693242960970622
  0
ARC
  5
22A5F
  8
0
 10
4555.6127720276399486
 20
258.2923941239151873
 30
0.0
 40
0.1266717359585454
 50
54.1180987296136706
 51
72.1197183551781791
  0
ARC
  5
22A60
  8
0
 10
4555.60963285455
 20
258.286347316303079
 30
0.0
 40
0.1333950957949207
 50
71.6339237596483827
 51
85.7074334226877568
  0
ARC
  5
22A61
  8
0
 10
4555.6119310110034348
 20
258.3235272512068263
 30
0.0
 40
0.0961486951979791
 50
85.4147314740218349
 51
100.8184362790184991
  0
ARC
  5
22A62
  8
0
 10
4555.6029102554011843
 20
258.3663834312673089
 30
0.0
 40
0.0523673946207661
 50
99.9251277030209906
 51
125.2187379591893972
  0
ARC
  5
22A63
  8
0
 10
4555.5886169573495863
 20
258.3867539001648197
 30
0.0
 40
0.0274827635341318
 50
125.3660063628289976
 51
159.3075614603046972
  0
ARC
  5
22A64
  8
0
 10
4555.5868260969409675
 20
258.3880921537397057
 30
0.0
 40
0.0253421204142505
 50
160.7074655012243056
 51
193.2044827908572131
  0
ARC
  5
22A65
  8
0
 10
4555.3522316944672639
 20
258.3441083758099808
 30
0.0
 40
0.0152733268352551
 50
343.2062031903436718
 51
4.4854116902711274
  0
ARC
  5
22A66
  8
0
 10
4555.3392886460242153
 20
258.3425591723639059
 30
0.0
 40
0.0283028951319158
 50
5.5629389454615463
 51
31.0775565706499108
  0
ARC
  5
22A67
  8
0
 10
4555.2999772109869809
 20
258.3198614784179767
 30
0.0
 40
0.0736933681406528
 50
30.4146545487212414
 51
45.9962754060848269
  0
ARC
  5
22A68
  8
0
 10
4555.2408162973979415
 20
258.2581983142961235
 30
0.0
 40
0.1591469945498869
 50
46.0983723672293024
 51
60.1932854128232222
  0
ARC
  5
22A69
  8
0
 10
4555.2211409964638733
 20
258.2272915338101029
 30
0.0
 40
0.1957526074488093
 50
59.6929487274762707
 51
70.9026518448288101
  0
ARC
  5
22A6A
  8
0
 10
4555.2378471297552096
 20
258.277407708903695
 30
0.0
 40
0.142930109972293
 50
70.6581141328034477
 51
80.7839133799179905
  0
ARC
  5
22A6B
  8
0
 10
4555.2470835054664349
 20
258.3369426582116262
 30
0.0
 40
0.0826854506187467
 50
80.4943534222882278
 51
93.3927797306999281
  0
ARC
  5
22A6C
  8
0
 10
4555.2431452205137248
 20
258.3866829353580101
 30
0.0
 40
0.0328141524800848
 50
91.6678848302217233
 51
122.0167524635217973
  0
ARC
  5
22A6D
  8
0
 10
4555.2341044538961796
 20
258.4021418225772209
 30
0.0
 40
0.0149229718936512
 50
124.0528152867152016
 51
156.4977111207452083
  0
ARC
  5
22A6E
  8
0
 10
4555.2357635779453631
 20
258.401956611390176
 30
0.0
 40
0.0165256406663539
 50
158.2030334754001046
 51
192.7604185746650955
  0
ARC
  5
22A6F
  8
0
 10
4555.1053302182517655
 20
258.3336695607933962
 30
0.0
 40
0.0065061306583032
 50
342.5321859012759091
 51
5.9185629774804713
  0
ARC
  5
22A70
  8
0
 10
4555.0975742353521127
 20
258.3326727144242909
 30
0.0
 40
0.0143248433813854
 50
6.685641832633439
 51
27.1390741354994383
  0
ARC
  5
22A71
  8
0
 10
4555.0711724344719187
 20
258.3191178793264839
 30
0.0
 40
0.0440029249174922
 50
27.1641292367497904
 51
41.533954801247539
  0
ARC
  5
22A72
  8
0
 10
4554.9926651895184477
 20
258.2495783593373062
 30
0.0
 40
0.1488796732973428
 50
41.5337217773013307
 51
52.8740705225376928
  0
ARC
  5
22A73
  8
0
 10
4554.8844138642034522
 20
258.1126329953622758
 30
0.0
 40
0.3234254720892247
 50
52.2267401746476807
 51
60.5799440411692203
  0
ARC
  5
22A74
  8
0
 10
4554.8966235203897668
 20
258.1382331871196243
 30
0.0
 40
0.2951355182881045
 50
60.2033384218744487
 51
67.6375454146979109
  0
ARC
  5
22A75
  8
0
 10
4554.9572788748682797
 20
258.2882709698358212
 30
0.0
 40
0.133307716902771
 50
67.2119352576025761
 51
78.1986873156392903
  0
ARC
  5
22A76
  8
0
 10
4554.976360488899445
 20
258.3804818624270752
 30
0.0
 40
0.0391437870355331
 50
77.9344089782514828
 51
94.3384752873238455
  0
ARC
  5
22A77
  8
0
 10
4554.9742171751668138
 20
258.4077343831352209
 30
0.0
 40
0.0118074604897555
 50
93.9717968146075151
 51
118.8782218233325949
  0
ARC
  5
22A78
  8
0
 10
4554.9712318912097544
 20
258.4131935241583733
 30
0.0
 40
0.0055854770977091
 50
119.1083243822471047
 51
164.1848109902219903
  0
ARC
  5
22A79
  8
0
 10
4554.9735146698358221
 20
258.4128087412203172
 30
0.0
 40
0.0078907323073333
 50
166.0143542310702003
 51
190.8686173545561076
  0
ARC
  5
22A7A
  8
0
 10
4554.9738558702229057
 20
258.3906370801294088
 30
0.0
 40
0.037145439745305
 50
211.6423374002735045
 51
224.9829168807573865
  0
ARC
  5
22A7B
  8
0
 10
4554.9499122914794498
 20
258.3756058571112817
 30
0.0
 40
0.0088788420727028
 50
193.248218272133812
 51
210.1223936402618051
  0
ARC
  5
22A7C
  8
0
 10
4554.9440380991936763
 20
258.3743247802015048
 30
0.0
 40
0.0028691143918817
 50
149.9323923563198093
 51
195.2297527750505992
  0
ARC
  5
22A7D
  8
0
 10
4554.9435255213002165
 20
258.3744865407164184
 30
0.0
 40
0.0023473747527142
 50
131.1144398765557071
 51
147.0798339288172087
  0
ARC
  5
22A7E
  8
0
 10
4554.9747819274625726
 20
258.3279354341206044
 30
0.0
 40
0.0008856273213953
 50
343.3696082767360735
 51
11.6756969764242893
  0
ARC
  5
22A7F
  8
0
 10
4554.9727352187755969
 20
258.3274457744431061
 30
0.0
 40
0.0029897942776547
 50
12.9277980408563309
 51
34.6944582592499273
  0
ARC
  5
22A80
  8
0
 10
4554.9635243278980852
 20
258.3214332427344857
 30
0.0
 40
0.0139885166879953
 50
33.4682894900789307
 51
43.9556370143996702
  0
ARC
  5
22A81
  8
0
 10
4554.912529453337811
 20
258.2711376014731854
 30
0.0
 40
0.0856126834668685
 50
44.4984653168878665
 51
52.2138231149840522
  0
ARC
  5
22A82
  8
0
 10
4554.6228144611832249
 20
257.9000265139346197
 30
0.0
 40
0.556418198995691
 50
52.0514624847704326
 51
57.0488134865883296
  0
ARC
  5
22A83
  8
0
 10
4554.3546414991851634
 20
257.5092750812769964
 30
0.0
 40
1.0302526757231509
 50
56.3539683659048407
 51
60.3961181338396287
  0
ARC
  5
22A84
  8
0
 10
4554.745615134676882
 20
258.2037304528997197
 30
0.0
 40
0.2333301412565813
 50
59.6287347061720681
 51
66.4088563639687237
  0
ARC
  5
22A85
  8
0
 10
4554.8277472218032926
 20
258.3926446013102804
 30
0.0
 40
0.0273367773465953
 50
65.7025716670966915
 51
81.0790281018310282
  0
ARC
  5
22A86
  8
0
 10
4555.8642079925966755
 20
258.606017937689785
 30
0.0
 40
0.337811967167831
 50
272.0845888517847015
 51
286.5466803397495141
  0
ARC
  5
22A87
  8
0
 10
4555.8603141174671691
 20
258.6920634680520266
 30
0.0
 40
0.4239428768961745
 50
255.1947879255563123
 51
272.1874918771355283
  0
ARC
  5
22A88
  8
0
 10
4554.9333423169800881
 20
258.7074051782161064
 30
0.0
 40
0.5914086024914768
 50
320.7447970986693235
 51
323.7980820554892034
  0
ARC
  5
22A89
  8
0
 10
4555.4581485151056768
 20
258.328458791927801
 30
0.0
 40
0.0560530247063631
 50
135.1423233578786096
 51
148.0752283738775077
  0
ARC
  5
22A8A
  8
0
 10
4555.4374929145260467
 20
258.3458668840373207
 30
0.0
 40
0.0292174936207256
 50
114.1529735161952033
 51
130.7660561668820947
  0
ARC
  5
22A8B
  8
0
 10
4555.4473184653952558
 20
258.3218702780105218
 30
0.0
 40
0.0551403140023975
 50
94.8752192531094352
 51
113.2661698551907961
  0
ARC
  5
22A8C
  8
0
 10
4555.4521038880566266
 20
258.2838194698321104
 30
0.0
 40
0.0934727473656989
 50
85.3111206380105642
 51
95.8157526767077741
  0
ARC
  5
22A8D
  8
0
 10
4555.3182433539222984
 20
258.3876510914194
 30
0.0
 40
0.122458947213471
 50
269.4212537218090233
 51
274.9073102282944205
  0
ARC
  5
22A8E
  8
0
 10
4555.326718502611584
 20
258.2919026298624772
 30
0.0
 40
0.0263376824496755
 50
274.3561097666844262
 51
293.742241819102901
  0
ARC
  5
22A8F
  8
0
 10
4555.3287988278998455
 20
258.2866001492428154
 30
0.0
 40
0.0206476738631884
 50
294.382264947275587
 51
316.4195400261606892
  0
ARC
  5
22A90
  8
0
 10
4555.3290854488996047
 20
258.2863038435453973
 30
0.0
 40
0.0202357857827208
 50
316.4678361577887244
 51
342.7267357634152063
  0
ARC
  5
22A91
  8
0
 10
4555.321925105243281
 20
258.7632693653233105
 30
0.0
 40
0.4981323941784807
 50
264.3687467410588283
 51
268.4505912892367974
  0
ARC
  5
22A92
  8
0
 10
4555.2900975283500884
 20
258.4405668480732174
 30
0.0
 40
0.173864127027627
 50
260.3763845409342252
 51
264.3715642939799864
  0
ARC
  5
22A93
  8
0
 10
4555.2665203574042607
 20
258.3036671386882972
 30
0.0
 40
0.0349513063116595
 50
247.7529350456482007
 51
260.965147405835296
  0
ARC
  5
22A94
  8
0
 10
4555.262030099200274
 20
258.2916190306203248
 30
0.0
 40
0.0221037619031895
 50
233.0412920819370015
 51
246.7019618503977085
  0
ARC
  5
22A95
  8
0
 10
4555.2611454175212202
 20
258.290323236982772
 30
0.0
 40
0.0205365547306123
 50
213.4766952330325864
 51
232.8399685585316945
  0
ARC
  5
22A96
  8
0
 10
4555.2609361039822033
 20
258.290148436387085
 30
0.0
 40
0.0202655672654867
 50
190.8499434741439131
 51
213.3908992410646022
  0
ARC
  5
22A97
  8
0
 10
4555.3303042117686346
 20
258.7089137951005
 30
0.0
 40
0.4442654955365725
 50
253.8430521224605911
 51
257.7959258488219234
  0
ARC
  5
22A98
  8
0
 10
4554.9396574157626674
 20
258.286178528627886
 30
0.0
 40
0.0209815772958129
 50
269.328696330942023
 51
289.7884351471798254
  0
ARC
  5
22A99
  8
0
 10
4554.9399076251738734
 20
258.2852635348194781
 30
0.0
 40
0.0200360446733343
 50
290.0010066211182789
 51
313.8364455312927817
  0
ARC
  5
22A9A
  8
0
 10
4554.9399212034968514
 20
258.2852479996632837
 30
0.0
 40
0.0200154345048775
 50
313.8392089766691129
 51
341.0698317038181244
  0
ARC
  5
22A9B
  8
0
 10
4554.9171680025128808
 20
258.6349943306894943
 30
0.0
 40
0.3669402315354691
 50
262.4441628768943247
 51
264.9663785310523281
  0
ARC
  5
22A9C
  8
0
 10
4554.8717488836891789
 20
258.2915696637300016
 30
0.0
 40
0.0205256212807373
 50
227.8449057456562059
 51
262.0730176398383264
  0
ARC
  5
22A9D
  8
0
 10
4554.871456290239621
 20
258.2911464441568228
 30
0.0
 40
0.0200156170379575
 50
189.0798580487613947
 51
227.6527394478879955
  0
ARC
  5
22A9E
  8
0
 10
4555.0716873587161899
 20
258.3062649723080995
 30
0.0
 40
0.0410823582430799
 50
268.4120337636970248
 51
279.4016679685706208
  0
ARC
  5
22A9F
  8
0
 10
4555.0746637001775525
 20
258.2862533582443234
 30
0.0
 40
0.0208560054379134
 50
280.3155087965524217
 51
306.8133335628976965
  0
ARC
  5
22AA0
  8
0
 10
4555.075050044371892
 20
258.2856319521508794
 30
0.0
 40
0.0201271101987047
 50
306.9928142355772138
 51
327.9235296605536973
  0
ARC
  5
22AA1
  8
0
 10
4555.0750496605387525
 20
258.2856269687205213
 30
0.0
 40
0.0201247894696526
 50
327.9361320045788943
 51
341.6341054938068282
  0
ARC
  5
22AA2
  8
0
 10
4555.0964758699210506
 20
259.0216016813093916
 30
0.0
 40
0.7570097733124067
 50
265.2608570176599869
 51
266.9098457917950213
  0
ARC
  5
22AA3
  8
0
 10
4555.087401632725232
 20
258.9211892975744718
 30
0.0
 40
0.6561913995434783
 50
264.2110768847853137
 51
265.3260998523625744
  0
ARC
  5
22AA4
  8
0
 10
4555.0456853637688255
 20
258.5244880465273809
 30
0.0
 40
0.2573098847307793
 50
261.3799742603263212
 51
264.5430090947161261
  0
ARC
  5
22AA5
  8
0
 10
4555.0099582899074449
 20
258.2971825390284266
 30
0.0
 40
0.0272461081067738
 50
238.8592415746549875
 51
264.0195068660246989
  0
ARC
  5
22AA6
  8
0
 10
4555.006807162010773
 20
258.2908541522767791
 30
0.0
 40
0.0202082639369097
 50
210.8179062550017022
 51
237.2269628106375023
  0
ARC
  5
22AA7
  8
0
 10
4555.0067074450080327
 20
258.2907929707141079
 30
0.0
 40
0.0200912830399936
 50
189.6885325529385113
 51
210.813752222439291
  0
ARC
  5
22AA8
  8
0
 10
4555.0221196714819598
 20
258.0404163236743216
 30
0.0
 40
0.2293807313211377
 50
80.6651400006878561
 51
90.6691098042291657
  0
ARC
  5
22AA9
  8
0
 10
4555.0566475082841862
 20
258.4961245207688876
 30
0.0
 40
0.2293807477620939
 50
260.6651403508690237
 51
270.669109435576388
  0
ARC
  5
22AAA
  8
0
 10
4555.2855037991457721
 20
258.1194194834474729
 30
0.0
 40
0.150421471286251
 50
79.1411107036938972
 51
94.4214262729024369
  0
ARC
  5
22AAB
  8
0
 10
4555.3022026283106243
 20
258.4163581139602002
 30
0.0
 40
0.1496638553426675
 50
259.1022026833321092
 51
274.4603342932516057
  0
ARC
  5
22AAC
  8
0
 10
4555.6539455596175685
 20
258.4181807779597193
 30
0.0
 40
0.1529226235534351
 50
270.8842743547652958
 51
276.0000442692640945
  0
ARC
  5
22AAD
  8
0
 10
4555.6668692937100786
 20
258.2985987243486079
 30
0.0
 40
0.0326466643588769
 50
275.3803052886672731
 51
291.7501988652463183
  0
ARC
  5
22AAE
  8
0
 10
4555.6708036504060146
 20
258.2877824232867852
 30
0.0
 40
0.0211454372972476
 50
292.7089902801009771
 51
317.4889591767282013
  0
ARC
  5
22AAF
  8
0
 10
4555.671361486328351
 20
258.287214258624374
 30
0.0
 40
0.0203503460281894
 50
317.606852042498474
 51
344.2076530451839176
  0
ARC
  5
22AB0
  8
0
 10
4555.6333116392042939
 20
258.4629233214649275
 30
0.0
 40
0.1971540663202086
 50
262.0649945823196845
 51
266.3045554365590988
  0
ARC
  5
22AB1
  8
0
 10
4555.6088792818600268
 20
258.2997400211596073
 30
0.0
 40
0.0322037003167173
 50
238.7553617734990894
 51
265.0393590369590129
  0
ARC
  5
22AB2
  8
0
 10
4555.603457471069305
 20
258.2893046215248773
 30
0.0
 40
0.0204843445302266
 50
192.4390366361342899
 51
236.5805853002061951
  0
ARC
  5
22AB3
  8
0
 10
4555.6437921882688897
 20
258.5037262026136773
 30
0.0
 40
0.2371990132698209
 50
266.6728976470751036
 51
269.944870913402724
  0
ARC
  5
22AB4
  8
0
 10
4555.6315156317441506
 20
258.3233996588904233
 30
0.0
 40
0.0564923069542071
 50
254.8584346380677914
 51
268.4890515188793074
  0
ARC
  5
22AB6
  8
0
 10
4554.6289183628914543
 20
258.9812691208115893
 30
0.0
 40
0.0725
 50
107.0569182680013967
 51
252.9430817319990012
  0
LINE
  5
22ABE
  8
0
 10
4557.0055183755912367
 20
263.4167750485431156
 30
0.0
 11
4555.0477867232912104
 21
263.4167750485431156
 31
0.0
  0
LINE
  5
22ABF
  8
0
 10
4557.0070437893909912
 20
263.0695279093430941
 30
0.0
 11
4555.0462613094905464
 21
263.0695279093430941
 31
0.0
  0
LINE
  5
22AC0
  8
0
 10
4557.0070437893909912
 20
262.9030129186431282
 30
0.0
 11
4555.0462613094905464
 21
262.9030129186431282
 31
0.0
  0
LINE
  5
22AC1
  8
0
 10
4557.0070437893909912
 20
262.5495279093429986
 30
0.0
 11
4555.0462613094905464
 21
262.5495279093429986
 31
0.0
  0
LINE
  5
22AC2
  8
0
 10
4557.0070437893909912
 20
262.3830129186430895
 30
0.0
 11
4555.0462613094905464
 21
262.3830129186430895
 31
0.0
  0
LINE
  5
22AC3
  8
0
 10
4557.0070437893909912
 20
262.0295279093430736
 30
0.0
 11
4555.0462613094905464
 21
262.0295279093430736
 31
0.0
  0
LINE
  5
22AC4
  8
0
 10
4557.0162585572907119
 20
261.8699417579430815
 30
0.0
 11
4555.0370465415908257
 21
261.8699417579430815
 31
0.0
  0
ARC
  5
22AC5
  8
0
 10
4556.0271891285956372
 20
258.3075663319191904
 30
0.0
 40
0.1120856436935394
 50
69.9203740609747939
 51
82.74375597235003
  0
ARC
  5
22AC6
  8
0
 10
4556.026652549490791
 20
258.2987705300884045
 30
0.0
 40
0.1208801605547247
 50
83.0180494237195035
 51
96.9819505762804823
  0
ARC
  5
22AC7
  8
0
 10
4556.0285066282385742
 20
258.564828136345227
 30
0.0
 40
0.2996354812813318
 50
271.6241270032786019
 51
275.0161331089285
  0
ARC
  5
22AC8
  8
0
 10
4556.0266525488714251
 20
258.7321680048685266
 30
0.0
 40
0.4669696134254285
 50
268.7304091577875056
 51
271.2695908422126081
  0
LINE
  5
22AC9
  8
0
 10
4556.3496525494911111
 20
258.0381667421431189
 30
0.0
 11
4556.4536525494922898
 21
258.0569762826431202
 31
0.0
  0
ARC
  5
22ACA
  8
0
 10
4556.026652549490791
 20
260.1209873951431177
 30
0.0
 40
2.1077169810999998
 50
281.688390040208219
 51
288.2482633344864098
  0
ARC
  5
22ACB
  8
0
 10
4556.026652549490791
 20
260.1209873980764087
 30
0.0
 40
2.1077169840332739
 50
261.1848937569674831
 51
278.8151062430325169
  0
ATTDEF
  5
22ACC
  8
DEFPOINTS
 10
4556.0268956449999678
 20
263.981677235636198
 30
0.0
 40
0.001
  1
K-8509
  3

  2
MODELNUMBER
 70
     0
1001
ACDBATTR
1070
     0
1070
     1
  0
ATTDEF
  5
22ACD
  8
DEFPOINTS
 10
4556.0267698353436572
 20
263.9800103952571249
 30
0.0
 40
0.001
  1
MASTERSHOWER
  3

  2
TRADENAME
 70
     0
1001
ACDBATTR
1070
     0
1070
     1
  0
ATTDEF
  5
22ACE
  8
DEFPOINTS
 10
4556.0268956449999678
 20
263.9783439023029246
 30
0.0
 40
0.001
  1
BODY SPRAY
  3

  2
PRODUCT
 70
     0
1001
ACDBATTR
1070
     0
1070
     1
  0
LINE
  5
22C58
  8
0
 10
4556.781654622487622
 20
263.2467257111343883
 30
0.0
 11
4555.27165047649396
 21
263.2467257111343883
 31
0.0
  0
LINE
  5
22C59
  8
0
 10
4556.7816525494909001
 20
262.7262704140430856
 30
0.0
 11
4555.2716525494915913
 21
262.7262704140430856
 31
0.0
  0
LINE
  5
22C5A
  8
0
 10
4556.7816525494909001
 20
262.2062704140431038
 30
0.0
 11
4555.2716525494915913
 21
262.2062704140431038
 31
0.0
  0
LINE
  5
22C5B
  8
0
 10
4556.8266525494909729
 20
261.6862704139799121
 30
0.0
 11
4555.2266525494951566
 21
261.6862704139799121
 31
0.0
  0
ENDSEC
  0
EOF
